  0
SECTION
  2
HEADER
  9
$ACADVER
  1
AC1006
  9
$EXTMIN
 10
-2.166260
 20
-3.587697
  9
$EXTMAX
 10
2.171000
 20
3.587000
  9
$LTSCALE
 40
0.000394
  9
$PDMODE
 70
    35
  9
$PDSIZE
 40
0.000315
  0
ENDSEC
  0
SECTION
  2
TABLES
  0
TABLE
  2
LTYPE
 70
     9
  0
LTYPE
  2
CONTINUOUS
 70
    64
  3
Solid line
 72
    65
 73
     0
 40
0.000000
  0
LTYPE
  2
DASHED
 70
    64
  3
__ __ __ __ __ __ __ __ __ __ __ __ __ __ __
 72
    65
 73
     2
 40
0.000003
 49
0.000002
 49
-0.000001
  0
LTYPE
  2
HIDDEN
 70
    64
  3
 _ _ _ _ _ _ _ _ _ _ _ _ _ _ _ _ _ _ _ _ _ _
 72
    65
 73
     2
 40
0.000001
 49
0.000001
 49
-0.000000
  0
LTYPE
  2
CENTER
 70
    64
  3
____ _ ____ _ ____ _ ____ _ ____ _ ____ _ ____
 72
    65
 73
     4
 40
0.000008
 49
0.000005
 49
-0.000001
 49
0.000001
 49
-0.000001
  0
LTYPE
  2
PHANTOM
 70
    64
  3
_____ _ _ _____ _ _ _____ _ _ _____ _ _ ____
 72
    65
 73
     6
 40
0.000010
 49
0.000005
 49
-0.000001
 49
0.000001
 49
-0.000001
 49
0.000001
 49
-0.000001
  0
LTYPE
  2
DOT
 70
    64
  3
...............................................
 72
    65
 73
     2
 40
0.000001
 49
0.000000
 49
-0.000001
  0
LTYPE
  2
DASHDOT
 70
    64
  3
__ . __ . __ . __ . __ . __ . __ . __ . __ . __
 72
    65
 73
     4
 40
0.000004
 49
0.000002
 49
-0.000001
 49
0.000000
 49
-0.000001
  0
LTYPE
  2
BORDER
 70
    64
  3
__ __ . __ __ . __ __ . __ __ . __ __ . __ __
 72
    65
 73
     6
 40
0.000007
 49
0.000002
 49
-0.000001
 49
0.000002
 49
-0.000001
 49
0.000000
 49
-0.000001
  0
LTYPE
  2
DIVIDE
 70
    64
  3
__ . . __ . . __ . . __ . . __ . . __ . . __
 72
    65
 73
     6
 40
0.000005
 49
0.000002
 49
-0.000001
 49
0.000000
 49
-0.000001
 49
0.000000
 49
-0.000001
  0
LTYPE
  2
DOTDOT
 70
    64
  3
 . .  . .  . .  . .  . .  . . 
 72
    65
 73
     5
 40
0.000002
 49
-0.000001
 49
0.000000
 49
-0.000001
 49
0.000000
 49
-0.000001
  0
ENDTAB
  0
TABLE
  2
STYLE
 70
     0
  0
ENDTAB
  0
TABLE
  2
LAYER
 70
     3
  0
LAYER
  2
FOREGROUND
 70
    64
 62
     7
  6
CONTINUOUS
  0
LAYER
  2
BACKGROUND
 70
    65
 62
    -7
  6
CONTINUOUS
  0
LAYER
  2
PLAN_1
 70
    64
 62
     7
  6
CONTINUOUS
  0
ENDTAB
  0
ENDSEC
  0
SECTION
  2
ENTITIES
  0
POLYLINE
  8
PLAN_1
  6
CONTINUOUS
 66
     1
 40
0.003000
 41
0.003000
  0
VERTEX
  8
PLAN_1
  6
CONTINUOUS
 10
0.240110
 20
-3.553165
  0
VERTEX
  8
PLAN_1
  6
CONTINUOUS
 10
0.083610
 20
-3.553165
  0
VERTEX
  8
PLAN_1
  6
CONTINUOUS
 10
0.083610
 20
-3.530744
  0
VERTEX
  8
PLAN_1
  6
CONTINUOUS
 10
0.205583
 20
-3.377386
  0
VERTEX
  8
PLAN_1
  6
CONTINUOUS
 10
0.092579
 20
-3.377386
  0
VERTEX
  8
PLAN_1
  6
CONTINUOUS
 10
0.092579
 20
-3.353622
  0
VERTEX
  8
PLAN_1
  6
CONTINUOUS
 10
0.240110
 20
-3.353622
  0
VERTEX
  8
PLAN_1
  6
CONTINUOUS
 10
0.240110
 20
-3.376937
  0
VERTEX
  8
PLAN_1
  6
CONTINUOUS
 10
0.117693
 20
-3.528953
  0
VERTEX
  8
PLAN_1
  6
CONTINUOUS
 10
0.240110
 20
-3.528953
  0
VERTEX
  8
PLAN_1
  6
CONTINUOUS
 10
0.240110
 20
-3.553165
  0
SEQEND
  8
0
  0
POLYLINE
  8
PLAN_1
  6
CONTINUOUS
 66
     1
 40
0.003000
 41
0.003000
  0
VERTEX
  8
PLAN_1
  6
CONTINUOUS
 10
0.407819
 20
-3.413709
  0
VERTEX
  8
PLAN_1
  6
CONTINUOUS
 10
0.406024
 20
-3.407429
  0
VERTEX
  8
PLAN_1
  6
CONTINUOUS
 10
0.403783
 20
-3.402051
  0
VERTEX
  8
PLAN_1
  6
CONTINUOUS
 10
0.401091
 20
-3.396669
  0
VERTEX
  8
PLAN_1
  6
CONTINUOUS
 10
0.398402
 20
-3.392634
  0
VERTEX
  8
PLAN_1
  6
CONTINUOUS
 10
0.395264
 20
-3.388598
  0
VERTEX
  8
PLAN_1
  6
CONTINUOUS
 10
0.391677
 20
-3.385457
  0
VERTEX
  8
PLAN_1
  6
CONTINUOUS
 10
0.388087
 20
-3.382319
  0
VERTEX
  8
PLAN_1
  6
CONTINUOUS
 10
0.384051
 20
-3.380079
  0
VERTEX
  8
PLAN_1
  6
CONTINUOUS
 10
0.380016
 20
-3.377835
  0
VERTEX
  8
PLAN_1
  6
CONTINUOUS
 10
0.375980
 20
-3.376043
  0
VERTEX
  8
PLAN_1
  6
CONTINUOUS
 10
0.371945
 20
-3.374697
  0
VERTEX
  8
PLAN_1
  6
CONTINUOUS
 10
0.367461
 20
-3.373799
  0
VERTEX
  8
PLAN_1
  6
CONTINUOUS
 10
0.359390
 20
-3.372902
  0
VERTEX
  8
PLAN_1
  6
CONTINUOUS
 10
0.351768
 20
-3.372453
  0
VERTEX
  8
PLAN_1
  6
CONTINUOUS
 10
0.345039
 20
-3.372453
  0
VERTEX
  8
PLAN_1
  6
CONTINUOUS
 10
0.338764
 20
-3.373799
  0
VERTEX
  8
PLAN_1
  6
CONTINUOUS
 10
0.332484
 20
-3.375146
  0
VERTEX
  8
PLAN_1
  6
CONTINUOUS
 10
0.326205
 20
-3.377386
  0
VERTEX
  8
PLAN_1
  6
CONTINUOUS
 10
0.320827
 20
-3.380079
  0
VERTEX
  8
PLAN_1
  6
CONTINUOUS
 10
0.315445
 20
-3.383665
  0
VERTEX
  8
PLAN_1
  6
CONTINUOUS
 10
0.310512
 20
-3.387701
  0
VERTEX
  8
PLAN_1
  6
CONTINUOUS
 10
0.305579
 20
-3.392185
  0
VERTEX
  8
PLAN_1
  6
CONTINUOUS
 10
0.301543
 20
-3.397567
  0
VERTEX
  8
PLAN_1
  6
CONTINUOUS
 10
0.297508
 20
-3.403394
  0
VERTEX
  8
PLAN_1
  6
CONTINUOUS
 10
0.294370
 20
-3.409673
  0
VERTEX
  8
PLAN_1
  6
CONTINUOUS
 10
0.291677
 20
-3.416846
  0
VERTEX
  8
PLAN_1
  6
CONTINUOUS
 10
0.289437
 20
-3.424472
  0
VERTEX
  8
PLAN_1
  6
CONTINUOUS
 10
0.288091
 20
-3.432992
  0
VERTEX
  8
PLAN_1
  6
CONTINUOUS
 10
0.286744
 20
-3.441961
  0
VERTEX
  8
PLAN_1
  6
CONTINUOUS
 10
0.286744
 20
-3.451374
  0
VERTEX
  8
PLAN_1
  6
CONTINUOUS
 10
0.286744
 20
-3.459898
  0
VERTEX
  8
PLAN_1
  6
CONTINUOUS
 10
0.287193
 20
-3.468417
  0
VERTEX
  8
PLAN_1
  6
CONTINUOUS
 10
0.288539
 20
-3.476488
  0
VERTEX
  8
PLAN_1
  6
CONTINUOUS
 10
0.289886
 20
-3.484110
  0
VERTEX
  8
PLAN_1
  6
CONTINUOUS
 10
0.292126
 20
-3.491283
  0
VERTEX
  8
PLAN_1
  6
CONTINUOUS
 10
0.294370
 20
-3.498461
  0
VERTEX
  8
PLAN_1
  6
CONTINUOUS
 10
0.297508
 20
-3.504736
  0
VERTEX
  8
PLAN_1
  6
CONTINUOUS
 10
0.301094
 20
-3.510567
  0
VERTEX
  8
PLAN_1
  6
CONTINUOUS
 10
0.305130
 20
-3.515949
  0
VERTEX
  8
PLAN_1
  6
CONTINUOUS
 10
0.310063
 20
-3.520433
  0
VERTEX
  8
PLAN_1
  6
CONTINUOUS
 10
0.312756
 20
-3.522673
  0
VERTEX
  8
PLAN_1
  6
CONTINUOUS
 10
0.315445
 20
-3.524469
  0
VERTEX
  8
PLAN_1
  6
CONTINUOUS
 10
0.318583
 20
-3.526260
  0
VERTEX
  8
PLAN_1
  6
CONTINUOUS
 10
0.321276
 20
-3.528055
  0
VERTEX
  8
PLAN_1
  6
CONTINUOUS
 10
0.324862
 20
-3.529402
  0
VERTEX
  8
PLAN_1
  6
CONTINUOUS
 10
0.328000
 20
-3.530744
  0
VERTEX
  8
PLAN_1
  6
CONTINUOUS
 10
0.332035
 20
-3.532091
  0
VERTEX
  8
PLAN_1
  6
CONTINUOUS
 10
0.335622
 20
-3.532988
  0
VERTEX
  8
PLAN_1
  6
CONTINUOUS
 10
0.343693
 20
-3.533886
  0
VERTEX
  8
PLAN_1
  6
CONTINUOUS
 10
0.352661
 20
-3.534335
  0
VERTEX
  8
PLAN_1
  6
CONTINUOUS
 10
0.356252
 20
-3.534335
  0
VERTEX
  8
PLAN_1
  6
CONTINUOUS
 10
0.359839
 20
-3.533886
  0
VERTEX
  8
PLAN_1
  6
CONTINUOUS
 10
0.363425
 20
-3.533437
  0
VERTEX
  8
PLAN_1
  6
CONTINUOUS
 10
0.367461
 20
-3.532539
  0
VERTEX
  8
PLAN_1
  6
CONTINUOUS
 10
0.371945
 20
-3.531193
  0
VERTEX
  8
PLAN_1
  6
CONTINUOUS
 10
0.375980
 20
-3.529402
  0
VERTEX
  8
PLAN_1
  6
CONTINUOUS
 10
0.380016
 20
-3.527157
  0
VERTEX
  8
PLAN_1
  6
CONTINUOUS
 10
0.384051
 20
-3.524469
  0
VERTEX
  8
PLAN_1
  6
CONTINUOUS
 10
0.388087
 20
-3.521331
  0
VERTEX
  8
PLAN_1
  6
CONTINUOUS
 10
0.392126
 20
-3.517295
  0
VERTEX
  8
PLAN_1
  6
CONTINUOUS
 10
0.395713
 20
-3.512811
  0
VERTEX
  8
PLAN_1
  6
CONTINUOUS
 10
0.399299
 20
-3.507878
  0
VERTEX
  8
PLAN_1
  6
CONTINUOUS
 10
0.402437
 20
-3.502047
  0
VERTEX
  8
PLAN_1
  6
CONTINUOUS
 10
0.405130
 20
-3.495319
  0
VERTEX
  8
PLAN_1
  6
CONTINUOUS
 10
0.407370
 20
-3.488146
  0
VERTEX
  8
PLAN_1
  6
CONTINUOUS
 10
0.409614
 20
-3.479626
  0
VERTEX
  8
PLAN_1
  6
CONTINUOUS
 10
0.435622
 20
-3.479626
  0
VERTEX
  8
PLAN_1
  6
CONTINUOUS
 10
0.434276
 20
-3.486799
  0
VERTEX
  8
PLAN_1
  6
CONTINUOUS
 10
0.432929
 20
-3.493079
  0
VERTEX
  8
PLAN_1
  6
CONTINUOUS
 10
0.431138
 20
-3.498909
  0
VERTEX
  8
PLAN_1
  6
CONTINUOUS
 10
0.429343
 20
-3.504736
  0
VERTEX
  8
PLAN_1
  6
CONTINUOUS
 10
0.427102
 20
-3.510118
  0
VERTEX
  8
PLAN_1
  6
CONTINUOUS
 10
0.424858
 20
-3.515051
  0
VERTEX
  8
PLAN_1
  6
CONTINUOUS
 10
0.422169
 20
-3.519535
  0
VERTEX
  8
PLAN_1
  6
CONTINUOUS
 10
0.419476
 20
-3.523571
  0
VERTEX
  8
PLAN_1
  6
CONTINUOUS
 10
0.416339
 20
-3.527606
  0
VERTEX
  8
PLAN_1
  6
CONTINUOUS
 10
0.413650
 20
-3.531193
  0
VERTEX
  8
PLAN_1
  6
CONTINUOUS
 10
0.410508
 20
-3.534783
  0
VERTEX
  8
PLAN_1
  6
CONTINUOUS
 10
0.406921
 20
-3.537472
  0
VERTEX
  8
PLAN_1
  6
CONTINUOUS
 10
0.403783
 20
-3.540610
  0
VERTEX
  8
PLAN_1
  6
CONTINUOUS
 10
0.400197
 20
-3.542854
  0
VERTEX
  8
PLAN_1
  6
CONTINUOUS
 10
0.397055
 20
-3.545094
  0
VERTEX
  8
PLAN_1
  6
CONTINUOUS
 10
0.393469
 20
-3.547339
  0
VERTEX
  8
PLAN_1
  6
CONTINUOUS
 10
0.386744
 20
-3.550476
  0
VERTEX
  8
PLAN_1
  6
CONTINUOUS
 10
0.379567
 20
-3.553165
  0
VERTEX
  8
PLAN_1
  6
CONTINUOUS
 10
0.373291
 20
-3.555409
  0
VERTEX
  8
PLAN_1
  6
CONTINUOUS
 10
0.367012
 20
-3.556756
  0
VERTEX
  8
PLAN_1
  6
CONTINUOUS
 10
0.356252
 20
-3.558098
  0
VERTEX
  8
PLAN_1
  6
CONTINUOUS
 10
0.348626
 20
-3.558098
  0
VERTEX
  8
PLAN_1
  6
CONTINUOUS
 10
0.340106
 20
-3.558098
  0
VERTEX
  8
PLAN_1
  6
CONTINUOUS
 10
0.331587
 20
-3.556756
  0
VERTEX
  8
PLAN_1
  6
CONTINUOUS
 10
0.323516
 20
-3.554961
  0
VERTEX
  8
PLAN_1
  6
CONTINUOUS
 10
0.315445
 20
-3.552272
  0
VERTEX
  8
PLAN_1
  6
CONTINUOUS
 10
0.307823
 20
-3.549130
  0
VERTEX
  8
PLAN_1
  6
CONTINUOUS
 10
0.300197
 20
-3.545094
  0
VERTEX
  8
PLAN_1
  6
CONTINUOUS
 10
0.296610
 20
-3.542406
  0
VERTEX
  8
PLAN_1
  6
CONTINUOUS
 10
0.293024
 20
-3.539713
  0
VERTEX
  8
PLAN_1
  6
CONTINUOUS
 10
0.289886
 20
-3.537024
  0
VERTEX
  8
PLAN_1
  6
CONTINUOUS
 10
0.286744
 20
-3.533886
  0
VERTEX
  8
PLAN_1
  6
CONTINUOUS
 10
0.283606
 20
-3.530744
  0
VERTEX
  8
PLAN_1
  6
CONTINUOUS
 10
0.280469
 20
-3.527157
  0
VERTEX
  8
PLAN_1
  6
CONTINUOUS
 10
0.277776
 20
-3.523571
  0
VERTEX
  8
PLAN_1
  6
CONTINUOUS
 10
0.275087
 20
-3.519535
  0
VERTEX
  8
PLAN_1
  6
CONTINUOUS
 10
0.272846
 20
-3.515051
  0
VERTEX
  8
PLAN_1
  6
CONTINUOUS
 10
0.270602
 20
-3.511016
  0
VERTEX
  8
PLAN_1
  6
CONTINUOUS
 10
0.268362
 20
-3.506083
  0
VERTEX
  8
PLAN_1
  6
CONTINUOUS
 10
0.266567
 20
-3.501150
  0
VERTEX
  8
PLAN_1
  6
CONTINUOUS
 10
0.264772
 20
-3.495768
  0
VERTEX
  8
PLAN_1
  6
CONTINUOUS
 10
0.263429
 20
-3.490390
  0
VERTEX
  8
PLAN_1
  6
CONTINUOUS
 10
0.262083
 20
-3.485008
  0
VERTEX
  8
PLAN_1
  6
CONTINUOUS
 10
0.260736
 20
-3.478728
  0
VERTEX
  8
PLAN_1
  6
CONTINUOUS
 10
0.259843
 20
-3.472453
  0
VERTEX
  8
PLAN_1
  6
CONTINUOUS
 10
0.259394
 20
-3.466173
  0
VERTEX
  8
PLAN_1
  6
CONTINUOUS
 10
0.258945
 20
-3.459449
  0
VERTEX
  8
PLAN_1
  6
CONTINUOUS
 10
0.258945
 20
-3.452272
  0
VERTEX
  8
PLAN_1
  6
CONTINUOUS
 10
0.259394
 20
-3.441063
  0
VERTEX
  8
PLAN_1
  6
CONTINUOUS
 10
0.260287
 20
-3.430299
  0
VERTEX
  8
PLAN_1
  6
CONTINUOUS
 10
0.262531
 20
-3.419988
  0
VERTEX
  8
PLAN_1
  6
CONTINUOUS
 10
0.265220
 20
-3.410122
  0
VERTEX
  8
PLAN_1
  6
CONTINUOUS
 10
0.267016
 20
-3.405638
  0
VERTEX
  8
PLAN_1
  6
CONTINUOUS
 10
0.268807
 20
-3.401154
  0
VERTEX
  8
PLAN_1
  6
CONTINUOUS
 10
0.270602
 20
-3.396669
  0
VERTEX
  8
PLAN_1
  6
CONTINUOUS
 10
0.272846
 20
-3.392634
  0
VERTEX
  8
PLAN_1
  6
CONTINUOUS
 10
0.275535
 20
-3.388598
  0
VERTEX
  8
PLAN_1
  6
CONTINUOUS
 10
0.277776
 20
-3.384563
  0
VERTEX
  8
PLAN_1
  6
CONTINUOUS
 10
0.280469
 20
-3.380972
  0
VERTEX
  8
PLAN_1
  6
CONTINUOUS
 10
0.283606
 20
-3.377386
  0
VERTEX
  8
PLAN_1
  6
CONTINUOUS
 10
0.286744
 20
-3.374248
  0
VERTEX
  8
PLAN_1
  6
CONTINUOUS
 10
0.289886
 20
-3.370661
  0
VERTEX
  8
PLAN_1
  6
CONTINUOUS
 10
0.293472
 20
-3.367969
  0
VERTEX
  8
PLAN_1
  6
CONTINUOUS
 10
0.297059
 20
-3.365280
  0
VERTEX
  8
PLAN_1
  6
CONTINUOUS
 10
0.300646
 20
-3.362591
  0
VERTEX
  8
PLAN_1
  6
CONTINUOUS
 10
0.304681
 20
-3.360346
  0
VERTEX
  8
PLAN_1
  6
CONTINUOUS
 10
0.308717
 20
-3.358106
  0
VERTEX
  8
PLAN_1
  6
CONTINUOUS
 10
0.312756
 20
-3.355862
  0
VERTEX
  8
PLAN_1
  6
CONTINUOUS
 10
0.317236
 20
-3.354516
  0
VERTEX
  8
PLAN_1
  6
CONTINUOUS
 10
0.321720
 20
-3.352724
  0
VERTEX
  8
PLAN_1
  6
CONTINUOUS
 10
0.326205
 20
-3.351378
  0
VERTEX
  8
PLAN_1
  6
CONTINUOUS
 10
0.331138
 20
-3.350480
  0
VERTEX
  8
PLAN_1
  6
CONTINUOUS
 10
0.336071
 20
-3.349587
  0
VERTEX
  8
PLAN_1
  6
CONTINUOUS
 10
0.341004
 20
-3.349138
  0
VERTEX
  8
PLAN_1
  6
CONTINUOUS
 10
0.346386
 20
-3.348689
  0
VERTEX
  8
PLAN_1
  6
CONTINUOUS
 10
0.351768
 20
-3.348689
  0
VERTEX
  8
PLAN_1
  6
CONTINUOUS
 10
0.361185
 20
-3.348689
  0
VERTEX
  8
PLAN_1
  6
CONTINUOUS
 10
0.369705
 20
-3.350031
  0
VERTEX
  8
PLAN_1
  6
CONTINUOUS
 10
0.378224
 20
-3.351827
  0
VERTEX
  8
PLAN_1
  6
CONTINUOUS
 10
0.385846
 20
-3.354071
  0
VERTEX
  8
PLAN_1
  6
CONTINUOUS
 10
0.392571
 20
-3.356760
  0
VERTEX
  8
PLAN_1
  6
CONTINUOUS
 10
0.399299
 20
-3.360346
  0
VERTEX
  8
PLAN_1
  6
CONTINUOUS
 10
0.405130
 20
-3.364382
  0
VERTEX
  8
PLAN_1
  6
CONTINUOUS
 10
0.410508
 20
-3.368417
  0
VERTEX
  8
PLAN_1
  6
CONTINUOUS
 10
0.415441
 20
-3.373350
  0
VERTEX
  8
PLAN_1
  6
CONTINUOUS
 10
0.419476
 20
-3.378283
  0
VERTEX
  8
PLAN_1
  6
CONTINUOUS
 10
0.423512
 20
-3.383665
  0
VERTEX
  8
PLAN_1
  6
CONTINUOUS
 10
0.426654
 20
-3.389496
  0
VERTEX
  8
PLAN_1
  6
CONTINUOUS
 10
0.428894
 20
-3.395323
  0
VERTEX
  8
PLAN_1
  6
CONTINUOUS
 10
0.431138
 20
-3.401154
  0
VERTEX
  8
PLAN_1
  6
CONTINUOUS
 10
0.432480
 20
-3.407429
  0
VERTEX
  8
PLAN_1
  6
CONTINUOUS
 10
0.433827
 20
-3.413709
  0
VERTEX
  8
PLAN_1
  6
CONTINUOUS
 10
0.407819
 20
-3.413709
  0
SEQEND
  8
0
  0
POLYLINE
  8
PLAN_1
  6
CONTINUOUS
 66
     1
 40
0.003000
 41
0.003000
  0
VERTEX
  8
PLAN_1
  6
CONTINUOUS
 10
0.495260
 20
-3.553165
  0
VERTEX
  8
PLAN_1
  6
CONTINUOUS
 10
0.468354
 20
-3.553165
  0
VERTEX
  8
PLAN_1
  6
CONTINUOUS
 10
0.468354
 20
-3.353622
  0
VERTEX
  8
PLAN_1
  6
CONTINUOUS
 10
0.495260
 20
-3.353622
  0
VERTEX
  8
PLAN_1
  6
CONTINUOUS
 10
0.495260
 20
-3.450480
  0
VERTEX
  8
PLAN_1
  6
CONTINUOUS
 10
0.591669
 20
-3.353622
  0
VERTEX
  8
PLAN_1
  6
CONTINUOUS
 10
0.628890
 20
-3.353622
  0
VERTEX
  8
PLAN_1
  6
CONTINUOUS
 10
0.545933
 20
-3.434335
  0
VERTEX
  8
PLAN_1
  6
CONTINUOUS
 10
0.631130
 20
-3.553165
  0
VERTEX
  8
PLAN_1
  6
CONTINUOUS
 10
0.596154
 20
-3.553165
  0
VERTEX
  8
PLAN_1
  6
CONTINUOUS
 10
0.526650
 20
-3.453169
  0
VERTEX
  8
PLAN_1
  6
CONTINUOUS
 10
0.495260
 20
-3.483213
  0
VERTEX
  8
PLAN_1
  6
CONTINUOUS
 10
0.495260
 20
-3.553165
  0
SEQEND
  8
0
  0
POLYLINE
  8
PLAN_1
  6
CONTINUOUS
 66
     1
 40
0.003000
 41
0.003000
  0
VERTEX
  8
PLAN_1
  6
CONTINUOUS
 10
0.654898
 20
-3.353622
  0
VERTEX
  8
PLAN_1
  6
CONTINUOUS
 10
0.735614
 20
-3.353622
  0
VERTEX
  8
PLAN_1
  6
CONTINUOUS
 10
0.740543
 20
-3.354071
  0
VERTEX
  8
PLAN_1
  6
CONTINUOUS
 10
0.745028
 20
-3.354071
  0
VERTEX
  8
PLAN_1
  6
CONTINUOUS
 10
0.749512
 20
-3.354965
  0
VERTEX
  8
PLAN_1
  6
CONTINUOUS
 10
0.753996
 20
-3.355413
  0
VERTEX
  8
PLAN_1
  6
CONTINUOUS
 10
0.758480
 20
-3.356760
  0
VERTEX
  8
PLAN_1
  6
CONTINUOUS
 10
0.762516
 20
-3.357657
  0
VERTEX
  8
PLAN_1
  6
CONTINUOUS
 10
0.766555
 20
-3.359000
  0
VERTEX
  8
PLAN_1
  6
CONTINUOUS
 10
0.770591
 20
-3.360795
  0
VERTEX
  8
PLAN_1
  6
CONTINUOUS
 10
0.774177
 20
-3.362591
  0
VERTEX
  8
PLAN_1
  6
CONTINUOUS
 10
0.778213
 20
-3.364831
  0
VERTEX
  8
PLAN_1
  6
CONTINUOUS
 10
0.781350
 20
-3.367075
  0
VERTEX
  8
PLAN_1
  6
CONTINUOUS
 10
0.784937
 20
-3.369315
  0
VERTEX
  8
PLAN_1
  6
CONTINUOUS
 10
0.788079
 20
-3.372004
  0
VERTEX
  8
PLAN_1
  6
CONTINUOUS
 10
0.791217
 20
-3.374697
  0
VERTEX
  8
PLAN_1
  6
CONTINUOUS
 10
0.794354
 20
-3.377386
  0
VERTEX
  8
PLAN_1
  6
CONTINUOUS
 10
0.797047
 20
-3.380528
  0
VERTEX
  8
PLAN_1
  6
CONTINUOUS
 10
0.801980
 20
-3.387252
  0
VERTEX
  8
PLAN_1
  6
CONTINUOUS
 10
0.806465
 20
-3.394874
  0
VERTEX
  8
PLAN_1
  6
CONTINUOUS
 10
0.810500
 20
-3.402500
  0
VERTEX
  8
PLAN_1
  6
CONTINUOUS
 10
0.813638
 20
-3.411020
  0
VERTEX
  8
PLAN_1
  6
CONTINUOUS
 10
0.815878
 20
-3.420433
  0
VERTEX
  8
PLAN_1
  6
CONTINUOUS
 10
0.818122
 20
-3.429850
  0
VERTEX
  8
PLAN_1
  6
CONTINUOUS
 10
0.819020
 20
-3.440165
  0
VERTEX
  8
PLAN_1
  6
CONTINUOUS
 10
0.819469
 20
-3.450480
  0
VERTEX
  8
PLAN_1
  6
CONTINUOUS
 10
0.819020
 20
-3.459000
  0
VERTEX
  8
PLAN_1
  6
CONTINUOUS
 10
0.818571
 20
-3.467969
  0
VERTEX
  8
PLAN_1
  6
CONTINUOUS
 10
0.817224
 20
-3.476488
  0
VERTEX
  8
PLAN_1
  6
CONTINUOUS
 10
0.815429
 20
-3.485457
  0
VERTEX
  8
PLAN_1
  6
CONTINUOUS
 10
0.812740
 20
-3.493976
  0
VERTEX
  8
PLAN_1
  6
CONTINUOUS
 10
0.809602
 20
-3.502496
  0
VERTEX
  8
PLAN_1
  6
CONTINUOUS
 10
0.806016
 20
-3.511016
  0
VERTEX
  8
PLAN_1
  6
CONTINUOUS
 10
0.801531
 20
-3.518638
  0
VERTEX
  8
PLAN_1
  6
CONTINUOUS
 10
0.798839
 20
-3.522224
  0
VERTEX
  8
PLAN_1
  6
CONTINUOUS
 10
0.796150
 20
-3.525815
  0
VERTEX
  8
PLAN_1
  6
CONTINUOUS
 10
0.793457
 20
-3.529402
  0
VERTEX
  8
PLAN_1
  6
CONTINUOUS
 10
0.790319
 20
-3.532539
  0
VERTEX
  8
PLAN_1
  6
CONTINUOUS
 10
0.786732
 20
-3.535228
  0
VERTEX
  8
PLAN_1
  6
CONTINUOUS
 10
0.783146
 20
-3.538370
  0
VERTEX
  8
PLAN_1
  6
CONTINUOUS
 10
0.779559
 20
-3.541059
  0
VERTEX
  8
PLAN_1
  6
CONTINUOUS
 10
0.775524
 20
-3.543303
  0
VERTEX
  8
PLAN_1
  6
CONTINUOUS
 10
0.771039
 20
-3.545543
  0
VERTEX
  8
PLAN_1
  6
CONTINUOUS
 10
0.766555
 20
-3.547339
  0
VERTEX
  8
PLAN_1
  6
CONTINUOUS
 10
0.762071
 20
-3.549130
  0
VERTEX
  8
PLAN_1
  6
CONTINUOUS
 10
0.756689
 20
-3.550476
  0
VERTEX
  8
PLAN_1
  6
CONTINUOUS
 10
0.751756
 20
-3.551374
  0
VERTEX
  8
PLAN_1
  6
CONTINUOUS
 10
0.746374
 20
-3.552272
  0
VERTEX
  8
PLAN_1
  6
CONTINUOUS
 10
0.740543
 20
-3.552717
  0
VERTEX
  8
PLAN_1
  6
CONTINUOUS
 10
0.734268
 20
-3.553165
  0
VERTEX
  8
PLAN_1
  6
CONTINUOUS
 10
0.654898
 20
-3.553165
  0
VERTEX
  8
PLAN_1
  6
CONTINUOUS
 10
0.654898
 20
-3.353622
  0
SEQEND
  8
0
  0
POLYLINE
  8
PLAN_1
  6
CONTINUOUS
 66
     1
 40
0.003000
 41
0.003000
  0
VERTEX
  8
PLAN_1
  6
CONTINUOUS
 10
0.681803
 20
-3.529850
  0
VERTEX
  8
PLAN_1
  6
CONTINUOUS
 10
0.733819
 20
-3.529850
  0
VERTEX
  8
PLAN_1
  6
CONTINUOUS
 10
0.740098
 20
-3.529850
  0
VERTEX
  8
PLAN_1
  6
CONTINUOUS
 10
0.746374
 20
-3.528504
  0
VERTEX
  8
PLAN_1
  6
CONTINUOUS
 10
0.752205
 20
-3.527157
  0
VERTEX
  8
PLAN_1
  6
CONTINUOUS
 10
0.757587
 20
-3.524917
  0
VERTEX
  8
PLAN_1
  6
CONTINUOUS
 10
0.762965
 20
-3.522224
  0
VERTEX
  8
PLAN_1
  6
CONTINUOUS
 10
0.767449
 20
-3.518638
  0
VERTEX
  8
PLAN_1
  6
CONTINUOUS
 10
0.771933
 20
-3.514602
  0
VERTEX
  8
PLAN_1
  6
CONTINUOUS
 10
0.775969
 20
-3.510118
  0
VERTEX
  8
PLAN_1
  6
CONTINUOUS
 10
0.779559
 20
-3.504736
  0
VERTEX
  8
PLAN_1
  6
CONTINUOUS
 10
0.782697
 20
-3.498909
  0
VERTEX
  8
PLAN_1
  6
CONTINUOUS
 10
0.785386
 20
-3.492630
  0
VERTEX
  8
PLAN_1
  6
CONTINUOUS
 10
0.787630
 20
-3.485457
  0
VERTEX
  8
PLAN_1
  6
CONTINUOUS
 10
0.789421
 20
-3.478280
  0
VERTEX
  8
PLAN_1
  6
CONTINUOUS
 10
0.790768
 20
-3.470209
  0
VERTEX
  8
PLAN_1
  6
CONTINUOUS
 10
0.791217
 20
-3.461240
  0
VERTEX
  8
PLAN_1
  6
CONTINUOUS
 10
0.791665
 20
-3.452272
  0
VERTEX
  8
PLAN_1
  6
CONTINUOUS
 10
0.791217
 20
-3.443303
  0
VERTEX
  8
PLAN_1
  6
CONTINUOUS
 10
0.790768
 20
-3.434783
  0
VERTEX
  8
PLAN_1
  6
CONTINUOUS
 10
0.789421
 20
-3.426713
  0
VERTEX
  8
PLAN_1
  6
CONTINUOUS
 10
0.787630
 20
-3.419091
  0
VERTEX
  8
PLAN_1
  6
CONTINUOUS
 10
0.784937
 20
-3.412362
  0
VERTEX
  8
PLAN_1
  6
CONTINUOUS
 10
0.782248
 20
-3.406535
  0
VERTEX
  8
PLAN_1
  6
CONTINUOUS
 10
0.779110
 20
-3.400705
  0
VERTEX
  8
PLAN_1
  6
CONTINUOUS
 10
0.775524
 20
-3.395772
  0
VERTEX
  8
PLAN_1
  6
CONTINUOUS
 10
0.771484
 20
-3.391287
  0
VERTEX
  8
PLAN_1
  6
CONTINUOUS
 10
0.767000
 20
-3.387252
  0
VERTEX
  8
PLAN_1
  6
CONTINUOUS
 10
0.762071
 20
-3.384114
  0
VERTEX
  8
PLAN_1
  6
CONTINUOUS
 10
0.756689
 20
-3.381421
  0
VERTEX
  8
PLAN_1
  6
CONTINUOUS
 10
0.750858
 20
-3.379630
  0
VERTEX
  8
PLAN_1
  6
CONTINUOUS
 10
0.745028
 20
-3.377835
  0
VERTEX
  8
PLAN_1
  6
CONTINUOUS
 10
0.738752
 20
-3.376937
  0
VERTEX
  8
PLAN_1
  6
CONTINUOUS
 10
0.732024
 20
-3.376937
  0
VERTEX
  8
PLAN_1
  6
CONTINUOUS
 10
0.681803
 20
-3.376937
  0
VERTEX
  8
PLAN_1
  6
CONTINUOUS
 10
0.681803
 20
-3.529850
  0
SEQEND
  8
0
  0
POLYLINE
  8
PLAN_1
  6
CONTINUOUS
 66
     1
 40
0.003000
 41
0.003000
  0
VERTEX
  8
PLAN_1
  6
CONTINUOUS
 10
0.894799
 20
-3.441961
  0
VERTEX
  8
PLAN_1
  6
CONTINUOUS
 10
0.896594
 20
-3.441961
  0
VERTEX
  8
PLAN_1
  6
CONTINUOUS
 10
0.897941
 20
-3.442409
  0
VERTEX
  8
PLAN_1
  6
CONTINUOUS
 10
0.899732
 20
-3.442409
  0
VERTEX
  8
PLAN_1
  6
CONTINUOUS
 10
0.901528
 20
-3.442409
  0
VERTEX
  8
PLAN_1
  6
CONTINUOUS
 10
0.902874
 20
-3.442409
  0
VERTEX
  8
PLAN_1
  6
CONTINUOUS
 10
0.904665
 20
-3.442409
  0
VERTEX
  8
PLAN_1
  6
CONTINUOUS
 10
0.906012
 20
-3.442409
  0
VERTEX
  8
PLAN_1
  6
CONTINUOUS
 10
0.907807
 20
-3.442409
  0
VERTEX
  8
PLAN_1
  6
CONTINUOUS
 10
0.914531
 20
-3.442409
  0
VERTEX
  8
PLAN_1
  6
CONTINUOUS
 10
0.921705
 20
-3.441063
  0
VERTEX
  8
PLAN_1
  6
CONTINUOUS
 10
0.924846
 20
-3.440165
  0
VERTEX
  8
PLAN_1
  6
CONTINUOUS
 10
0.927984
 20
-3.438819
  0
VERTEX
  8
PLAN_1
  6
CONTINUOUS
 10
0.930673
 20
-3.437476
  0
VERTEX
  8
PLAN_1
  6
CONTINUOUS
 10
0.933366
 20
-3.435681
  0
VERTEX
  8
PLAN_1
  6
CONTINUOUS
 10
0.936055
 20
-3.433886
  0
VERTEX
  8
PLAN_1
  6
CONTINUOUS
 10
0.938299
 20
-3.431646
  0
VERTEX
  8
PLAN_1
  6
CONTINUOUS
 10
0.940091
 20
-3.428957
  0
VERTEX
  8
PLAN_1
  6
CONTINUOUS
 10
0.941886
 20
-3.425815
  0
VERTEX
  8
PLAN_1
  6
CONTINUOUS
 10
0.943228
 20
-3.422677
  0
VERTEX
  8
PLAN_1
  6
CONTINUOUS
 10
0.944126
 20
-3.419091
  0
VERTEX
  8
PLAN_1
  6
CONTINUOUS
 10
0.944575
 20
-3.415055
  0
VERTEX
  8
PLAN_1
  6
CONTINUOUS
 10
0.945024
 20
-3.410571
  0
VERTEX
  8
PLAN_1
  6
CONTINUOUS
 10
0.944575
 20
-3.406087
  0
VERTEX
  8
PLAN_1
  6
CONTINUOUS
 10
0.943228
 20
-3.400705
  0
VERTEX
  8
PLAN_1
  6
CONTINUOUS
 10
0.942335
 20
-3.398461
  0
VERTEX
  8
PLAN_1
  6
CONTINUOUS
 10
0.940988
 20
-3.395772
  0
VERTEX
  8
PLAN_1
  6
CONTINUOUS
 10
0.939642
 20
-3.393083
  0
VERTEX
  8
PLAN_1
  6
CONTINUOUS
 10
0.937850
 20
-3.390839
  0
VERTEX
  8
PLAN_1
  6
CONTINUOUS
 10
0.935606
 20
-3.388598
  0
VERTEX
  8
PLAN_1
  6
CONTINUOUS
 10
0.932917
 20
-3.386354
  0
VERTEX
  8
PLAN_1
  6
CONTINUOUS
 10
0.930224
 20
-3.384563
  0
VERTEX
  8
PLAN_1
  6
CONTINUOUS
 10
0.926638
 20
-3.383217
  0
VERTEX
  8
PLAN_1
  6
CONTINUOUS
 10
0.923051
 20
-3.381870
  0
VERTEX
  8
PLAN_1
  6
CONTINUOUS
 10
0.918567
 20
-3.380528
  0
VERTEX
  8
PLAN_1
  6
CONTINUOUS
 10
0.914083
 20
-3.380079
  0
VERTEX
  8
PLAN_1
  6
CONTINUOUS
 10
0.908701
 20
-3.379630
  0
VERTEX
  8
PLAN_1
  6
CONTINUOUS
 10
0.902874
 20
-3.380079
  0
VERTEX
  8
PLAN_1
  6
CONTINUOUS
 10
0.897492
 20
-3.380972
  0
VERTEX
  8
PLAN_1
  6
CONTINUOUS
 10
0.892559
 20
-3.382319
  0
VERTEX
  8
PLAN_1
  6
CONTINUOUS
 10
0.888524
 20
-3.384563
  0
VERTEX
  8
PLAN_1
  6
CONTINUOUS
 10
0.884937
 20
-3.386803
  0
VERTEX
  8
PLAN_1
  6
CONTINUOUS
 10
0.881795
 20
-3.389496
  0
VERTEX
  8
PLAN_1
  6
CONTINUOUS
 10
0.879106
 20
-3.392634
  0
VERTEX
  8
PLAN_1
  6
CONTINUOUS
 10
0.877311
 20
-3.395772
  0
VERTEX
  8
PLAN_1
  6
CONTINUOUS
 10
0.875520
 20
-3.398909
  0
VERTEX
  8
PLAN_1
  6
CONTINUOUS
 10
0.874173
 20
-3.402500
  0
VERTEX
  8
PLAN_1
  6
CONTINUOUS
 10
0.873276
 20
-3.406087
  0
VERTEX
  8
PLAN_1
  6
CONTINUOUS
 10
0.872382
 20
-3.409673
  0
VERTEX
  8
PLAN_1
  6
CONTINUOUS
 10
0.871484
 20
-3.415953
  0
VERTEX
  8
PLAN_1
  6
CONTINUOUS
 10
0.871035
 20
-3.421780
  0
VERTEX
  8
PLAN_1
  6
CONTINUOUS
 10
0.846819
 20
-3.421780
  0
VERTEX
  8
PLAN_1
  6
CONTINUOUS
 10
0.847268
 20
-3.416398
  0
VERTEX
  8
PLAN_1
  6
CONTINUOUS
 10
0.847717
 20
-3.411020
  0
VERTEX
  8
PLAN_1
  6
CONTINUOUS
 10
0.848165
 20
-3.405189
  0
VERTEX
  8
PLAN_1
  6
CONTINUOUS
 10
0.849512
 20
-3.399807
  0
VERTEX
  8
PLAN_1
  6
CONTINUOUS
 10
0.851303
 20
-3.394425
  0
VERTEX
  8
PLAN_1
  6
CONTINUOUS
 10
0.853547
 20
-3.389047
  0
VERTEX
  8
PLAN_1
  6
CONTINUOUS
 10
0.855787
 20
-3.384114
  0
VERTEX
  8
PLAN_1
  6
CONTINUOUS
 10
0.859378
 20
-3.379181
  0
VERTEX
  8
PLAN_1
  6
CONTINUOUS
 10
0.862965
 20
-3.374697
  0
VERTEX
  8
PLAN_1
  6
CONTINUOUS
 10
0.867449
 20
-3.370661
  0
VERTEX
  8
PLAN_1
  6
CONTINUOUS
 10
0.872382
 20
-3.367075
  0
VERTEX
  8
PLAN_1
  6
CONTINUOUS
 10
0.878657
 20
-3.363933
  0
VERTEX
  8
PLAN_1
  6
CONTINUOUS
 10
0.884937
 20
-3.361244
  0
VERTEX
  8
PLAN_1
  6
CONTINUOUS
 10
0.892559
 20
-3.359449
  0
VERTEX
  8
PLAN_1
  6
CONTINUOUS
 10
0.900630
 20
-3.358106
  0
VERTEX
  8
PLAN_1
  6
CONTINUOUS
 10
0.910047
 20
-3.358106
  0
VERTEX
  8
PLAN_1
  6
CONTINUOUS
 10
0.916772
 20
-3.358106
  0
VERTEX
  8
PLAN_1
  6
CONTINUOUS
 10
0.923500
 20
-3.359000
  0
VERTEX
  8
PLAN_1
  6
CONTINUOUS
 10
0.929331
 20
-3.359898
  0
VERTEX
  8
PLAN_1
  6
CONTINUOUS
 10
0.935157
 20
-3.361693
  0
VERTEX
  8
PLAN_1
  6
CONTINUOUS
 10
0.940539
 20
-3.363933
  0
VERTEX
  8
PLAN_1
  6
CONTINUOUS
 10
0.945472
 20
-3.366177
  0
VERTEX
  8
PLAN_1
  6
CONTINUOUS
 10
0.949957
 20
-3.369315
  0
VERTEX
  8
PLAN_1
  6
CONTINUOUS
 10
0.953992
 20
-3.372453
  0
VERTEX
  8
PLAN_1
  6
CONTINUOUS
 10
0.958028
 20
-3.376043
  0
VERTEX
  8
PLAN_1
  6
CONTINUOUS
 10
0.961165
 20
-3.380079
  0
VERTEX
  8
PLAN_1
  6
CONTINUOUS
 10
0.963858
 20
-3.384114
  0
VERTEX
  8
PLAN_1
  6
CONTINUOUS
 10
0.966098
 20
-3.388598
  0
VERTEX
  8
PLAN_1
  6
CONTINUOUS
 10
0.967894
 20
-3.393531
  0
VERTEX
  8
PLAN_1
  6
CONTINUOUS
 10
0.969240
 20
-3.398461
  0
VERTEX
  8
PLAN_1
  6
CONTINUOUS
 10
0.969685
 20
-3.403843
  0
VERTEX
  8
PLAN_1
  6
CONTINUOUS
 10
0.970134
 20
-3.409224
  0
VERTEX
  8
PLAN_1
  6
CONTINUOUS
 10
0.970134
 20
-3.413709
  0
VERTEX
  8
PLAN_1
  6
CONTINUOUS
 10
0.969685
 20
-3.418193
  0
VERTEX
  8
PLAN_1
  6
CONTINUOUS
 10
0.968791
 20
-3.421780
  0
VERTEX
  8
PLAN_1
  6
CONTINUOUS
 10
0.967894
 20
-3.425815
  0
VERTEX
  8
PLAN_1
  6
CONTINUOUS
 10
0.966547
 20
-3.428957
  0
VERTEX
  8
PLAN_1
  6
CONTINUOUS
 10
0.965205
 20
-3.432094
  0
VERTEX
  8
PLAN_1
  6
CONTINUOUS
 10
0.963409
 20
-3.434783
  0
VERTEX
  8
PLAN_1
  6
CONTINUOUS
 10
0.961614
 20
-3.437476
  0
VERTEX
  8
PLAN_1
  6
CONTINUOUS
 10
0.957579
 20
-3.441961
  0
VERTEX
  8
PLAN_1
  6
CONTINUOUS
 10
0.953543
 20
-3.445098
  0
VERTEX
  8
PLAN_1
  6
CONTINUOUS
 10
0.949508
 20
-3.447787
  0
VERTEX
  8
PLAN_1
  6
CONTINUOUS
 10
0.945024
 20
-3.449583
  0
VERTEX
  8
PLAN_1
  6
CONTINUOUS
 10
0.945024
 20
-3.450031
  0
VERTEX
  8
PLAN_1
  6
CONTINUOUS
 10
0.948610
 20
-3.451374
  0
VERTEX
  8
PLAN_1
  6
CONTINUOUS
 10
0.952197
 20
-3.452720
  0
VERTEX
  8
PLAN_1
  6
CONTINUOUS
 10
0.955339
 20
-3.454067
  0
VERTEX
  8
PLAN_1
  6
CONTINUOUS
 10
0.958028
 20
-3.455858
  0
VERTEX
  8
PLAN_1
  6
CONTINUOUS
 10
0.961165
 20
-3.458102
  0
VERTEX
  8
PLAN_1
  6
CONTINUOUS
 10
0.963858
 20
-3.460343
  0
VERTEX
  8
PLAN_1
  6
CONTINUOUS
 10
0.966098
 20
-3.462587
  0
VERTEX
  8
PLAN_1
  6
CONTINUOUS
 10
0.968343
 20
-3.465276
  0
VERTEX
  8
PLAN_1
  6
CONTINUOUS
 10
0.970583
 20
-3.467969
  0
VERTEX
  8
PLAN_1
  6
CONTINUOUS
 10
0.972378
 20
-3.471106
  0
VERTEX
  8
PLAN_1
  6
CONTINUOUS
 10
0.973724
 20
-3.474693
  0
VERTEX
  8
PLAN_1
  6
CONTINUOUS
 10
0.975067
 20
-3.478280
  0
VERTEX
  8
PLAN_1
  6
CONTINUOUS
 10
0.976413
 20
-3.482315
  0
VERTEX
  8
PLAN_1
  6
CONTINUOUS
 10
0.976862
 20
-3.486354
  0
VERTEX
  8
PLAN_1
  6
CONTINUOUS
 10
0.977311
 20
-3.490839
  0
VERTEX
  8
PLAN_1
  6
CONTINUOUS
 10
0.977760
 20
-3.495768
  0
VERTEX
  8
PLAN_1
  6
CONTINUOUS
 10
0.977311
 20
-3.501598
  0
VERTEX
  8
PLAN_1
  6
CONTINUOUS
 10
0.976862
 20
-3.507429
  0
VERTEX
  8
PLAN_1
  6
CONTINUOUS
 10
0.975516
 20
-3.513256
  0
VERTEX
  8
PLAN_1
  6
CONTINUOUS
 10
0.973724
 20
-3.518638
  0
VERTEX
  8
PLAN_1
  6
CONTINUOUS
 10
0.971480
 20
-3.524469
  0
VERTEX
  8
PLAN_1
  6
CONTINUOUS
 10
0.968343
 20
-3.529402
  0
VERTEX
  8
PLAN_1
  6
CONTINUOUS
 10
0.965205
 20
-3.534335
  0
VERTEX
  8
PLAN_1
  6
CONTINUOUS
 10
0.961165
 20
-3.538819
  0
VERTEX
  8
PLAN_1
  6
CONTINUOUS
 10
0.956681
 20
-3.543303
  0
VERTEX
  8
PLAN_1
  6
CONTINUOUS
 10
0.951303
 20
-3.546890
  0
VERTEX
  8
PLAN_1
  6
CONTINUOUS
 10
0.945921
 20
-3.550028
  0
VERTEX
  8
PLAN_1
  6
CONTINUOUS
 10
0.939193
 20
-3.553165
  0
VERTEX
  8
PLAN_1
  6
CONTINUOUS
 10
0.932469
 20
-3.555409
  0
VERTEX
  8
PLAN_1
  6
CONTINUOUS
 10
0.924846
 20
-3.556756
  0
VERTEX
  8
PLAN_1
  6
CONTINUOUS
 10
0.916327
 20
-3.558098
  0
VERTEX
  8
PLAN_1
  6
CONTINUOUS
 10
0.907358
 20
-3.558098
  0
VERTEX
  8
PLAN_1
  6
CONTINUOUS
 10
0.901976
 20
-3.558098
  0
VERTEX
  8
PLAN_1
  6
CONTINUOUS
 10
0.897043
 20
-3.557650
  0
VERTEX
  8
PLAN_1
  6
CONTINUOUS
 10
0.892110
 20
-3.556756
  0
VERTEX
  8
PLAN_1
  6
CONTINUOUS
 10
0.887626
 20
-3.555858
  0
VERTEX
  8
PLAN_1
  6
CONTINUOUS
 10
0.883142
 20
-3.554512
  0
VERTEX
  8
PLAN_1
  6
CONTINUOUS
 10
0.879106
 20
-3.553165
  0
VERTEX
  8
PLAN_1
  6
CONTINUOUS
 10
0.875071
 20
-3.551374
  0
VERTEX
  8
PLAN_1
  6
CONTINUOUS
 10
0.871484
 20
-3.549579
  0
VERTEX
  8
PLAN_1
  6
CONTINUOUS
 10
0.867449
 20
-3.547339
  0
VERTEX
  8
PLAN_1
  6
CONTINUOUS
 10
0.863862
 20
-3.545094
  0
VERTEX
  8
PLAN_1
  6
CONTINUOUS
 10
0.860720
 20
-3.542406
  0
VERTEX
  8
PLAN_1
  6
CONTINUOUS
 10
0.858031
 20
-3.539268
  0
VERTEX
  8
PLAN_1
  6
CONTINUOUS
 10
0.855339
 20
-3.536126
  0
VERTEX
  8
PLAN_1
  6
CONTINUOUS
 10
0.853098
 20
-3.532988
  0
VERTEX
  8
PLAN_1
  6
CONTINUOUS
 10
0.850854
 20
-3.529402
  0
VERTEX
  8
PLAN_1
  6
CONTINUOUS
 10
0.849512
 20
-3.525815
  0
VERTEX
  8
PLAN_1
  6
CONTINUOUS
 10
0.846370
 20
-3.518189
  0
VERTEX
  8
PLAN_1
  6
CONTINUOUS
 10
0.844579
 20
-3.510118
  0
VERTEX
  8
PLAN_1
  6
CONTINUOUS
 10
0.843232
 20
-3.501598
  0
VERTEX
  8
PLAN_1
  6
CONTINUOUS
 10
0.842335
 20
-3.493528
  0
VERTEX
  8
PLAN_1
  6
CONTINUOUS
 10
0.867449
 20
-3.493528
  0
VERTEX
  8
PLAN_1
  6
CONTINUOUS
 10
0.867898
 20
-3.500252
  0
VERTEX
  8
PLAN_1
  6
CONTINUOUS
 10
0.869240
 20
-3.507878
  0
VERTEX
  8
PLAN_1
  6
CONTINUOUS
 10
0.870138
 20
-3.511465
  0
VERTEX
  8
PLAN_1
  6
CONTINUOUS
 10
0.871484
 20
-3.515051
  0
VERTEX
  8
PLAN_1
  6
CONTINUOUS
 10
0.872827
 20
-3.518638
  0
VERTEX
  8
PLAN_1
  6
CONTINUOUS
 10
0.875071
 20
-3.521776
  0
VERTEX
  8
PLAN_1
  6
CONTINUOUS
 10
0.877311
 20
-3.524917
  0
VERTEX
  8
PLAN_1
  6
CONTINUOUS
 10
0.880004
 20
-3.527606
  0
VERTEX
  8
PLAN_1
  6
CONTINUOUS
 10
0.883591
 20
-3.530299
  0
VERTEX
  8
PLAN_1
  6
CONTINUOUS
 10
0.887177
 20
-3.532091
  0
VERTEX
  8
PLAN_1
  6
CONTINUOUS
 10
0.891661
 20
-3.533886
  0
VERTEX
  8
PLAN_1
  6
CONTINUOUS
 10
0.897043
 20
-3.535228
  0
VERTEX
  8
PLAN_1
  6
CONTINUOUS
 10
0.902874
 20
-3.536126
  0
VERTEX
  8
PLAN_1
  6
CONTINUOUS
 10
0.909150
 20
-3.536575
  0
VERTEX
  8
PLAN_1
  6
CONTINUOUS
 10
0.913634
 20
-3.536126
  0
VERTEX
  8
PLAN_1
  6
CONTINUOUS
 10
0.918118
 20
-3.535677
  0
VERTEX
  8
PLAN_1
  6
CONTINUOUS
 10
0.922154
 20
-3.534783
  0
VERTEX
  8
PLAN_1
  6
CONTINUOUS
 10
0.926189
 20
-3.533437
  0
VERTEX
  8
PLAN_1
  6
CONTINUOUS
 10
0.930224
 20
-3.532091
  0
VERTEX
  8
PLAN_1
  6
CONTINUOUS
 10
0.933366
 20
-3.530299
  0
VERTEX
  8
PLAN_1
  6
CONTINUOUS
 10
0.936953
 20
-3.528055
  0
VERTEX
  8
PLAN_1
  6
CONTINUOUS
 10
0.939642
 20
-3.525815
  0
VERTEX
  8
PLAN_1
  6
CONTINUOUS
 10
0.942335
 20
-3.523122
  0
VERTEX
  8
PLAN_1
  6
CONTINUOUS
 10
0.944575
 20
-3.520433
  0
VERTEX
  8
PLAN_1
  6
CONTINUOUS
 10
0.946819
 20
-3.517295
  0
VERTEX
  8
PLAN_1
  6
CONTINUOUS
 10
0.948610
 20
-3.514154
  0
VERTEX
  8
PLAN_1
  6
CONTINUOUS
 10
0.949957
 20
-3.510567
  0
VERTEX
  8
PLAN_1
  6
CONTINUOUS
 10
0.950854
 20
-3.506531
  0
VERTEX
  8
PLAN_1
  6
CONTINUOUS
 10
0.951303
 20
-3.502945
  0
VERTEX
  8
PLAN_1
  6
CONTINUOUS
 10
0.951752
 20
-3.498461
  0
VERTEX
  8
PLAN_1
  6
CONTINUOUS
 10
0.951303
 20
-3.492630
  0
VERTEX
  8
PLAN_1
  6
CONTINUOUS
 10
0.950406
 20
-3.487697
  0
VERTEX
  8
PLAN_1
  6
CONTINUOUS
 10
0.948610
 20
-3.483213
  0
VERTEX
  8
PLAN_1
  6
CONTINUOUS
 10
0.946819
 20
-3.479177
  0
VERTEX
  8
PLAN_1
  6
CONTINUOUS
 10
0.944575
 20
-3.475591
  0
VERTEX
  8
PLAN_1
  6
CONTINUOUS
 10
0.941437
 20
-3.472902
  0
VERTEX
  8
PLAN_1
  6
CONTINUOUS
 10
0.938299
 20
-3.470657
  0
VERTEX
  8
PLAN_1
  6
CONTINUOUS
 10
0.935157
 20
-3.468417
  0
VERTEX
  8
PLAN_1
  6
CONTINUOUS
 10
0.931571
 20
-3.466622
  0
VERTEX
  8
PLAN_1
  6
CONTINUOUS
 10
0.927984
 20
-3.465724
  0
VERTEX
  8
PLAN_1
  6
CONTINUOUS
 10
0.923949
 20
-3.464382
  0
VERTEX
  8
PLAN_1
  6
CONTINUOUS
 10
0.920362
 20
-3.463933
  0
VERTEX
  8
PLAN_1
  6
CONTINUOUS
 10
0.912736
 20
-3.463035
  0
VERTEX
  8
PLAN_1
  6
CONTINUOUS
 10
0.906012
 20
-3.462587
  0
VERTEX
  8
PLAN_1
  6
CONTINUOUS
 10
0.904665
 20
-3.463035
  0
VERTEX
  8
PLAN_1
  6
CONTINUOUS
 10
0.903323
 20
-3.463035
  0
VERTEX
  8
PLAN_1
  6
CONTINUOUS
 10
0.901976
 20
-3.463035
  0
VERTEX
  8
PLAN_1
  6
CONTINUOUS
 10
0.900630
 20
-3.463035
  0
VERTEX
  8
PLAN_1
  6
CONTINUOUS
 10
0.899283
 20
-3.463035
  0
VERTEX
  8
PLAN_1
  6
CONTINUOUS
 10
0.897492
 20
-3.463035
  0
VERTEX
  8
PLAN_1
  6
CONTINUOUS
 10
0.896146
 20
-3.463035
  0
VERTEX
  8
PLAN_1
  6
CONTINUOUS
 10
0.894799
 20
-3.463035
  0
VERTEX
  8
PLAN_1
  6
CONTINUOUS
 10
0.894799
 20
-3.441961
  0
SEQEND
  8
0
  0
POLYLINE
  8
PLAN_1
  6
CONTINUOUS
 66
     1
 40
0.003000
 41
0.003000
  0
VERTEX
  8
PLAN_1
  6
CONTINUOUS
 10
1.171028
 20
-3.398909
  0
VERTEX
  8
PLAN_1
  6
CONTINUOUS
 10
1.189862
 20
-3.398909
  0
VERTEX
  8
PLAN_1
  6
CONTINUOUS
 10
1.185823
 20
-3.413260
  0
VERTEX
  8
PLAN_1
  6
CONTINUOUS
 10
1.181339
 20
-3.428059
  0
VERTEX
  8
PLAN_1
  6
CONTINUOUS
 10
1.177303
 20
-3.442409
  0
VERTEX
  8
PLAN_1
  6
CONTINUOUS
 10
1.173268
 20
-3.455858
  0
VERTEX
  8
PLAN_1
  6
CONTINUOUS
 10
1.169681
 20
-3.467520
  0
VERTEX
  8
PLAN_1
  6
CONTINUOUS
 10
1.166992
 20
-3.477386
  0
VERTEX
  8
PLAN_1
  6
CONTINUOUS
 10
1.165197
 20
-3.484559
  0
VERTEX
  8
PLAN_1
  6
CONTINUOUS
 10
1.164748
 20
-3.489043
  0
VERTEX
  8
PLAN_1
  6
CONTINUOUS
 10
1.164748
 20
-3.490839
  0
VERTEX
  8
PLAN_1
  6
CONTINUOUS
 10
1.165197
 20
-3.492630
  0
VERTEX
  8
PLAN_1
  6
CONTINUOUS
 10
1.165646
 20
-3.493976
  0
VERTEX
  8
PLAN_1
  6
CONTINUOUS
 10
1.166094
 20
-3.495319
  0
VERTEX
  8
PLAN_1
  6
CONTINUOUS
 10
1.166992
 20
-3.496217
  0
VERTEX
  8
PLAN_1
  6
CONTINUOUS
 10
1.167890
 20
-3.496665
  0
VERTEX
  8
PLAN_1
  6
CONTINUOUS
 10
1.169232
 20
-3.497114
  0
VERTEX
  8
PLAN_1
  6
CONTINUOUS
 10
1.170579
 20
-3.497114
  0
VERTEX
  8
PLAN_1
  6
CONTINUOUS
 10
1.174165
 20
-3.496665
  0
VERTEX
  8
PLAN_1
  6
CONTINUOUS
 10
1.177752
 20
-3.495768
  0
VERTEX
  8
PLAN_1
  6
CONTINUOUS
 10
1.181339
 20
-3.494425
  0
VERTEX
  8
PLAN_1
  6
CONTINUOUS
 10
1.184929
 20
-3.492181
  0
VERTEX
  8
PLAN_1
  6
CONTINUOUS
 10
1.188067
 20
-3.489492
  0
VERTEX
  8
PLAN_1
  6
CONTINUOUS
 10
1.191205
 20
-3.485906
  0
VERTEX
  8
PLAN_1
  6
CONTINUOUS
 10
1.194346
 20
-3.482315
  0
VERTEX
  8
PLAN_1
  6
CONTINUOUS
 10
1.197484
 20
-3.478280
  0
VERTEX
  8
PLAN_1
  6
CONTINUOUS
 10
1.200173
 20
-3.473795
  0
VERTEX
  8
PLAN_1
  6
CONTINUOUS
 10
1.202417
 20
-3.469311
  0
VERTEX
  8
PLAN_1
  6
CONTINUOUS
 10
1.204657
 20
-3.464382
  0
VERTEX
  8
PLAN_1
  6
CONTINUOUS
 10
1.206453
 20
-3.459000
  0
VERTEX
  8
PLAN_1
  6
CONTINUOUS
 10
1.207795
 20
-3.453618
  0
VERTEX
  8
PLAN_1
  6
CONTINUOUS
 10
1.209142
 20
-3.448236
  0
VERTEX
  8
PLAN_1
  6
CONTINUOUS
 10
1.209591
 20
-3.442854
  0
VERTEX
  8
PLAN_1
  6
CONTINUOUS
 10
1.210039
 20
-3.437476
  0
VERTEX
  8
PLAN_1
  6
CONTINUOUS
 10
1.209591
 20
-3.428957
  0
VERTEX
  8
PLAN_1
  6
CONTINUOUS
 10
1.208244
 20
-3.421331
  0
VERTEX
  8
PLAN_1
  6
CONTINUOUS
 10
1.206453
 20
-3.414157
  0
VERTEX
  8
PLAN_1
  6
CONTINUOUS
 10
1.203760
 20
-3.407429
  0
VERTEX
  8
PLAN_1
  6
CONTINUOUS
 10
1.200622
 20
-3.401154
  0
VERTEX
  8
PLAN_1
  6
CONTINUOUS
 10
1.196587
 20
-3.395323
  0
VERTEX
  8
PLAN_1
  6
CONTINUOUS
 10
1.192102
 20
-3.389941
  0
VERTEX
  8
PLAN_1
  6
CONTINUOUS
 10
1.187169
 20
-3.385012
  0
VERTEX
  8
PLAN_1
  6
CONTINUOUS
 10
1.181339
 20
-3.380528
  0
VERTEX
  8
PLAN_1
  6
CONTINUOUS
 10
1.175512
 20
-3.376488
  0
VERTEX
  8
PLAN_1
  6
CONTINUOUS
 10
1.169232
 20
-3.373350
  0
VERTEX
  8
PLAN_1
  6
CONTINUOUS
 10
1.162508
 20
-3.370661
  0
VERTEX
  8
PLAN_1
  6
CONTINUOUS
 10
1.155331
 20
-3.368417
  0
VERTEX
  8
PLAN_1
  6
CONTINUOUS
 10
1.148157
 20
-3.367075
  0
VERTEX
  8
PLAN_1
  6
CONTINUOUS
 10
1.140535
 20
-3.366177
  0
VERTEX
  8
PLAN_1
  6
CONTINUOUS
 10
1.132465
 20
-3.365728
  0
VERTEX
  8
PLAN_1
  6
CONTINUOUS
 10
1.127980
 20
-3.365728
  0
VERTEX
  8
PLAN_1
  6
CONTINUOUS
 10
1.123496
 20
-3.366177
  0
VERTEX
  8
PLAN_1
  6
CONTINUOUS
 10
1.119012
 20
-3.366626
  0
VERTEX
  8
PLAN_1
  6
CONTINUOUS
 10
1.114976
 20
-3.367520
  0
VERTEX
  8
PLAN_1
  6
CONTINUOUS
 10
1.106453
 20
-3.369764
  0
VERTEX
  8
PLAN_1
  6
CONTINUOUS
 10
1.098382
 20
-3.372453
  0
VERTEX
  8
PLAN_1
  6
CONTINUOUS
 10
1.091209
 20
-3.376488
  0
VERTEX
  8
PLAN_1
  6
CONTINUOUS
 10
1.084035
 20
-3.380972
  0
VERTEX
  8
PLAN_1
  6
CONTINUOUS
 10
1.077756
 20
-3.385906
  0
VERTEX
  8
PLAN_1
  6
CONTINUOUS
 10
1.071925
 20
-3.391736
  0
VERTEX
  8
PLAN_1
  6
CONTINUOUS
 10
1.066547
 20
-3.398016
  0
VERTEX
  8
PLAN_1
  6
CONTINUOUS
 10
1.062063
 20
-3.404740
  0
VERTEX
  8
PLAN_1
  6
CONTINUOUS
 10
1.058024
 20
-3.411913
  0
VERTEX
  8
PLAN_1
  6
CONTINUOUS
 10
1.054437
 20
-3.419988
  0
VERTEX
  8
PLAN_1
  6
CONTINUOUS
 10
1.051748
 20
-3.428059
  0
VERTEX
  8
PLAN_1
  6
CONTINUOUS
 10
1.049953
 20
-3.436579
  0
VERTEX
  8
PLAN_1
  6
CONTINUOUS
 10
1.048610
 20
-3.445547
  0
VERTEX
  8
PLAN_1
  6
CONTINUOUS
 10
1.048161
 20
-3.454516
  0
VERTEX
  8
PLAN_1
  6
CONTINUOUS
 10
1.048610
 20
-3.463484
  0
VERTEX
  8
PLAN_1
  6
CONTINUOUS
 10
1.049953
 20
-3.472453
  0
VERTEX
  8
PLAN_1
  6
CONTINUOUS
 10
1.052197
 20
-3.480524
  0
VERTEX
  8
PLAN_1
  6
CONTINUOUS
 10
1.054886
 20
-3.488594
  0
VERTEX
  8
PLAN_1
  6
CONTINUOUS
 10
1.058472
 20
-3.496217
  0
VERTEX
  8
PLAN_1
  6
CONTINUOUS
 10
1.062508
 20
-3.503394
  0
VERTEX
  8
PLAN_1
  6
CONTINUOUS
 10
1.067441
 20
-3.510118
  0
VERTEX
  8
PLAN_1
  6
CONTINUOUS
 10
1.073272
 20
-3.516398
  0
VERTEX
  8
PLAN_1
  6
CONTINUOUS
 10
1.079102
 20
-3.521776
  0
VERTEX
  8
PLAN_1
  6
CONTINUOUS
 10
1.085827
 20
-3.526709
  0
VERTEX
  8
PLAN_1
  6
CONTINUOUS
 10
1.093004
 20
-3.530744
  0
VERTEX
  8
PLAN_1
  6
CONTINUOUS
 10
1.100626
 20
-3.534335
  0
VERTEX
  8
PLAN_1
  6
CONTINUOUS
 10
1.108697
 20
-3.537472
  0
VERTEX
  8
PLAN_1
  6
CONTINUOUS
 10
1.116768
 20
-3.539268
  0
VERTEX
  8
PLAN_1
  6
CONTINUOUS
 10
1.125736
 20
-3.540610
  0
VERTEX
  8
PLAN_1
  6
CONTINUOUS
 10
1.134705
 20
-3.541059
  0
VERTEX
  8
PLAN_1
  6
CONTINUOUS
 10
1.139189
 20
-3.541059
  0
VERTEX
  8
PLAN_1
  6
CONTINUOUS
 10
1.144122
 20
-3.540610
  0
VERTEX
  8
PLAN_1
  6
CONTINUOUS
 10
1.149055
 20
-3.539713
  0
VERTEX
  8
PLAN_1
  6
CONTINUOUS
 10
1.153539
 20
-3.538819
  0
VERTEX
  8
PLAN_1
  6
CONTINUOUS
 10
1.158472
 20
-3.537472
  0
VERTEX
  8
PLAN_1
  6
CONTINUOUS
 10
1.162957
 20
-3.536126
  0
VERTEX
  8
PLAN_1
  6
CONTINUOUS
 10
1.167441
 20
-3.534335
  0
VERTEX
  8
PLAN_1
  6
CONTINUOUS
 10
1.171925
 20
-3.532539
  0
VERTEX
  8
PLAN_1
  6
CONTINUOUS
 10
1.176409
 20
-3.530299
  0
VERTEX
  8
PLAN_1
  6
CONTINUOUS
 10
1.180445
 20
-3.528055
  0
VERTEX
  8
PLAN_1
  6
CONTINUOUS
 10
1.184480
 20
-3.525366
  0
VERTEX
  8
PLAN_1
  6
CONTINUOUS
 10
1.188516
 20
-3.522673
  0
VERTEX
  8
PLAN_1
  6
CONTINUOUS
 10
1.192102
 20
-3.519535
  0
VERTEX
  8
PLAN_1
  6
CONTINUOUS
 10
1.195689
 20
-3.516398
  0
VERTEX
  8
PLAN_1
  6
CONTINUOUS
 10
1.198831
 20
-3.512811
  0
VERTEX
  8
PLAN_1
  6
CONTINUOUS
 10
1.201969
 20
-3.509220
  0
VERTEX
  8
PLAN_1
  6
CONTINUOUS
 10
1.220354
 20
-3.509220
  0
VERTEX
  8
PLAN_1
  6
CONTINUOUS
 10
1.217213
 20
-3.515051
  0
VERTEX
  8
PLAN_1
  6
CONTINUOUS
 10
1.213177
 20
-3.520433
  0
VERTEX
  8
PLAN_1
  6
CONTINUOUS
 10
1.208693
 20
-3.525366
  0
VERTEX
  8
PLAN_1
  6
CONTINUOUS
 10
1.204209
 20
-3.529850
  0
VERTEX
  8
PLAN_1
  6
CONTINUOUS
 10
1.199724
 20
-3.534335
  0
VERTEX
  8
PLAN_1
  6
CONTINUOUS
 10
1.194791
 20
-3.538370
  0
VERTEX
  8
PLAN_1
  6
CONTINUOUS
 10
1.189413
 20
-3.541957
  0
VERTEX
  8
PLAN_1
  6
CONTINUOUS
 10
1.184031
 20
-3.545094
  0
VERTEX
  8
PLAN_1
  6
CONTINUOUS
 10
1.178201
 20
-3.548232
  0
VERTEX
  8
PLAN_1
  6
CONTINUOUS
 10
1.172374
 20
-3.550925
  0
VERTEX
  8
PLAN_1
  6
CONTINUOUS
 10
1.166094
 20
-3.553165
  0
VERTEX
  8
PLAN_1
  6
CONTINUOUS
 10
1.159815
 20
-3.554961
  0
VERTEX
  8
PLAN_1
  6
CONTINUOUS
 10
1.153539
 20
-3.556307
  0
VERTEX
  8
PLAN_1
  6
CONTINUOUS
 10
1.147260
 20
-3.557201
  0
VERTEX
  8
PLAN_1
  6
CONTINUOUS
 10
1.140535
 20
-3.558098
  0
VERTEX
  8
PLAN_1
  6
CONTINUOUS
 10
1.133807
 20
-3.558098
  0
VERTEX
  8
PLAN_1
  6
CONTINUOUS
 10
1.128425
 20
-3.558098
  0
VERTEX
  8
PLAN_1
  6
CONTINUOUS
 10
1.123047
 20
-3.557650
  0
VERTEX
  8
PLAN_1
  6
CONTINUOUS
 10
1.117665
 20
-3.557201
  0
VERTEX
  8
PLAN_1
  6
CONTINUOUS
 10
1.112283
 20
-3.556307
  0
VERTEX
  8
PLAN_1
  6
CONTINUOUS
 10
1.107350
 20
-3.554961
  0
VERTEX
  8
PLAN_1
  6
CONTINUOUS
 10
1.101969
 20
-3.553614
  0
VERTEX
  8
PLAN_1
  6
CONTINUOUS
 10
1.097039
 20
-3.551823
  0
VERTEX
  8
PLAN_1
  6
CONTINUOUS
 10
1.092555
 20
-3.550028
  0
VERTEX
  8
PLAN_1
  6
CONTINUOUS
 10
1.087622
 20
-3.548232
  0
VERTEX
  8
PLAN_1
  6
CONTINUOUS
 10
1.083138
 20
-3.545543
  0
VERTEX
  8
PLAN_1
  6
CONTINUOUS
 10
1.078654
 20
-3.543303
  0
VERTEX
  8
PLAN_1
  6
CONTINUOUS
 10
1.074169
 20
-3.540610
  0
VERTEX
  8
PLAN_1
  6
CONTINUOUS
 10
1.070134
 20
-3.537472
  0
VERTEX
  8
PLAN_1
  6
CONTINUOUS
 10
1.066098
 20
-3.534335
  0
VERTEX
  8
PLAN_1
  6
CONTINUOUS
 10
1.062508
 20
-3.531193
  0
VERTEX
  8
PLAN_1
  6
CONTINUOUS
 10
1.058472
 20
-3.527606
  0
VERTEX
  8
PLAN_1
  6
CONTINUOUS
 10
1.055335
 20
-3.524020
  0
VERTEX
  8
PLAN_1
  6
CONTINUOUS
 10
1.051748
 20
-3.520433
  0
VERTEX
  8
PLAN_1
  6
CONTINUOUS
 10
1.048610
 20
-3.516398
  0
VERTEX
  8
PLAN_1
  6
CONTINUOUS
 10
1.045917
 20
-3.512362
  0
VERTEX
  8
PLAN_1
  6
CONTINUOUS
 10
1.043228
 20
-3.507878
  0
VERTEX
  8
PLAN_1
  6
CONTINUOUS
 10
1.040535
 20
-3.503394
  0
VERTEX
  8
PLAN_1
  6
CONTINUOUS
 10
1.038295
 20
-3.498909
  0
VERTEX
  8
PLAN_1
  6
CONTINUOUS
 10
1.036051
 20
-3.494425
  0
VERTEX
  8
PLAN_1
  6
CONTINUOUS
 10
1.034260
 20
-3.489492
  0
VERTEX
  8
PLAN_1
  6
CONTINUOUS
 10
1.032465
 20
-3.484559
  0
VERTEX
  8
PLAN_1
  6
CONTINUOUS
 10
1.031122
 20
-3.479626
  0
VERTEX
  8
PLAN_1
  6
CONTINUOUS
 10
1.030224
 20
-3.474244
  0
VERTEX
  8
PLAN_1
  6
CONTINUOUS
 10
1.029327
 20
-3.469311
  0
VERTEX
  8
PLAN_1
  6
CONTINUOUS
 10
1.028429
 20
-3.463933
  0
VERTEX
  8
PLAN_1
  6
CONTINUOUS
 10
1.027980
 20
-3.458551
  0
VERTEX
  8
PLAN_1
  6
CONTINUOUS
 10
1.027980
 20
-3.452720
  0
VERTEX
  8
PLAN_1
  6
CONTINUOUS
 10
1.027980
 20
-3.447339
  0
VERTEX
  8
PLAN_1
  6
CONTINUOUS
 10
1.028429
 20
-3.441961
  0
VERTEX
  8
PLAN_1
  6
CONTINUOUS
 10
1.029327
 20
-3.437028
  0
VERTEX
  8
PLAN_1
  6
CONTINUOUS
 10
1.030224
 20
-3.431646
  0
VERTEX
  8
PLAN_1
  6
CONTINUOUS
 10
1.031122
 20
-3.426713
  0
VERTEX
  8
PLAN_1
  6
CONTINUOUS
 10
1.032913
 20
-3.421780
  0
VERTEX
  8
PLAN_1
  6
CONTINUOUS
 10
1.034260
 20
-3.416846
  0
VERTEX
  8
PLAN_1
  6
CONTINUOUS
 10
1.036051
 20
-3.411913
  0
VERTEX
  8
PLAN_1
  6
CONTINUOUS
 10
1.038295
 20
-3.407429
  0
VERTEX
  8
PLAN_1
  6
CONTINUOUS
 10
1.040535
 20
-3.402945
  0
VERTEX
  8
PLAN_1
  6
CONTINUOUS
 10
1.043228
 20
-3.398461
  0
VERTEX
  8
PLAN_1
  6
CONTINUOUS
 10
1.045917
 20
-3.394425
  0
VERTEX
  8
PLAN_1
  6
CONTINUOUS
 10
1.049055
 20
-3.390390
  0
VERTEX
  8
PLAN_1
  6
CONTINUOUS
 10
1.052197
 20
-3.386354
  0
VERTEX
  8
PLAN_1
  6
CONTINUOUS
 10
1.055335
 20
-3.382319
  0
VERTEX
  8
PLAN_1
  6
CONTINUOUS
 10
1.058921
 20
-3.378732
  0
VERTEX
  8
PLAN_1
  6
CONTINUOUS
 10
1.062508
 20
-3.375594
  0
VERTEX
  8
PLAN_1
  6
CONTINUOUS
 10
1.066098
 20
-3.372004
  0
VERTEX
  8
PLAN_1
  6
CONTINUOUS
 10
1.070134
 20
-3.369315
  0
VERTEX
  8
PLAN_1
  6
CONTINUOUS
 10
1.074169
 20
-3.366177
  0
VERTEX
  8
PLAN_1
  6
CONTINUOUS
 10
1.078654
 20
-3.363484
  0
VERTEX
  8
PLAN_1
  6
CONTINUOUS
 10
1.083138
 20
-3.360795
  0
VERTEX
  8
PLAN_1
  6
CONTINUOUS
 10
1.087622
 20
-3.358555
  0
VERTEX
  8
PLAN_1
  6
CONTINUOUS
 10
1.092106
 20
-3.356760
  0
VERTEX
  8
PLAN_1
  6
CONTINUOUS
 10
1.097039
 20
-3.354965
  0
VERTEX
  8
PLAN_1
  6
CONTINUOUS
 10
1.101524
 20
-3.353173
  0
VERTEX
  8
PLAN_1
  6
CONTINUOUS
 10
1.106453
 20
-3.351827
  0
VERTEX
  8
PLAN_1
  6
CONTINUOUS
 10
1.111835
 20
-3.350480
  0
VERTEX
  8
PLAN_1
  6
CONTINUOUS
 10
1.116768
 20
-3.349587
  0
VERTEX
  8
PLAN_1
  6
CONTINUOUS
 10
1.122150
 20
-3.349138
  0
VERTEX
  8
PLAN_1
  6
CONTINUOUS
 10
1.127083
 20
-3.348689
  0
VERTEX
  8
PLAN_1
  6
CONTINUOUS
 10
1.132465
 20
-3.348689
  0
VERTEX
  8
PLAN_1
  6
CONTINUOUS
 10
1.142327
 20
-3.348689
  0
VERTEX
  8
PLAN_1
  6
CONTINUOUS
 10
1.151295
 20
-3.350031
  0
VERTEX
  8
PLAN_1
  6
CONTINUOUS
 10
1.160264
 20
-3.352276
  0
VERTEX
  8
PLAN_1
  6
CONTINUOUS
 10
1.169232
 20
-3.354965
  0
VERTEX
  8
PLAN_1
  6
CONTINUOUS
 10
1.177303
 20
-3.358555
  0
VERTEX
  8
PLAN_1
  6
CONTINUOUS
 10
1.185378
 20
-3.362591
  0
VERTEX
  8
PLAN_1
  6
CONTINUOUS
 10
1.192551
 20
-3.367520
  0
VERTEX
  8
PLAN_1
  6
CONTINUOUS
 10
1.199724
 20
-3.372902
  0
VERTEX
  8
PLAN_1
  6
CONTINUOUS
 10
1.206004
 20
-3.378732
  0
VERTEX
  8
PLAN_1
  6
CONTINUOUS
 10
1.211386
 20
-3.385457
  0
VERTEX
  8
PLAN_1
  6
CONTINUOUS
 10
1.214075
 20
-3.389047
  0
VERTEX
  8
PLAN_1
  6
CONTINUOUS
 10
1.216319
 20
-3.392634
  0
VERTEX
  8
PLAN_1
  6
CONTINUOUS
 10
1.218559
 20
-3.396220
  0
VERTEX
  8
PLAN_1
  6
CONTINUOUS
 10
1.220354
 20
-3.400256
  0
VERTEX
  8
PLAN_1
  6
CONTINUOUS
 10
1.222146
 20
-3.404291
  0
VERTEX
  8
PLAN_1
  6
CONTINUOUS
 10
1.223492
 20
-3.408327
  0
VERTEX
  8
PLAN_1
  6
CONTINUOUS
 10
1.224839
 20
-3.412362
  0
VERTEX
  8
PLAN_1
  6
CONTINUOUS
 10
1.226181
 20
-3.416846
  0
VERTEX
  8
PLAN_1
  6
CONTINUOUS
 10
1.227079
 20
-3.421331
  0
VERTEX
  8
PLAN_1
  6
CONTINUOUS
 10
1.227528
 20
-3.425815
  0
VERTEX
  8
PLAN_1
  6
CONTINUOUS
 10
1.227976
 20
-3.430299
  0
VERTEX
  8
PLAN_1
  6
CONTINUOUS
 10
1.227976
 20
-3.435232
  0
VERTEX
  8
PLAN_1
  6
CONTINUOUS
 10
1.227976
 20
-3.439717
  0
VERTEX
  8
PLAN_1
  6
CONTINUOUS
 10
1.227528
 20
-3.444201
  0
VERTEX
  8
PLAN_1
  6
CONTINUOUS
 10
1.227079
 20
-3.448685
  0
VERTEX
  8
PLAN_1
  6
CONTINUOUS
 10
1.226181
 20
-3.452720
  0
VERTEX
  8
PLAN_1
  6
CONTINUOUS
 10
1.223941
 20
-3.461240
  0
VERTEX
  8
PLAN_1
  6
CONTINUOUS
 10
1.221248
 20
-3.468862
  0
VERTEX
  8
PLAN_1
  6
CONTINUOUS
 10
1.217661
 20
-3.476039
  0
VERTEX
  8
PLAN_1
  6
CONTINUOUS
 10
1.213626
 20
-3.482315
  0
VERTEX
  8
PLAN_1
  6
CONTINUOUS
 10
1.209142
 20
-3.488594
  0
VERTEX
  8
PLAN_1
  6
CONTINUOUS
 10
1.204209
 20
-3.493976
  0
VERTEX
  8
PLAN_1
  6
CONTINUOUS
 10
1.198831
 20
-3.498909
  0
VERTEX
  8
PLAN_1
  6
CONTINUOUS
 10
1.193449
 20
-3.502945
  0
VERTEX
  8
PLAN_1
  6
CONTINUOUS
 10
1.188067
 20
-3.506980
  0
VERTEX
  8
PLAN_1
  6
CONTINUOUS
 10
1.182685
 20
-3.509669
  0
VERTEX
  8
PLAN_1
  6
CONTINUOUS
 10
1.176858
 20
-3.512362
  0
VERTEX
  8
PLAN_1
  6
CONTINUOUS
 10
1.171476
 20
-3.513705
  0
VERTEX
  8
PLAN_1
  6
CONTINUOUS
 10
1.166543
 20
-3.515051
  0
VERTEX
  8
PLAN_1
  6
CONTINUOUS
 10
1.161610
 20
-3.515051
  0
VERTEX
  8
PLAN_1
  6
CONTINUOUS
 10
1.158472
 20
-3.515051
  0
VERTEX
  8
PLAN_1
  6
CONTINUOUS
 10
1.154882
 20
-3.514154
  0
VERTEX
  8
PLAN_1
  6
CONTINUOUS
 10
1.152193
 20
-3.512811
  0
VERTEX
  8
PLAN_1
  6
CONTINUOUS
 10
1.149504
 20
-3.511016
  0
VERTEX
  8
PLAN_1
  6
CONTINUOUS
 10
1.147260
 20
-3.508772
  0
VERTEX
  8
PLAN_1
  6
CONTINUOUS
 10
1.145469
 20
-3.505634
  0
VERTEX
  8
PLAN_1
  6
CONTINUOUS
 10
1.144571
 20
-3.502047
  0
VERTEX
  8
PLAN_1
  6
CONTINUOUS
 10
1.144122
 20
-3.497563
  0
VERTEX
  8
PLAN_1
  6
CONTINUOUS
 10
1.143224
 20
-3.498012
  0
VERTEX
  8
PLAN_1
  6
CONTINUOUS
 10
1.140087
 20
-3.501150
  0
VERTEX
  8
PLAN_1
  6
CONTINUOUS
 10
1.136500
 20
-3.504287
  0
VERTEX
  8
PLAN_1
  6
CONTINUOUS
 10
1.132909
 20
-3.507429
  0
VERTEX
  8
PLAN_1
  6
CONTINUOUS
 10
1.128425
 20
-3.509669
  0
VERTEX
  8
PLAN_1
  6
CONTINUOUS
 10
1.124390
 20
-3.511913
  0
VERTEX
  8
PLAN_1
  6
CONTINUOUS
 10
1.119461
 20
-3.513705
  0
VERTEX
  8
PLAN_1
  6
CONTINUOUS
 10
1.114976
 20
-3.515051
  0
VERTEX
  8
PLAN_1
  6
CONTINUOUS
 10
1.110043
 20
-3.515051
  0
VERTEX
  8
PLAN_1
  6
CONTINUOUS
 10
1.105559
 20
-3.515051
  0
VERTEX
  8
PLAN_1
  6
CONTINUOUS
 10
1.101524
 20
-3.514154
  0
VERTEX
  8
PLAN_1
  6
CONTINUOUS
 10
1.097488
 20
-3.513256
  0
VERTEX
  8
PLAN_1
  6
CONTINUOUS
 10
1.093449
 20
-3.511913
  0
VERTEX
  8
PLAN_1
  6
CONTINUOUS
 10
1.089862
 20
-3.509669
  0
VERTEX
  8
PLAN_1
  6
CONTINUOUS
 10
1.086724
 20
-3.507429
  0
VERTEX
  8
PLAN_1
  6
CONTINUOUS
 10
1.083587
 20
-3.505185
  0
VERTEX
  8
PLAN_1
  6
CONTINUOUS
 10
1.080894
 20
-3.502047
  0
VERTEX
  8
PLAN_1
  6
CONTINUOUS
 10
1.078205
 20
-3.498909
  0
VERTEX
  8
PLAN_1
  6
CONTINUOUS
 10
1.075961
 20
-3.495319
  0
VERTEX
  8
PLAN_1
  6
CONTINUOUS
 10
1.074169
 20
-3.491732
  0
VERTEX
  8
PLAN_1
  6
CONTINUOUS
 10
1.072374
 20
-3.488146
  0
VERTEX
  8
PLAN_1
  6
CONTINUOUS
 10
1.071031
 20
-3.484110
  0
VERTEX
  8
PLAN_1
  6
CONTINUOUS
 10
1.070134
 20
-3.479626
  0
VERTEX
  8
PLAN_1
  6
CONTINUOUS
 10
1.069685
 20
-3.475142
  0
VERTEX
  8
PLAN_1
  6
CONTINUOUS
 10
1.069236
 20
-3.470657
  0
VERTEX
  8
PLAN_1
  6
CONTINUOUS
 10
1.069685
 20
-3.463933
  0
VERTEX
  8
PLAN_1
  6
CONTINUOUS
 10
1.070583
 20
-3.456756
  0
VERTEX
  8
PLAN_1
  6
CONTINUOUS
 10
1.071925
 20
-3.450031
  0
VERTEX
  8
PLAN_1
  6
CONTINUOUS
 10
1.073720
 20
-3.443303
  0
VERTEX
  8
PLAN_1
  6
CONTINUOUS
 10
1.076409
 20
-3.436579
  0
VERTEX
  8
PLAN_1
  6
CONTINUOUS
 10
1.079551
 20
-3.430299
  0
VERTEX
  8
PLAN_1
  6
CONTINUOUS
 10
1.083138
 20
-3.424024
  0
VERTEX
  8
PLAN_1
  6
CONTINUOUS
 10
1.086724
 20
-3.418642
  0
VERTEX
  8
PLAN_1
  6
CONTINUOUS
 10
1.091209
 20
-3.413260
  0
VERTEX
  8
PLAN_1
  6
CONTINUOUS
 10
1.096142
 20
-3.408776
  0
VERTEX
  8
PLAN_1
  6
CONTINUOUS
 10
1.101524
 20
-3.404291
  0
VERTEX
  8
PLAN_1
  6
CONTINUOUS
 10
1.106902
 20
-3.401154
  0
VERTEX
  8
PLAN_1
  6
CONTINUOUS
 10
1.113181
 20
-3.398016
  0
VERTEX
  8
PLAN_1
  6
CONTINUOUS
 10
1.119461
 20
-3.396220
  0
VERTEX
  8
PLAN_1
  6
CONTINUOUS
 10
1.126185
 20
-3.394874
  0
VERTEX
  8
PLAN_1
  6
CONTINUOUS
 10
1.133358
 20
-3.394425
  0
VERTEX
  8
PLAN_1
  6
CONTINUOUS
 10
1.138291
 20
-3.394425
  0
VERTEX
  8
PLAN_1
  6
CONTINUOUS
 10
1.143224
 20
-3.395323
  0
VERTEX
  8
PLAN_1
  6
CONTINUOUS
 10
1.147260
 20
-3.397118
  0
VERTEX
  8
PLAN_1
  6
CONTINUOUS
 10
1.151744
 20
-3.399358
  0
VERTEX
  8
PLAN_1
  6
CONTINUOUS
 10
1.155780
 20
-3.402051
  0
VERTEX
  8
PLAN_1
  6
CONTINUOUS
 10
1.159366
 20
-3.406087
  0
VERTEX
  8
PLAN_1
  6
CONTINUOUS
 10
1.162508
 20
-3.410571
  0
VERTEX
  8
PLAN_1
  6
CONTINUOUS
 10
1.165197
 20
-3.415953
  0
VERTEX
  8
PLAN_1
  6
CONTINUOUS
 10
1.171028
 20
-3.398909
  0
SEQEND
  8
0
  0
POLYLINE
  8
PLAN_1
  6
CONTINUOUS
 66
     1
 40
0.003000
 41
0.003000
  0
VERTEX
  8
PLAN_1
  6
CONTINUOUS
 10
1.133807
 20
-3.414157
  0
VERTEX
  8
PLAN_1
  6
CONTINUOUS
 10
1.129323
 20
-3.414606
  0
VERTEX
  8
PLAN_1
  6
CONTINUOUS
 10
1.125287
 20
-3.415504
  0
VERTEX
  8
PLAN_1
  6
CONTINUOUS
 10
1.120803
 20
-3.417295
  0
VERTEX
  8
PLAN_1
  6
CONTINUOUS
 10
1.117217
 20
-3.419539
  0
VERTEX
  8
PLAN_1
  6
CONTINUOUS
 10
1.113181
 20
-3.422228
  0
VERTEX
  8
PLAN_1
  6
CONTINUOUS
 10
1.110043
 20
-3.425366
  0
VERTEX
  8
PLAN_1
  6
CONTINUOUS
 10
1.106453
 20
-3.428957
  0
VERTEX
  8
PLAN_1
  6
CONTINUOUS
 10
1.103764
 20
-3.432543
  0
VERTEX
  8
PLAN_1
  6
CONTINUOUS
 10
1.101075
 20
-3.436579
  0
VERTEX
  8
PLAN_1
  6
CONTINUOUS
 10
1.098831
 20
-3.441063
  0
VERTEX
  8
PLAN_1
  6
CONTINUOUS
 10
1.096591
 20
-3.445547
  0
VERTEX
  8
PLAN_1
  6
CONTINUOUS
 10
1.095244
 20
-3.450031
  0
VERTEX
  8
PLAN_1
  6
CONTINUOUS
 10
1.093898
 20
-3.454965
  0
VERTEX
  8
PLAN_1
  6
CONTINUOUS
 10
1.093004
 20
-3.459449
  0
VERTEX
  8
PLAN_1
  6
CONTINUOUS
 10
1.092106
 20
-3.463933
  0
VERTEX
  8
PLAN_1
  6
CONTINUOUS
 10
1.092106
 20
-3.468417
  0
VERTEX
  8
PLAN_1
  6
CONTINUOUS
 10
1.092106
 20
-3.471106
  0
VERTEX
  8
PLAN_1
  6
CONTINUOUS
 10
1.092555
 20
-3.474244
  0
VERTEX
  8
PLAN_1
  6
CONTINUOUS
 10
1.093004
 20
-3.476937
  0
VERTEX
  8
PLAN_1
  6
CONTINUOUS
 10
1.093898
 20
-3.479177
  0
VERTEX
  8
PLAN_1
  6
CONTINUOUS
 10
1.094795
 20
-3.481421
  0
VERTEX
  8
PLAN_1
  6
CONTINUOUS
 10
1.095693
 20
-3.483661
  0
VERTEX
  8
PLAN_1
  6
CONTINUOUS
 10
1.097039
 20
-3.485906
  0
VERTEX
  8
PLAN_1
  6
CONTINUOUS
 10
1.098382
 20
-3.487697
  0
VERTEX
  8
PLAN_1
  6
CONTINUOUS
 10
1.100177
 20
-3.489492
  0
VERTEX
  8
PLAN_1
  6
CONTINUOUS
 10
1.101969
 20
-3.490839
  0
VERTEX
  8
PLAN_1
  6
CONTINUOUS
 10
1.103764
 20
-3.492181
  0
VERTEX
  8
PLAN_1
  6
CONTINUOUS
 10
1.106008
 20
-3.493079
  0
VERTEX
  8
PLAN_1
  6
CONTINUOUS
 10
1.108248
 20
-3.493976
  0
VERTEX
  8
PLAN_1
  6
CONTINUOUS
 10
1.110492
 20
-3.494874
  0
VERTEX
  8
PLAN_1
  6
CONTINUOUS
 10
1.112732
 20
-3.495319
  0
VERTEX
  8
PLAN_1
  6
CONTINUOUS
 10
1.115421
 20
-3.495319
  0
VERTEX
  8
PLAN_1
  6
CONTINUOUS
 10
1.119906
 20
-3.494874
  0
VERTEX
  8
PLAN_1
  6
CONTINUOUS
 10
1.123945
 20
-3.493976
  0
VERTEX
  8
PLAN_1
  6
CONTINUOUS
 10
1.127980
 20
-3.492181
  0
VERTEX
  8
PLAN_1
  6
CONTINUOUS
 10
1.132016
 20
-3.489941
  0
VERTEX
  8
PLAN_1
  6
CONTINUOUS
 10
1.135602
 20
-3.486799
  0
VERTEX
  8
PLAN_1
  6
CONTINUOUS
 10
1.138740
 20
-3.483661
  0
VERTEX
  8
PLAN_1
  6
CONTINUOUS
 10
1.141878
 20
-3.480075
  0
VERTEX
  8
PLAN_1
  6
CONTINUOUS
 10
1.145020
 20
-3.476039
  0
VERTEX
  8
PLAN_1
  6
CONTINUOUS
 10
1.147709
 20
-3.471555
  0
VERTEX
  8
PLAN_1
  6
CONTINUOUS
 10
1.149953
 20
-3.467071
  0
VERTEX
  8
PLAN_1
  6
CONTINUOUS
 10
1.151744
 20
-3.462587
  0
VERTEX
  8
PLAN_1
  6
CONTINUOUS
 10
1.153539
 20
-3.457654
  0
VERTEX
  8
PLAN_1
  6
CONTINUOUS
 10
1.154882
 20
-3.453169
  0
VERTEX
  8
PLAN_1
  6
CONTINUOUS
 10
1.155780
 20
-3.448685
  0
VERTEX
  8
PLAN_1
  6
CONTINUOUS
 10
1.156677
 20
-3.444201
  0
VERTEX
  8
PLAN_1
  6
CONTINUOUS
 10
1.156677
 20
-3.439717
  0
VERTEX
  8
PLAN_1
  6
CONTINUOUS
 10
1.156677
 20
-3.437476
  0
VERTEX
  8
PLAN_1
  6
CONTINUOUS
 10
1.156228
 20
-3.434783
  0
VERTEX
  8
PLAN_1
  6
CONTINUOUS
 10
1.155780
 20
-3.432543
  0
VERTEX
  8
PLAN_1
  6
CONTINUOUS
 10
1.154882
 20
-3.429850
  0
VERTEX
  8
PLAN_1
  6
CONTINUOUS
 10
1.152642
 20
-3.425815
  0
VERTEX
  8
PLAN_1
  6
CONTINUOUS
 10
1.149953
 20
-3.421780
  0
VERTEX
  8
PLAN_1
  6
CONTINUOUS
 10
1.146362
 20
-3.418642
  0
VERTEX
  8
PLAN_1
  6
CONTINUOUS
 10
1.142776
 20
-3.416398
  0
VERTEX
  8
PLAN_1
  6
CONTINUOUS
 10
1.140535
 20
-3.415504
  0
VERTEX
  8
PLAN_1
  6
CONTINUOUS
 10
1.138291
 20
-3.414606
  0
VERTEX
  8
PLAN_1
  6
CONTINUOUS
 10
1.136051
 20
-3.414606
  0
VERTEX
  8
PLAN_1
  6
CONTINUOUS
 10
1.133807
 20
-3.414157
  0
SEQEND
  8
0
  0
SOLID
  8
PLAN_1
 10
1.268783
 20
-3.587697
 11
1.268783
 21
-3.573795
 12
1.423488
 22
-3.587697
 13
1.423488
 23
-3.573795
  0
POLYLINE
  8
PLAN_1
  6
CONTINUOUS
 66
     1
 40
0.003000
 41
0.003000
  0
VERTEX
  8
PLAN_1
  6
CONTINUOUS
 10
1.268783
 20
-3.587697
  0
VERTEX
  8
PLAN_1
  6
CONTINUOUS
 10
1.268783
 20
-3.573795
  0
VERTEX
  8
PLAN_1
  6
CONTINUOUS
 10
1.423488
 20
-3.573795
  0
VERTEX
  8
PLAN_1
  6
CONTINUOUS
 10
1.423488
 20
-3.587697
  0
VERTEX
  8
PLAN_1
  6
CONTINUOUS
 10
1.268783
 20
-3.587697
  0
SEQEND
  8
0
  0
POLYLINE
  8
PLAN_1
  6
CONTINUOUS
 66
     1
 40
0.003000
 41
0.003000
  0
VERTEX
  8
PLAN_1
  6
CONTINUOUS
 10
1.474157
 20
-3.553165
  0
VERTEX
  8
PLAN_1
  6
CONTINUOUS
 10
1.447252
 20
-3.553165
  0
VERTEX
  8
PLAN_1
  6
CONTINUOUS
 10
1.447252
 20
-3.353622
  0
VERTEX
  8
PLAN_1
  6
CONTINUOUS
 10
1.585366
 20
-3.353622
  0
VERTEX
  8
PLAN_1
  6
CONTINUOUS
 10
1.585366
 20
-3.377386
  0
VERTEX
  8
PLAN_1
  6
CONTINUOUS
 10
1.474157
 20
-3.377386
  0
VERTEX
  8
PLAN_1
  6
CONTINUOUS
 10
1.474157
 20
-3.438819
  0
VERTEX
  8
PLAN_1
  6
CONTINUOUS
 10
1.571913
 20
-3.438819
  0
VERTEX
  8
PLAN_1
  6
CONTINUOUS
 10
1.571913
 20
-3.462587
  0
VERTEX
  8
PLAN_1
  6
CONTINUOUS
 10
1.474157
 20
-3.462587
  0
VERTEX
  8
PLAN_1
  6
CONTINUOUS
 10
1.474157
 20
-3.553165
  0
SEQEND
  8
0
  0
SOLID
  8
PLAN_1
 10
1.604201
 20
-3.553165
 11
1.575500
 21
-3.553165
 12
1.604201
 22
-3.523571
 13
1.575500
 23
-3.523571
  0
POLYLINE
  8
PLAN_1
  6
CONTINUOUS
 66
     1
 40
0.003000
 41
0.003000
  0
VERTEX
  8
PLAN_1
  6
CONTINUOUS
 10
1.604201
 20
-3.553165
  0
VERTEX
  8
PLAN_1
  6
CONTINUOUS
 10
1.575500
 20
-3.553165
  0
VERTEX
  8
PLAN_1
  6
CONTINUOUS
 10
1.575500
 20
-3.523571
  0
VERTEX
  8
PLAN_1
  6
CONTINUOUS
 10
1.604201
 20
-3.523571
  0
VERTEX
  8
PLAN_1
  6
CONTINUOUS
 10
1.604201
 20
-3.553165
  0
SEQEND
  8
0
  0
POLYLINE
  8
PLAN_1
  6
CONTINUOUS
 66
     1
 40
0.003000
 41
0.003000
  0
VERTEX
  8
PLAN_1
  6
CONTINUOUS
 10
1.799260
 20
-3.553165
  0
VERTEX
  8
PLAN_1
  6
CONTINUOUS
 10
1.652181
 20
-3.553165
  0
VERTEX
  8
PLAN_1
  6
CONTINUOUS
 10
1.652181
 20
-3.353622
  0
VERTEX
  8
PLAN_1
  6
CONTINUOUS
 10
1.797469
 20
-3.353622
  0
VERTEX
  8
PLAN_1
  6
CONTINUOUS
 10
1.797469
 20
-3.377386
  0
VERTEX
  8
PLAN_1
  6
CONTINUOUS
 10
1.679087
 20
-3.377386
  0
VERTEX
  8
PLAN_1
  6
CONTINUOUS
 10
1.679087
 20
-3.438819
  0
VERTEX
  8
PLAN_1
  6
CONTINUOUS
 10
1.788500
 20
-3.438819
  0
VERTEX
  8
PLAN_1
  6
CONTINUOUS
 10
1.788500
 20
-3.462587
  0
VERTEX
  8
PLAN_1
  6
CONTINUOUS
 10
1.679087
 20
-3.462587
  0
VERTEX
  8
PLAN_1
  6
CONTINUOUS
 10
1.679087
 20
-3.528953
  0
VERTEX
  8
PLAN_1
  6
CONTINUOUS
 10
1.799260
 20
-3.528953
  0
VERTEX
  8
PLAN_1
  6
CONTINUOUS
 10
1.799260
 20
-3.553165
  0
SEQEND
  8
0
  0
POLYLINE
  8
PLAN_1
  6
CONTINUOUS
 66
     1
 40
0.003000
 41
0.003000
  0
VERTEX
  8
PLAN_1
  6
CONTINUOUS
 10
1.864283
 20
-3.553165
  0
VERTEX
  8
PLAN_1
  6
CONTINUOUS
 10
1.837378
 20
-3.553165
  0
VERTEX
  8
PLAN_1
  6
CONTINUOUS
 10
1.837378
 20
-3.353622
  0
VERTEX
  8
PLAN_1
  6
CONTINUOUS
 10
1.927059
 20
-3.353622
  0
VERTEX
  8
PLAN_1
  6
CONTINUOUS
 10
1.933787
 20
-3.354071
  0
VERTEX
  8
PLAN_1
  6
CONTINUOUS
 10
1.940512
 20
-3.354965
  0
VERTEX
  8
PLAN_1
  6
CONTINUOUS
 10
1.946343
 20
-3.356311
  0
VERTEX
  8
PLAN_1
  6
CONTINUOUS
 10
1.952173
 20
-3.358106
  0
VERTEX
  8
PLAN_1
  6
CONTINUOUS
 10
1.957106
 20
-3.360346
  0
VERTEX
  8
PLAN_1
  6
CONTINUOUS
 10
1.962035
 20
-3.363039
  0
VERTEX
  8
PLAN_1
  6
CONTINUOUS
 10
1.966520
 20
-3.366177
  0
VERTEX
  8
PLAN_1
  6
CONTINUOUS
 10
1.970555
 20
-3.369764
  0
VERTEX
  8
PLAN_1
  6
CONTINUOUS
 10
1.974146
 20
-3.373799
  0
VERTEX
  8
PLAN_1
  6
CONTINUOUS
 10
1.977283
 20
-3.377835
  0
VERTEX
  8
PLAN_1
  6
CONTINUOUS
 10
1.979972
 20
-3.382768
  0
VERTEX
  8
PLAN_1
  6
CONTINUOUS
 10
1.982217
 20
-3.387252
  0
VERTEX
  8
PLAN_1
  6
CONTINUOUS
 10
1.984008
 20
-3.392634
  0
VERTEX
  8
PLAN_1
  6
CONTINUOUS
 10
1.985354
 20
-3.398016
  0
VERTEX
  8
PLAN_1
  6
CONTINUOUS
 10
1.986252
 20
-3.403843
  0
VERTEX
  8
PLAN_1
  6
CONTINUOUS
 10
1.986252
 20
-3.409673
  0
VERTEX
  8
PLAN_1
  6
CONTINUOUS
 10
1.986252
 20
-3.415055
  0
VERTEX
  8
PLAN_1
  6
CONTINUOUS
 10
1.985354
 20
-3.420433
  0
VERTEX
  8
PLAN_1
  6
CONTINUOUS
 10
1.984457
 20
-3.425366
  0
VERTEX
  8
PLAN_1
  6
CONTINUOUS
 10
1.983114
 20
-3.430748
  0
VERTEX
  8
PLAN_1
  6
CONTINUOUS
 10
1.981319
 20
-3.435681
  0
VERTEX
  8
PLAN_1
  6
CONTINUOUS
 10
1.979079
 20
-3.440614
  0
VERTEX
  8
PLAN_1
  6
CONTINUOUS
 10
1.976386
 20
-3.445547
  0
VERTEX
  8
PLAN_1
  6
CONTINUOUS
 10
1.972799
 20
-3.449583
  0
VERTEX
  8
PLAN_1
  6
CONTINUOUS
 10
1.969213
 20
-3.454067
  0
VERTEX
  8
PLAN_1
  6
CONTINUOUS
 10
1.965177
 20
-3.457654
  0
VERTEX
  8
PLAN_1
  6
CONTINUOUS
 10
1.960244
 20
-3.460791
  0
VERTEX
  8
PLAN_1
  6
CONTINUOUS
 10
1.954862
 20
-3.463484
  0
VERTEX
  8
PLAN_1
  6
CONTINUOUS
 10
1.948583
 20
-3.465724
  0
VERTEX
  8
PLAN_1
  6
CONTINUOUS
 10
1.942307
 20
-3.467520
  0
VERTEX
  8
PLAN_1
  6
CONTINUOUS
 10
1.935134
 20
-3.468417
  0
VERTEX
  8
PLAN_1
  6
CONTINUOUS
 10
1.927059
 20
-3.468862
  0
VERTEX
  8
PLAN_1
  6
CONTINUOUS
 10
1.864283
 20
-3.468862
  0
VERTEX
  8
PLAN_1
  6
CONTINUOUS
 10
1.864283
 20
-3.553165
  0
SEQEND
  8
0
  0
POLYLINE
  8
PLAN_1
  6
CONTINUOUS
 66
     1
 40
0.003000
 41
0.003000
  0
VERTEX
  8
PLAN_1
  6
CONTINUOUS
 10
1.864283
 20
-3.445996
  0
VERTEX
  8
PLAN_1
  6
CONTINUOUS
 10
1.918091
 20
-3.445996
  0
VERTEX
  8
PLAN_1
  6
CONTINUOUS
 10
1.922575
 20
-3.445996
  0
VERTEX
  8
PLAN_1
  6
CONTINUOUS
 10
1.926610
 20
-3.445547
  0
VERTEX
  8
PLAN_1
  6
CONTINUOUS
 10
1.930650
 20
-3.445098
  0
VERTEX
  8
PLAN_1
  6
CONTINUOUS
 10
1.934685
 20
-3.444201
  0
VERTEX
  8
PLAN_1
  6
CONTINUOUS
 10
1.938272
 20
-3.442854
  0
VERTEX
  8
PLAN_1
  6
CONTINUOUS
 10
1.941409
 20
-3.441512
  0
VERTEX
  8
PLAN_1
  6
CONTINUOUS
 10
1.944547
 20
-3.440165
  0
VERTEX
  8
PLAN_1
  6
CONTINUOUS
 10
1.947240
 20
-3.437925
  0
VERTEX
  8
PLAN_1
  6
CONTINUOUS
 10
1.949929
 20
-3.435681
  0
VERTEX
  8
PLAN_1
  6
CONTINUOUS
 10
1.952173
 20
-3.433441
  0
VERTEX
  8
PLAN_1
  6
CONTINUOUS
 10
1.953965
 20
-3.430299
  0
VERTEX
  8
PLAN_1
  6
CONTINUOUS
 10
1.955760
 20
-3.427161
  0
VERTEX
  8
PLAN_1
  6
CONTINUOUS
 10
1.957106
 20
-3.423575
  0
VERTEX
  8
PLAN_1
  6
CONTINUOUS
 10
1.958000
 20
-3.419539
  0
VERTEX
  8
PLAN_1
  6
CONTINUOUS
 10
1.958449
 20
-3.415055
  0
VERTEX
  8
PLAN_1
  6
CONTINUOUS
 10
1.958449
 20
-3.410122
  0
VERTEX
  8
PLAN_1
  6
CONTINUOUS
 10
1.958449
 20
-3.405638
  0
VERTEX
  8
PLAN_1
  6
CONTINUOUS
 10
1.958000
 20
-3.401602
  0
VERTEX
  8
PLAN_1
  6
CONTINUOUS
 10
1.956657
 20
-3.397567
  0
VERTEX
  8
PLAN_1
  6
CONTINUOUS
 10
1.955760
 20
-3.394425
  0
VERTEX
  8
PLAN_1
  6
CONTINUOUS
 10
1.953965
 20
-3.391287
  0
VERTEX
  8
PLAN_1
  6
CONTINUOUS
 10
1.952173
 20
-3.388598
  0
VERTEX
  8
PLAN_1
  6
CONTINUOUS
 10
1.949929
 20
-3.385906
  0
VERTEX
  8
PLAN_1
  6
CONTINUOUS
 10
1.947240
 20
-3.384114
  0
VERTEX
  8
PLAN_1
  6
CONTINUOUS
 10
1.944547
 20
-3.382319
  0
VERTEX
  8
PLAN_1
  6
CONTINUOUS
 10
1.941409
 20
-3.380528
  0
VERTEX
  8
PLAN_1
  6
CONTINUOUS
 10
1.938272
 20
-3.379630
  0
VERTEX
  8
PLAN_1
  6
CONTINUOUS
 10
1.934685
 20
-3.378283
  0
VERTEX
  8
PLAN_1
  6
CONTINUOUS
 10
1.931094
 20
-3.377835
  0
VERTEX
  8
PLAN_1
  6
CONTINUOUS
 10
1.927059
 20
-3.377386
  0
VERTEX
  8
PLAN_1
  6
CONTINUOUS
 10
1.923472
 20
-3.376937
  0
VERTEX
  8
PLAN_1
  6
CONTINUOUS
 10
1.918988
 20
-3.376937
  0
VERTEX
  8
PLAN_1
  6
CONTINUOUS
 10
1.864283
 20
-3.376937
  0
VERTEX
  8
PLAN_1
  6
CONTINUOUS
 10
1.864283
 20
-3.445996
  0
SEQEND
  8
0
  0
POLYLINE
  8
PLAN_1
  6
CONTINUOUS
 66
     1
 40
0.003000
 41
0.003000
  0
VERTEX
  8
PLAN_1
  6
CONTINUOUS
 10
2.140059
 20
-3.411913
  0
VERTEX
  8
PLAN_1
  6
CONTINUOUS
 10
2.139610
 20
-3.406535
  0
VERTEX
  8
PLAN_1
  6
CONTINUOUS
 10
2.138713
 20
-3.401602
  0
VERTEX
  8
PLAN_1
  6
CONTINUOUS
 10
2.136921
 20
-3.396669
  0
VERTEX
  8
PLAN_1
  6
CONTINUOUS
 10
2.135126
 20
-3.392634
  0
VERTEX
  8
PLAN_1
  6
CONTINUOUS
 10
2.132437
 20
-3.389047
  0
VERTEX
  8
PLAN_1
  6
CONTINUOUS
 10
2.129744
 20
-3.385457
  0
VERTEX
  8
PLAN_1
  6
CONTINUOUS
 10
2.126606
 20
-3.382768
  0
VERTEX
  8
PLAN_1
  6
CONTINUOUS
 10
2.123469
 20
-3.380079
  0
VERTEX
  8
PLAN_1
  6
CONTINUOUS
 10
2.119882
 20
-3.377835
  0
VERTEX
  8
PLAN_1
  6
CONTINUOUS
 10
2.115846
 20
-3.376043
  0
VERTEX
  8
PLAN_1
  6
CONTINUOUS
 10
2.111807
 20
-3.374697
  0
VERTEX
  8
PLAN_1
  6
CONTINUOUS
 10
2.107772
 20
-3.373350
  0
VERTEX
  8
PLAN_1
  6
CONTINUOUS
 10
2.103736
 20
-3.372453
  0
VERTEX
  8
PLAN_1
  6
CONTINUOUS
 10
2.099252
 20
-3.372004
  0
VERTEX
  8
PLAN_1
  6
CONTINUOUS
 10
2.095217
 20
-3.371559
  0
VERTEX
  8
PLAN_1
  6
CONTINUOUS
 10
2.090732
 20
-3.371559
  0
VERTEX
  8
PLAN_1
  6
CONTINUOUS
 10
2.084008
 20
-3.371559
  0
VERTEX
  8
PLAN_1
  6
CONTINUOUS
 10
2.076382
 20
-3.372902
  0
VERTEX
  8
PLAN_1
  6
CONTINUOUS
 10
2.072795
 20
-3.373350
  0
VERTEX
  8
PLAN_1
  6
CONTINUOUS
 10
2.068760
 20
-3.374697
  0
VERTEX
  8
PLAN_1
  6
CONTINUOUS
 10
2.065173
 20
-3.376043
  0
VERTEX
  8
PLAN_1
  6
CONTINUOUS
 10
2.061587
 20
-3.377835
  0
VERTEX
  8
PLAN_1
  6
CONTINUOUS
 10
2.058449
 20
-3.379630
  0
VERTEX
  8
PLAN_1
  6
CONTINUOUS
 10
2.055307
 20
-3.382319
  0
VERTEX
  8
PLAN_1
  6
CONTINUOUS
 10
2.052618
 20
-3.385012
  0
VERTEX
  8
PLAN_1
  6
CONTINUOUS
 10
2.049925
 20
-3.388150
  0
VERTEX
  8
PLAN_1
  6
CONTINUOUS
 10
2.048134
 20
-3.392185
  0
VERTEX
  8
PLAN_1
  6
CONTINUOUS
 10
2.046339
 20
-3.396220
  0
VERTEX
  8
PLAN_1
  6
CONTINUOUS
 10
2.045441
 20
-3.401154
  0
VERTEX
  8
PLAN_1
  6
CONTINUOUS
 10
2.045441
 20
-3.406535
  0
VERTEX
  8
PLAN_1
  6
CONTINUOUS
 10
2.045441
 20
-3.409673
  0
VERTEX
  8
PLAN_1
  6
CONTINUOUS
 10
2.045890
 20
-3.412362
  0
VERTEX
  8
PLAN_1
  6
CONTINUOUS
 10
2.046339
 20
-3.415055
  0
VERTEX
  8
PLAN_1
  6
CONTINUOUS
 10
2.047236
 20
-3.417295
  0
VERTEX
  8
PLAN_1
  6
CONTINUOUS
 10
2.048583
 20
-3.419091
  0
VERTEX
  8
PLAN_1
  6
CONTINUOUS
 10
2.049480
 20
-3.421331
  0
VERTEX
  8
PLAN_1
  6
CONTINUOUS
 10
2.051272
 20
-3.422677
  0
VERTEX
  8
PLAN_1
  6
CONTINUOUS
 10
2.052618
 20
-3.424472
  0
VERTEX
  8
PLAN_1
  6
CONTINUOUS
 10
2.056205
 20
-3.427161
  0
VERTEX
  8
PLAN_1
  6
CONTINUOUS
 10
2.060240
 20
-3.428957
  0
VERTEX
  8
PLAN_1
  6
CONTINUOUS
 10
2.064276
 20
-3.430748
  0
VERTEX
  8
PLAN_1
  6
CONTINUOUS
 10
2.068760
 20
-3.431646
  0
VERTEX
  8
PLAN_1
  6
CONTINUOUS
 10
2.125709
 20
-3.444650
  0
VERTEX
  8
PLAN_1
  6
CONTINUOUS
 10
2.130642
 20
-3.445996
  0
VERTEX
  8
PLAN_1
  6
CONTINUOUS
 10
2.135126
 20
-3.447339
  0
VERTEX
  8
PLAN_1
  6
CONTINUOUS
 10
2.139610
 20
-3.449134
  0
VERTEX
  8
PLAN_1
  6
CONTINUOUS
 10
2.143646
 20
-3.451374
  0
VERTEX
  8
PLAN_1
  6
CONTINUOUS
 10
2.147681
 20
-3.453618
  0
VERTEX
  8
PLAN_1
  6
CONTINUOUS
 10
2.151268
 20
-3.455858
  0
VERTEX
  8
PLAN_1
  6
CONTINUOUS
 10
2.154858
 20
-3.458551
  0
VERTEX
  8
PLAN_1
  6
CONTINUOUS
 10
2.157996
 20
-3.461689
  0
VERTEX
  8
PLAN_1
  6
CONTINUOUS
 10
2.161134
 20
-3.465276
  0
VERTEX
  8
PLAN_1
  6
CONTINUOUS
 10
2.163378
 20
-3.468862
  0
VERTEX
  8
PLAN_1
  6
CONTINUOUS
 10
2.165618
 20
-3.472902
  0
VERTEX
  8
PLAN_1
  6
CONTINUOUS
 10
2.167413
 20
-3.477386
  0
VERTEX
  8
PLAN_1
  6
CONTINUOUS
 10
2.169205
 20
-3.481870
  0
VERTEX
  8
PLAN_1
  6
CONTINUOUS
 10
2.170102
 20
-3.486799
  0
VERTEX
  8
PLAN_1
  6
CONTINUOUS
 10
2.170551
 20
-3.492181
  0
VERTEX
  8
PLAN_1
  6
CONTINUOUS
 10
2.171000
 20
-3.498012
  0
VERTEX
  8
PLAN_1
  6
CONTINUOUS
 10
2.171000
 20
-3.502496
  0
VERTEX
  8
PLAN_1
  6
CONTINUOUS
 10
2.170551
 20
-3.506531
  0
VERTEX
  8
PLAN_1
  6
CONTINUOUS
 10
2.170102
 20
-3.510567
  0
VERTEX
  8
PLAN_1
  6
CONTINUOUS
 10
2.169205
 20
-3.514154
  0
VERTEX
  8
PLAN_1
  6
CONTINUOUS
 10
2.167862
 20
-3.517740
  0
VERTEX
  8
PLAN_1
  6
CONTINUOUS
 10
2.166516
 20
-3.521331
  0
VERTEX
  8
PLAN_1
  6
CONTINUOUS
 10
2.165169
 20
-3.524469
  0
VERTEX
  8
PLAN_1
  6
CONTINUOUS
 10
2.163827
 20
-3.527157
  0
VERTEX
  8
PLAN_1
  6
CONTINUOUS
 10
2.161583
 20
-3.530299
  0
VERTEX
  8
PLAN_1
  6
CONTINUOUS
 10
2.159791
 20
-3.532988
  0
VERTEX
  8
PLAN_1
  6
CONTINUOUS
 10
2.157547
 20
-3.535677
  0
VERTEX
  8
PLAN_1
  6
CONTINUOUS
 10
2.155307
 20
-3.537921
  0
VERTEX
  8
PLAN_1
  6
CONTINUOUS
 10
2.150374
 20
-3.541957
  0
VERTEX
  8
PLAN_1
  6
CONTINUOUS
 10
2.144992
 20
-3.545992
  0
VERTEX
  8
PLAN_1
  6
CONTINUOUS
 10
2.138713
 20
-3.549130
  0
VERTEX
  8
PLAN_1
  6
CONTINUOUS
 10
2.132886
 20
-3.551823
  0
VERTEX
  8
PLAN_1
  6
CONTINUOUS
 10
2.126157
 20
-3.553614
  0
VERTEX
  8
PLAN_1
  6
CONTINUOUS
 10
2.119433
 20
-3.555409
  0
VERTEX
  8
PLAN_1
  6
CONTINUOUS
 10
2.112705
 20
-3.556756
  0
VERTEX
  8
PLAN_1
  6
CONTINUOUS
 10
2.105980
 20
-3.557650
  0
VERTEX
  8
PLAN_1
  6
CONTINUOUS
 10
2.099701
 20
-3.558098
  0
VERTEX
  8
PLAN_1
  6
CONTINUOUS
 10
2.092976
 20
-3.558098
  0
VERTEX
  8
PLAN_1
  6
CONTINUOUS
 10
2.086248
 20
-3.558098
  0
VERTEX
  8
PLAN_1
  6
CONTINUOUS
 10
2.079972
 20
-3.557650
  0
VERTEX
  8
PLAN_1
  6
CONTINUOUS
 10
2.074591
 20
-3.557201
  0
VERTEX
  8
PLAN_1
  6
CONTINUOUS
 10
2.069209
 20
-3.556307
  0
VERTEX
  8
PLAN_1
  6
CONTINUOUS
 10
2.064276
 20
-3.555409
  0
VERTEX
  8
PLAN_1
  6
CONTINUOUS
 10
2.060240
 20
-3.554512
  0
VERTEX
  8
PLAN_1
  6
CONTINUOUS
 10
2.056205
 20
-3.553165
  0
VERTEX
  8
PLAN_1
  6
CONTINUOUS
 10
2.052169
 20
-3.551823
  0
VERTEX
  8
PLAN_1
  6
CONTINUOUS
 10
2.045890
 20
-3.548681
  0
VERTEX
  8
PLAN_1
  6
CONTINUOUS
 10
2.040957
 20
-3.545543
  0
VERTEX
  8
PLAN_1
  6
CONTINUOUS
 10
2.036476
 20
-3.542406
  0
VERTEX
  8
PLAN_1
  6
CONTINUOUS
 10
2.032886
 20
-3.539268
  0
VERTEX
  8
PLAN_1
  6
CONTINUOUS
 10
2.029748
 20
-3.536126
  0
VERTEX
  8
PLAN_1
  6
CONTINUOUS
 10
2.027059
 20
-3.533437
  0
VERTEX
  8
PLAN_1
  6
CONTINUOUS
 10
2.024815
 20
-3.530299
  0
VERTEX
  8
PLAN_1
  6
CONTINUOUS
 10
2.022575
 20
-3.527606
  0
VERTEX
  8
PLAN_1
  6
CONTINUOUS
 10
2.018984
 20
-3.521331
  0
VERTEX
  8
PLAN_1
  6
CONTINUOUS
 10
2.016295
 20
-3.515051
  0
VERTEX
  8
PLAN_1
  6
CONTINUOUS
 10
2.014500
 20
-3.508772
  0
VERTEX
  8
PLAN_1
  6
CONTINUOUS
 10
2.013157
 20
-3.502047
  0
VERTEX
  8
PLAN_1
  6
CONTINUOUS
 10
2.012709
 20
-3.495319
  0
VERTEX
  8
PLAN_1
  6
CONTINUOUS
 10
2.012709
 20
-3.488594
  0
VERTEX
  8
PLAN_1
  6
CONTINUOUS
 10
2.037819
 20
-3.488594
  0
VERTEX
  8
PLAN_1
  6
CONTINUOUS
 10
2.038268
 20
-3.495319
  0
VERTEX
  8
PLAN_1
  6
CONTINUOUS
 10
2.039165
 20
-3.501150
  0
VERTEX
  8
PLAN_1
  6
CONTINUOUS
 10
2.040512
 20
-3.506531
  0
VERTEX
  8
PLAN_1
  6
CONTINUOUS
 10
2.042752
 20
-3.511016
  0
VERTEX
  8
PLAN_1
  6
CONTINUOUS
 10
2.045441
 20
-3.515500
  0
VERTEX
  8
PLAN_1
  6
CONTINUOUS
 10
2.048583
 20
-3.519087
  0
VERTEX
  8
PLAN_1
  6
CONTINUOUS
 10
2.051720
 20
-3.522673
  0
VERTEX
  8
PLAN_1
  6
CONTINUOUS
 10
2.055756
 20
-3.525366
  0
VERTEX
  8
PLAN_1
  6
CONTINUOUS
 10
2.059791
 20
-3.528055
  0
VERTEX
  8
PLAN_1
  6
CONTINUOUS
 10
2.064276
 20
-3.529850
  0
VERTEX
  8
PLAN_1
  6
CONTINUOUS
 10
2.068760
 20
-3.531642
  0
VERTEX
  8
PLAN_1
  6
CONTINUOUS
 10
2.073244
 20
-3.532988
  0
VERTEX
  8
PLAN_1
  6
CONTINUOUS
 10
2.078177
 20
-3.533886
  0
VERTEX
  8
PLAN_1
  6
CONTINUOUS
 10
2.083110
 20
-3.534783
  0
VERTEX
  8
PLAN_1
  6
CONTINUOUS
 10
2.088043
 20
-3.535228
  0
VERTEX
  8
PLAN_1
  6
CONTINUOUS
 10
2.092528
 20
-3.535228
  0
VERTEX
  8
PLAN_1
  6
CONTINUOUS
 10
2.100598
 20
-3.534783
  0
VERTEX
  8
PLAN_1
  6
CONTINUOUS
 10
2.109118
 20
-3.533886
  0
VERTEX
  8
PLAN_1
  6
CONTINUOUS
 10
2.113602
 20
-3.533437
  0
VERTEX
  8
PLAN_1
  6
CONTINUOUS
 10
2.117638
 20
-3.532091
  0
VERTEX
  8
PLAN_1
  6
CONTINUOUS
 10
2.122122
 20
-3.530744
  0
VERTEX
  8
PLAN_1
  6
CONTINUOUS
 10
2.126157
 20
-3.529402
  0
VERTEX
  8
PLAN_1
  6
CONTINUOUS
 10
2.129744
 20
-3.527157
  0
VERTEX
  8
PLAN_1
  6
CONTINUOUS
 10
2.133335
 20
-3.524917
  0
VERTEX
  8
PLAN_1
  6
CONTINUOUS
 10
2.136921
 20
-3.522224
  0
VERTEX
  8
PLAN_1
  6
CONTINUOUS
 10
2.139610
 20
-3.519087
  0
VERTEX
  8
PLAN_1
  6
CONTINUOUS
 10
2.141854
 20
-3.515500
  0
VERTEX
  8
PLAN_1
  6
CONTINUOUS
 10
2.143646
 20
-3.511465
  0
VERTEX
  8
PLAN_1
  6
CONTINUOUS
 10
2.144543
 20
-3.506531
  0
VERTEX
  8
PLAN_1
  6
CONTINUOUS
 10
2.144992
 20
-3.501598
  0
VERTEX
  8
PLAN_1
  6
CONTINUOUS
 10
2.144992
 20
-3.498012
  0
VERTEX
  8
PLAN_1
  6
CONTINUOUS
 10
2.144543
 20
-3.494425
  0
VERTEX
  8
PLAN_1
  6
CONTINUOUS
 10
2.143646
 20
-3.491283
  0
VERTEX
  8
PLAN_1
  6
CONTINUOUS
 10
2.142748
 20
-3.488594
  0
VERTEX
  8
PLAN_1
  6
CONTINUOUS
 10
2.141854
 20
-3.485906
  0
VERTEX
  8
PLAN_1
  6
CONTINUOUS
 10
2.140059
 20
-3.483213
  0
VERTEX
  8
PLAN_1
  6
CONTINUOUS
 10
2.138264
 20
-3.481421
  0
VERTEX
  8
PLAN_1
  6
CONTINUOUS
 10
2.136024
 20
-3.479177
  0
VERTEX
  8
PLAN_1
  6
CONTINUOUS
 10
2.133335
 20
-3.477386
  0
VERTEX
  8
PLAN_1
  6
CONTINUOUS
 10
2.130193
 20
-3.475591
  0
VERTEX
  8
PLAN_1
  6
CONTINUOUS
 10
2.126606
 20
-3.473795
  0
VERTEX
  8
PLAN_1
  6
CONTINUOUS
 10
2.123020
 20
-3.472453
  0
VERTEX
  8
PLAN_1
  6
CONTINUOUS
 10
2.113602
 20
-3.469311
  0
VERTEX
  8
PLAN_1
  6
CONTINUOUS
 10
2.102394
 20
-3.466622
  0
VERTEX
  8
PLAN_1
  6
CONTINUOUS
 10
2.061587
 20
-3.457205
  0
VERTEX
  8
PLAN_1
  6
CONTINUOUS
 10
2.056205
 20
-3.455413
  0
VERTEX
  8
PLAN_1
  6
CONTINUOUS
 10
2.049480
 20
-3.453169
  0
VERTEX
  8
PLAN_1
  6
CONTINUOUS
 10
2.045890
 20
-3.451823
  0
VERTEX
  8
PLAN_1
  6
CONTINUOUS
 10
2.042303
 20
-3.450031
  0
VERTEX
  8
PLAN_1
  6
CONTINUOUS
 10
2.039165
 20
-3.447787
  0
VERTEX
  8
PLAN_1
  6
CONTINUOUS
 10
2.035579
 20
-3.445547
  0
VERTEX
  8
PLAN_1
  6
CONTINUOUS
 10
2.032437
 20
-3.442409
  0
VERTEX
  8
PLAN_1
  6
CONTINUOUS
 10
2.029299
 20
-3.439268
  0
VERTEX
  8
PLAN_1
  6
CONTINUOUS
 10
2.026610
 20
-3.435681
  0
VERTEX
  8
PLAN_1
  6
CONTINUOUS
 10
2.023917
 20
-3.431646
  0
VERTEX
  8
PLAN_1
  6
CONTINUOUS
 10
2.022126
 20
-3.427161
  0
VERTEX
  8
PLAN_1
  6
CONTINUOUS
 10
2.020331
 20
-3.421780
  0
VERTEX
  8
PLAN_1
  6
CONTINUOUS
 10
2.019433
 20
-3.416398
  0
VERTEX
  8
PLAN_1
  6
CONTINUOUS
 10
2.018984
 20
-3.410122
  0
VERTEX
  8
PLAN_1
  6
CONTINUOUS
 10
2.019433
 20
-3.404291
  0
VERTEX
  8
PLAN_1
  6
CONTINUOUS
 10
2.020331
 20
-3.398461
  0
VERTEX
  8
PLAN_1
  6
CONTINUOUS
 10
2.021228
 20
-3.393083
  0
VERTEX
  8
PLAN_1
  6
CONTINUOUS
 10
2.023024
 20
-3.387252
  0
VERTEX
  8
PLAN_1
  6
CONTINUOUS
 10
2.025264
 20
-3.381870
  0
VERTEX
  8
PLAN_1
  6
CONTINUOUS
 10
2.027953
 20
-3.376937
  0
VERTEX
  8
PLAN_1
  6
CONTINUOUS
 10
2.031543
 20
-3.372004
  0
VERTEX
  8
PLAN_1
  6
CONTINUOUS
 10
2.035130
 20
-3.367520
  0
VERTEX
  8
PLAN_1
  6
CONTINUOUS
 10
2.039614
 20
-3.363484
  0
VERTEX
  8
PLAN_1
  6
CONTINUOUS
 10
2.044996
 20
-3.359898
  0
VERTEX
  8
PLAN_1
  6
CONTINUOUS
 10
2.050374
 20
-3.356311
  0
VERTEX
  8
PLAN_1
  6
CONTINUOUS
 10
2.056654
 20
-3.353622
  0
VERTEX
  8
PLAN_1
  6
CONTINUOUS
 10
2.063378
 20
-3.351378
  0
VERTEX
  8
PLAN_1
  6
CONTINUOUS
 10
2.071004
 20
-3.350031
  0
VERTEX
  8
PLAN_1
  6
CONTINUOUS
 10
2.079075
 20
-3.348689
  0
VERTEX
  8
PLAN_1
  6
CONTINUOUS
 10
2.087594
 20
-3.348689
  0
VERTEX
  8
PLAN_1
  6
CONTINUOUS
 10
2.093870
 20
-3.348689
  0
VERTEX
  8
PLAN_1
  6
CONTINUOUS
 10
2.100150
 20
-3.349138
  0
VERTEX
  8
PLAN_1
  6
CONTINUOUS
 10
2.105531
 20
-3.349587
  0
VERTEX
  8
PLAN_1
  6
CONTINUOUS
 10
2.110913
 20
-3.350480
  0
VERTEX
  8
PLAN_1
  6
CONTINUOUS
 10
2.115846
 20
-3.351378
  0
VERTEX
  8
PLAN_1
  6
CONTINUOUS
 10
2.120776
 20
-3.352276
  0
VERTEX
  8
PLAN_1
  6
CONTINUOUS
 10
2.124811
 20
-3.353622
  0
VERTEX
  8
PLAN_1
  6
CONTINUOUS
 10
2.129295
 20
-3.355413
  0
VERTEX
  8
PLAN_1
  6
CONTINUOUS
 10
2.132886
 20
-3.357209
  0
VERTEX
  8
PLAN_1
  6
CONTINUOUS
 10
2.136472
 20
-3.359000
  0
VERTEX
  8
PLAN_1
  6
CONTINUOUS
 10
2.139610
 20
-3.360795
  0
VERTEX
  8
PLAN_1
  6
CONTINUOUS
 10
2.142748
 20
-3.362591
  0
VERTEX
  8
PLAN_1
  6
CONTINUOUS
 10
2.148130
 20
-3.367075
  0
VERTEX
  8
PLAN_1
  6
CONTINUOUS
 10
2.152165
 20
-3.372004
  0
VERTEX
  8
PLAN_1
  6
CONTINUOUS
 10
2.155752
 20
-3.376937
  0
VERTEX
  8
PLAN_1
  6
CONTINUOUS
 10
2.158894
 20
-3.382319
  0
VERTEX
  8
PLAN_1
  6
CONTINUOUS
 10
2.161134
 20
-3.387701
  0
VERTEX
  8
PLAN_1
  6
CONTINUOUS
 10
2.162480
 20
-3.392634
  0
VERTEX
  8
PLAN_1
  6
CONTINUOUS
 10
2.163827
 20
-3.398016
  0
VERTEX
  8
PLAN_1
  6
CONTINUOUS
 10
2.164720
 20
-3.402945
  0
VERTEX
  8
PLAN_1
  6
CONTINUOUS
 10
2.165169
 20
-3.407878
  0
VERTEX
  8
PLAN_1
  6
CONTINUOUS
 10
2.165618
 20
-3.411913
  0
VERTEX
  8
PLAN_1
  6
CONTINUOUS
 10
2.140059
 20
-3.411913
  0
SEQEND
  8
0
  0
POLYLINE
  8
PLAN_1
  6
CONTINUOUS
 66
     1
 40
0.008520
 41
0.008520
  0
VERTEX
  8
PLAN_1
  6
CONTINUOUS
 10
-1.151780
 20
2.194213
  0
VERTEX
  8
PLAN_1
  6
CONTINUOUS
 10
-0.851787
 20
2.194213
  0
VERTEX
  8
PLAN_1
  6
CONTINUOUS
 10
-0.851787
 20
1.159264
  0
VERTEX
  8
PLAN_1
  6
CONTINUOUS
 10
-1.913197
 20
1.159264
  0
VERTEX
  8
PLAN_1
  6
CONTINUOUS
 10
-1.913197
 20
2.194213
  0
VERTEX
  8
PLAN_1
  6
CONTINUOUS
 10
-1.616343
 20
2.194213
  0
SEQEND
  8
0
  0
POLYLINE
  8
PLAN_1
  6
CONTINUOUS
 66
     1
 40
0.008520
 41
0.008520
  0
VERTEX
  8
PLAN_1
  6
CONTINUOUS
 10
-0.943268
 20
1.100520
  0
VERTEX
  8
PLAN_1
  6
CONTINUOUS
 10
-0.939228
 20
1.100520
  0
VERTEX
  8
PLAN_1
  6
CONTINUOUS
 10
-0.935193
 20
1.100969
  0
VERTEX
  8
PLAN_1
  6
CONTINUOUS
 10
-0.931606
 20
1.101866
  0
VERTEX
  8
PLAN_1
  6
CONTINUOUS
 10
-0.928020
 20
1.103209
  0
VERTEX
  8
PLAN_1
  6
CONTINUOUS
 10
-0.925331
 20
1.104555
  0
VERTEX
  8
PLAN_1
  6
CONTINUOUS
 10
-0.922189
 20
1.105902
  0
VERTEX
  8
PLAN_1
  6
CONTINUOUS
 10
-0.919949
 20
1.107693
  0
VERTEX
  8
PLAN_1
  6
CONTINUOUS
 10
-0.917256
 20
1.109488
  0
VERTEX
  8
PLAN_1
  6
CONTINUOUS
 10
-0.915465
 20
1.111728
  0
VERTEX
  8
PLAN_1
  6
CONTINUOUS
 10
-0.913669
 20
1.113972
  0
VERTEX
  8
PLAN_1
  6
CONTINUOUS
 10
-0.911878
 20
1.116661
  0
VERTEX
  8
PLAN_1
  6
CONTINUOUS
 10
-0.910531
 20
1.118906
  0
VERTEX
  8
PLAN_1
  6
CONTINUOUS
 10
-0.908291
 20
1.124287
  0
VERTEX
  8
PLAN_1
  6
CONTINUOUS
 10
-0.906496
 20
1.129665
  0
VERTEX
  8
PLAN_1
  6
CONTINUOUS
 10
-0.905598
 20
1.135496
  0
VERTEX
  8
PLAN_1
  6
CONTINUOUS
 10
-0.904701
 20
1.140878
  0
VERTEX
  8
PLAN_1
  6
CONTINUOUS
 10
-0.904701
 20
1.145811
  0
VERTEX
  8
PLAN_1
  6
CONTINUOUS
 10
-0.904701
 20
1.150295
  0
VERTEX
  8
PLAN_1
  6
CONTINUOUS
 10
-0.905150
 20
1.156571
  0
VERTEX
  8
PLAN_1
  6
CONTINUOUS
 10
-0.905150
 20
1.159264
  0
SEQEND
  8
0
  0
POLYLINE
  8
PLAN_1
  6
CONTINUOUS
 66
     1
 40
0.008520
 41
0.008520
  0
VERTEX
  8
PLAN_1
  6
CONTINUOUS
 10
-0.905150
 20
1.159264
  0
VERTEX
  8
PLAN_1
  6
CONTINUOUS
 10
-1.849969
 20
1.159264
  0
SEQEND
  8
0
  0
POLYLINE
  8
PLAN_1
  6
CONTINUOUS
 66
     1
 40
0.008520
 41
0.008520
  0
VERTEX
  8
PLAN_1
  6
CONTINUOUS
 10
-1.849969
 20
1.159264
  0
VERTEX
  8
PLAN_1
  6
CONTINUOUS
 10
-1.850866
 20
1.156571
  0
VERTEX
  8
PLAN_1
  6
CONTINUOUS
 10
-1.852657
 20
1.150295
  0
VERTEX
  8
PLAN_1
  6
CONTINUOUS
 10
-1.853555
 20
1.145811
  0
VERTEX
  8
PLAN_1
  6
CONTINUOUS
 10
-1.854004
 20
1.140878
  0
VERTEX
  8
PLAN_1
  6
CONTINUOUS
 10
-1.854453
 20
1.135496
  0
VERTEX
  8
PLAN_1
  6
CONTINUOUS
 10
-1.854453
 20
1.129665
  0
VERTEX
  8
PLAN_1
  6
CONTINUOUS
 10
-1.853555
 20
1.124287
  0
VERTEX
  8
PLAN_1
  6
CONTINUOUS
 10
-1.852209
 20
1.118906
  0
VERTEX
  8
PLAN_1
  6
CONTINUOUS
 10
-1.851315
 20
1.116661
  0
VERTEX
  8
PLAN_1
  6
CONTINUOUS
 10
-1.849969
 20
1.113972
  0
VERTEX
  8
PLAN_1
  6
CONTINUOUS
 10
-1.848622
 20
1.111728
  0
VERTEX
  8
PLAN_1
  6
CONTINUOUS
 10
-1.846831
 20
1.109488
  0
VERTEX
  8
PLAN_1
  6
CONTINUOUS
 10
-1.844587
 20
1.107693
  0
VERTEX
  8
PLAN_1
  6
CONTINUOUS
 10
-1.842346
 20
1.105902
  0
VERTEX
  8
PLAN_1
  6
CONTINUOUS
 10
-1.839654
 20
1.104555
  0
VERTEX
  8
PLAN_1
  6
CONTINUOUS
 10
-1.836516
 20
1.103209
  0
VERTEX
  8
PLAN_1
  6
CONTINUOUS
 10
-1.832929
 20
1.101866
  0
VERTEX
  8
PLAN_1
  6
CONTINUOUS
 10
-1.829343
 20
1.100969
  0
VERTEX
  8
PLAN_1
  6
CONTINUOUS
 10
-1.824858
 20
1.100520
  0
VERTEX
  8
PLAN_1
  6
CONTINUOUS
 10
-1.820374
 20
1.100520
  0
VERTEX
  8
PLAN_1
  6
CONTINUOUS
 10
-1.775531
 20
1.100520
  0
VERTEX
  8
PLAN_1
  6
CONTINUOUS
 10
-1.677776
 20
1.100520
  0
VERTEX
  8
PLAN_1
  6
CONTINUOUS
 10
-1.544594
 20
1.100520
  0
VERTEX
  8
PLAN_1
  6
CONTINUOUS
 10
-1.393031
 20
1.100520
  0
VERTEX
  8
PLAN_1
  6
CONTINUOUS
 10
-1.240118
 20
1.100520
  0
VERTEX
  8
PLAN_1
  6
CONTINUOUS
 10
-1.102902
 20
1.100520
  0
VERTEX
  8
PLAN_1
  6
CONTINUOUS
 10
-0.997972
 20
1.100520
  0
VERTEX
  8
PLAN_1
  6
CONTINUOUS
 10
-0.943268
 20
1.100520
  0
SEQEND
  8
0
  0
POLYLINE
  8
PLAN_1
  6
CONTINUOUS
 66
     1
 40
0.008520
 41
0.008520
  0
VERTEX
  8
PLAN_1
  6
CONTINUOUS
 10
-1.774185
 20
1.100520
  0
VERTEX
  8
PLAN_1
  6
CONTINUOUS
 10
-1.774185
 20
0.785728
  0
VERTEX
  8
PLAN_1
  6
CONTINUOUS
 10
-1.732484
 20
0.785728
  0
VERTEX
  8
PLAN_1
  6
CONTINUOUS
 10
-1.732484
 20
0.742232
  0
VERTEX
  8
PLAN_1
  6
CONTINUOUS
 10
-1.686744
 20
0.742232
  0
VERTEX
  8
PLAN_1
  6
CONTINUOUS
 10
-1.686744
 20
0.785728
  0
VERTEX
  8
PLAN_1
  6
CONTINUOUS
 10
-1.091693
 20
0.785728
  0
VERTEX
  8
PLAN_1
  6
CONTINUOUS
 10
-1.091693
 20
0.742232
  0
VERTEX
  8
PLAN_1
  6
CONTINUOUS
 10
-1.045953
 20
0.742232
  0
VERTEX
  8
PLAN_1
  6
CONTINUOUS
 10
-1.045953
 20
0.785728
  0
VERTEX
  8
PLAN_1
  6
CONTINUOUS
 10
-0.987213
 20
0.785728
  0
VERTEX
  8
PLAN_1
  6
CONTINUOUS
 10
-0.987213
 20
1.100520
  0
VERTEX
  8
PLAN_1
  6
CONTINUOUS
 10
-1.774185
 20
1.100520
  0
SEQEND
  8
0
  0
POLYLINE
  8
PLAN_1
  6
CONTINUOUS
 66
     1
 40
0.008520
 41
0.008520
  0
VERTEX
  8
PLAN_1
  6
CONTINUOUS
 10
-0.851787
 20
2.074484
  0
VERTEX
  8
PLAN_1
  6
CONTINUOUS
 10
-1.151780
 20
2.074484
  0
VERTEX
  8
PLAN_1
  6
CONTINUOUS
 10
-1.151780
 20
2.194213
  0
VERTEX
  8
PLAN_1
  6
CONTINUOUS
 10
-1.188551
 20
2.194213
  0
SEQEND
  8
0
  0
POLYLINE
  8
PLAN_1
  6
CONTINUOUS
 66
     1
 40
0.008520
 41
0.008520
  0
VERTEX
  8
PLAN_1
  6
CONTINUOUS
 10
-1.584055
 20
2.194213
  0
VERTEX
  8
PLAN_1
  6
CONTINUOUS
 10
-1.616343
 20
2.194213
  0
VERTEX
  8
PLAN_1
  6
CONTINUOUS
 10
-1.616343
 20
2.074484
  0
VERTEX
  8
PLAN_1
  6
CONTINUOUS
 10
-1.913197
 20
2.074484
  0
SEQEND
  8
0
  0
POLYLINE
  8
PLAN_1
  6
CONTINUOUS
 66
     1
 40
0.008520
 41
0.008520
  0
VERTEX
  8
PLAN_1
  6
CONTINUOUS
 10
-1.579571
 20
2.302280
  0
VERTEX
  8
PLAN_1
  6
CONTINUOUS
 10
-1.193035
 20
2.302280
  0
SEQEND
  8
0
  0
POLYLINE
  8
PLAN_1
  6
CONTINUOUS
 66
     1
 40
0.008520
 41
0.008520
  0
VERTEX
  8
PLAN_1
  6
CONTINUOUS
 10
-1.384957
 20
1.514409
  0
VERTEX
  8
PLAN_1
  6
CONTINUOUS
 10
-1.374646
 20
1.514858
  0
VERTEX
  8
PLAN_1
  6
CONTINUOUS
 10
-1.364780
 20
1.515307
  0
VERTEX
  8
PLAN_1
  6
CONTINUOUS
 10
-1.354913
 20
1.516654
  0
VERTEX
  8
PLAN_1
  6
CONTINUOUS
 10
-1.345047
 20
1.518445
  0
VERTEX
  8
PLAN_1
  6
CONTINUOUS
 10
-1.335634
 20
1.520689
  0
VERTEX
  8
PLAN_1
  6
CONTINUOUS
 10
-1.326217
 20
1.523378
  0
VERTEX
  8
PLAN_1
  6
CONTINUOUS
 10
-1.317248
 20
1.526516
  0
VERTEX
  8
PLAN_1
  6
CONTINUOUS
 10
-1.308280
 20
1.529657
  0
VERTEX
  8
PLAN_1
  6
CONTINUOUS
 10
-1.299760
 20
1.533693
  0
VERTEX
  8
PLAN_1
  6
CONTINUOUS
 10
-1.291240
 20
1.538177
  0
VERTEX
  8
PLAN_1
  6
CONTINUOUS
 10
-1.282720
 20
1.542661
  0
VERTEX
  8
PLAN_1
  6
CONTINUOUS
 10
-1.274646
 20
1.548043
  0
VERTEX
  8
PLAN_1
  6
CONTINUOUS
 10
-1.267024
 20
1.553421
  0
VERTEX
  8
PLAN_1
  6
CONTINUOUS
 10
-1.259850
 20
1.559252
  0
VERTEX
  8
PLAN_1
  6
CONTINUOUS
 10
-1.252673
 20
1.565531
  0
VERTEX
  8
PLAN_1
  6
CONTINUOUS
 10
-1.245949
 20
1.571807
  0
VERTEX
  8
PLAN_1
  6
CONTINUOUS
 10
-1.239220
 20
1.578980
  0
VERTEX
  8
PLAN_1
  6
CONTINUOUS
 10
-1.232945
 20
1.586157
  0
VERTEX
  8
PLAN_1
  6
CONTINUOUS
 10
-1.227114
 20
1.593331
  0
VERTEX
  8
PLAN_1
  6
CONTINUOUS
 10
-1.221732
 20
1.600953
  0
VERTEX
  8
PLAN_1
  6
CONTINUOUS
 10
-1.216803
 20
1.609028
  0
VERTEX
  8
PLAN_1
  6
CONTINUOUS
 10
-1.211870
 20
1.617547
  0
VERTEX
  8
PLAN_1
  6
CONTINUOUS
 10
-1.207386
 20
1.626067
  0
VERTEX
  8
PLAN_1
  6
CONTINUOUS
 10
-1.203350
 20
1.634587
  0
VERTEX
  8
PLAN_1
  6
CONTINUOUS
 10
-1.200209
 20
1.643555
  0
VERTEX
  8
PLAN_1
  6
CONTINUOUS
 10
-1.197071
 20
1.652524
  0
VERTEX
  8
PLAN_1
  6
CONTINUOUS
 10
-1.194382
 20
1.661941
  0
VERTEX
  8
PLAN_1
  6
CONTINUOUS
 10
-1.192138
 20
1.671358
  0
VERTEX
  8
PLAN_1
  6
CONTINUOUS
 10
-1.190346
 20
1.681220
  0
VERTEX
  8
PLAN_1
  6
CONTINUOUS
 10
-1.189000
 20
1.691087
  0
VERTEX
  8
PLAN_1
  6
CONTINUOUS
 10
-1.188551
 20
1.700953
  0
VERTEX
  8
PLAN_1
  6
CONTINUOUS
 10
-1.188102
 20
1.711264
  0
VERTEX
  8
PLAN_1
  6
CONTINUOUS
 10
-1.188551
 20
1.721130
  0
VERTEX
  8
PLAN_1
  6
CONTINUOUS
 10
-1.189000
 20
1.731445
  0
VERTEX
  8
PLAN_1
  6
CONTINUOUS
 10
-1.190346
 20
1.741311
  0
VERTEX
  8
PLAN_1
  6
CONTINUOUS
 10
-1.192138
 20
1.750728
  0
VERTEX
  8
PLAN_1
  6
CONTINUOUS
 10
-1.194382
 20
1.760142
  0
VERTEX
  8
PLAN_1
  6
CONTINUOUS
 10
-1.197071
 20
1.769559
  0
VERTEX
  8
PLAN_1
  6
CONTINUOUS
 10
-1.200209
 20
1.778976
  0
VERTEX
  8
PLAN_1
  6
CONTINUOUS
 10
-1.203350
 20
1.787945
  0
VERTEX
  8
PLAN_1
  6
CONTINUOUS
 10
-1.207386
 20
1.796465
  0
VERTEX
  8
PLAN_1
  6
CONTINUOUS
 10
-1.211870
 20
1.804984
  0
VERTEX
  8
PLAN_1
  6
CONTINUOUS
 10
-1.216803
 20
1.813055
  0
VERTEX
  8
PLAN_1
  6
CONTINUOUS
 10
-1.221732
 20
1.821130
  0
VERTEX
  8
PLAN_1
  6
CONTINUOUS
 10
-1.227114
 20
1.828752
  0
VERTEX
  8
PLAN_1
  6
CONTINUOUS
 10
-1.232945
 20
1.836374
  0
VERTEX
  8
PLAN_1
  6
CONTINUOUS
 10
-1.239220
 20
1.843547
  0
VERTEX
  8
PLAN_1
  6
CONTINUOUS
 10
-1.245949
 20
1.850276
  0
VERTEX
  8
PLAN_1
  6
CONTINUOUS
 10
-1.252673
 20
1.857000
  0
VERTEX
  8
PLAN_1
  6
CONTINUOUS
 10
-1.259850
 20
1.862831
  0
VERTEX
  8
PLAN_1
  6
CONTINUOUS
 10
-1.267024
 20
1.868661
  0
VERTEX
  8
PLAN_1
  6
CONTINUOUS
 10
-1.274646
 20
1.874488
  0
VERTEX
  8
PLAN_1
  6
CONTINUOUS
 10
-1.282720
 20
1.879421
  0
VERTEX
  8
PLAN_1
  6
CONTINUOUS
 10
-1.291240
 20
1.884354
  0
VERTEX
  8
PLAN_1
  6
CONTINUOUS
 10
-1.299760
 20
1.888390
  0
VERTEX
  8
PLAN_1
  6
CONTINUOUS
 10
-1.308280
 20
1.892425
  0
VERTEX
  8
PLAN_1
  6
CONTINUOUS
 10
-1.317248
 20
1.896016
  0
VERTEX
  8
PLAN_1
  6
CONTINUOUS
 10
-1.326217
 20
1.899154
  0
VERTEX
  8
PLAN_1
  6
CONTINUOUS
 10
-1.335634
 20
1.901843
  0
VERTEX
  8
PLAN_1
  6
CONTINUOUS
 10
-1.345047
 20
1.904087
  0
VERTEX
  8
PLAN_1
  6
CONTINUOUS
 10
-1.354913
 20
1.905878
  0
VERTEX
  8
PLAN_1
  6
CONTINUOUS
 10
-1.364780
 20
1.906776
  0
VERTEX
  8
PLAN_1
  6
CONTINUOUS
 10
-1.374646
 20
1.907673
  0
VERTEX
  8
PLAN_1
  6
CONTINUOUS
 10
-1.384957
 20
1.908122
  0
VERTEX
  8
PLAN_1
  6
CONTINUOUS
 10
-1.394823
 20
1.907673
  0
VERTEX
  8
PLAN_1
  6
CONTINUOUS
 10
-1.405138
 20
1.906776
  0
VERTEX
  8
PLAN_1
  6
CONTINUOUS
 10
-1.415004
 20
1.905878
  0
VERTEX
  8
PLAN_1
  6
CONTINUOUS
 10
-1.424417
 20
1.904087
  0
VERTEX
  8
PLAN_1
  6
CONTINUOUS
 10
-1.434283
 20
1.901843
  0
VERTEX
  8
PLAN_1
  6
CONTINUOUS
 10
-1.443252
 20
1.899154
  0
VERTEX
  8
PLAN_1
  6
CONTINUOUS
 10
-1.452669
 20
1.896016
  0
VERTEX
  8
PLAN_1
  6
CONTINUOUS
 10
-1.461638
 20
1.892425
  0
VERTEX
  8
PLAN_1
  6
CONTINUOUS
 10
-1.470157
 20
1.888390
  0
VERTEX
  8
PLAN_1
  6
CONTINUOUS
 10
-1.478677
 20
1.884354
  0
VERTEX
  8
PLAN_1
  6
CONTINUOUS
 10
-1.486748
 20
1.879421
  0
VERTEX
  8
PLAN_1
  6
CONTINUOUS
 10
-1.494819
 20
1.874488
  0
VERTEX
  8
PLAN_1
  6
CONTINUOUS
 10
-1.502445
 20
1.868661
  0
VERTEX
  8
PLAN_1
  6
CONTINUOUS
 10
-1.510067
 20
1.862831
  0
VERTEX
  8
PLAN_1
  6
CONTINUOUS
 10
-1.517240
 20
1.857000
  0
VERTEX
  8
PLAN_1
  6
CONTINUOUS
 10
-1.523969
 20
1.850276
  0
VERTEX
  8
PLAN_1
  6
CONTINUOUS
 10
-1.530693
 20
1.843547
  0
VERTEX
  8
PLAN_1
  6
CONTINUOUS
 10
-1.536524
 20
1.836374
  0
VERTEX
  8
PLAN_1
  6
CONTINUOUS
 10
-1.542803
 20
1.828752
  0
VERTEX
  8
PLAN_1
  6
CONTINUOUS
 10
-1.548181
 20
1.821130
  0
VERTEX
  8
PLAN_1
  6
CONTINUOUS
 10
-1.553114
 20
1.813055
  0
VERTEX
  8
PLAN_1
  6
CONTINUOUS
 10
-1.558047
 20
1.804984
  0
VERTEX
  8
PLAN_1
  6
CONTINUOUS
 10
-1.562083
 20
1.796465
  0
VERTEX
  8
PLAN_1
  6
CONTINUOUS
 10
-1.566118
 20
1.787945
  0
VERTEX
  8
PLAN_1
  6
CONTINUOUS
 10
-1.569705
 20
1.778976
  0
VERTEX
  8
PLAN_1
  6
CONTINUOUS
 10
-1.572846
 20
1.769559
  0
VERTEX
  8
PLAN_1
  6
CONTINUOUS
 10
-1.575535
 20
1.760142
  0
VERTEX
  8
PLAN_1
  6
CONTINUOUS
 10
-1.577780
 20
1.750728
  0
VERTEX
  8
PLAN_1
  6
CONTINUOUS
 10
-1.579571
 20
1.741311
  0
VERTEX
  8
PLAN_1
  6
CONTINUOUS
 10
-1.580469
 20
1.731445
  0
VERTEX
  8
PLAN_1
  6
CONTINUOUS
 10
-1.581366
 20
1.721130
  0
VERTEX
  8
PLAN_1
  6
CONTINUOUS
 10
-1.581815
 20
1.711264
  0
VERTEX
  8
PLAN_1
  6
CONTINUOUS
 10
-1.581366
 20
1.700953
  0
VERTEX
  8
PLAN_1
  6
CONTINUOUS
 10
-1.580469
 20
1.691087
  0
VERTEX
  8
PLAN_1
  6
CONTINUOUS
 10
-1.579571
 20
1.681220
  0
VERTEX
  8
PLAN_1
  6
CONTINUOUS
 10
-1.577780
 20
1.671358
  0
VERTEX
  8
PLAN_1
  6
CONTINUOUS
 10
-1.575535
 20
1.661941
  0
VERTEX
  8
PLAN_1
  6
CONTINUOUS
 10
-1.572846
 20
1.652524
  0
VERTEX
  8
PLAN_1
  6
CONTINUOUS
 10
-1.569705
 20
1.643555
  0
VERTEX
  8
PLAN_1
  6
CONTINUOUS
 10
-1.566118
 20
1.634587
  0
VERTEX
  8
PLAN_1
  6
CONTINUOUS
 10
-1.562083
 20
1.626067
  0
VERTEX
  8
PLAN_1
  6
CONTINUOUS
 10
-1.558047
 20
1.617547
  0
VERTEX
  8
PLAN_1
  6
CONTINUOUS
 10
-1.553114
 20
1.609028
  0
VERTEX
  8
PLAN_1
  6
CONTINUOUS
 10
-1.548181
 20
1.600953
  0
VERTEX
  8
PLAN_1
  6
CONTINUOUS
 10
-1.542803
 20
1.593331
  0
VERTEX
  8
PLAN_1
  6
CONTINUOUS
 10
-1.536524
 20
1.586157
  0
VERTEX
  8
PLAN_1
  6
CONTINUOUS
 10
-1.530693
 20
1.578980
  0
VERTEX
  8
PLAN_1
  6
CONTINUOUS
 10
-1.523969
 20
1.571807
  0
VERTEX
  8
PLAN_1
  6
CONTINUOUS
 10
-1.517240
 20
1.565531
  0
VERTEX
  8
PLAN_1
  6
CONTINUOUS
 10
-1.510067
 20
1.559252
  0
VERTEX
  8
PLAN_1
  6
CONTINUOUS
 10
-1.502445
 20
1.553421
  0
VERTEX
  8
PLAN_1
  6
CONTINUOUS
 10
-1.494819
 20
1.548043
  0
VERTEX
  8
PLAN_1
  6
CONTINUOUS
 10
-1.486748
 20
1.542661
  0
VERTEX
  8
PLAN_1
  6
CONTINUOUS
 10
-1.478677
 20
1.538177
  0
VERTEX
  8
PLAN_1
  6
CONTINUOUS
 10
-1.470157
 20
1.533693
  0
VERTEX
  8
PLAN_1
  6
CONTINUOUS
 10
-1.461638
 20
1.529657
  0
VERTEX
  8
PLAN_1
  6
CONTINUOUS
 10
-1.452669
 20
1.526516
  0
VERTEX
  8
PLAN_1
  6
CONTINUOUS
 10
-1.443252
 20
1.523378
  0
VERTEX
  8
PLAN_1
  6
CONTINUOUS
 10
-1.434283
 20
1.520689
  0
VERTEX
  8
PLAN_1
  6
CONTINUOUS
 10
-1.424417
 20
1.518445
  0
VERTEX
  8
PLAN_1
  6
CONTINUOUS
 10
-1.415004
 20
1.516654
  0
VERTEX
  8
PLAN_1
  6
CONTINUOUS
 10
-1.405138
 20
1.515307
  0
VERTEX
  8
PLAN_1
  6
CONTINUOUS
 10
-1.394823
 20
1.514858
  0
VERTEX
  8
PLAN_1
  6
CONTINUOUS
 10
-1.384957
 20
1.514409
  0
SEQEND
  8
0
  0
POLYLINE
  8
PLAN_1
  6
CONTINUOUS
 66
     1
 40
0.008520
 41
0.008520
  0
VERTEX
  8
PLAN_1
  6
CONTINUOUS
 10
-1.583157
 20
2.500480
  0
VERTEX
  8
PLAN_1
  6
CONTINUOUS
 10
-1.583157
 20
2.103185
  0
SEQEND
  8
0
  0
POLYLINE
  8
PLAN_1
  6
CONTINUOUS
 66
     1
 40
0.008520
 41
0.008520
  0
VERTEX
  8
PLAN_1
  6
CONTINUOUS
 10
-1.583157
 20
2.103185
  0
VERTEX
  8
PLAN_1
  6
CONTINUOUS
 10
-1.583606
 20
2.096906
  0
VERTEX
  8
PLAN_1
  6
CONTINUOUS
 10
-1.586299
 20
2.079417
  0
VERTEX
  8
PLAN_1
  6
CONTINUOUS
 10
-1.589886
 20
2.054307
  0
VERTEX
  8
PLAN_1
  6
CONTINUOUS
 10
-1.594819
 20
2.024709
  0
VERTEX
  8
PLAN_1
  6
CONTINUOUS
 10
-1.597508
 20
2.009465
  0
VERTEX
  8
PLAN_1
  6
CONTINUOUS
 10
-1.600646
 20
1.993768
  0
VERTEX
  8
PLAN_1
  6
CONTINUOUS
 10
-1.604236
 20
1.978524
  0
VERTEX
  8
PLAN_1
  6
CONTINUOUS
 10
-1.607374
 20
1.964173
  0
VERTEX
  8
PLAN_1
  6
CONTINUOUS
 10
-1.610961
 20
1.951169
  0
VERTEX
  8
PLAN_1
  6
CONTINUOUS
 10
-1.614996
 20
1.939512
  0
VERTEX
  8
PLAN_1
  6
CONTINUOUS
 10
-1.616791
 20
1.934579
  0
VERTEX
  8
PLAN_1
  6
CONTINUOUS
 10
-1.619031
 20
1.930094
  0
VERTEX
  8
PLAN_1
  6
CONTINUOUS
 10
-1.620827
 20
1.926059
  0
VERTEX
  8
PLAN_1
  6
CONTINUOUS
 10
-1.623067
 20
1.922917
  0
VERTEX
  8
PLAN_1
  6
CONTINUOUS
 10
-1.632035
 20
1.909913
  0
VERTEX
  8
PLAN_1
  6
CONTINUOUS
 10
-1.642799
 20
1.893772
  0
VERTEX
  8
PLAN_1
  6
CONTINUOUS
 10
-1.648630
 20
1.885252
  0
VERTEX
  8
PLAN_1
  6
CONTINUOUS
 10
-1.654457
 20
1.875386
  0
VERTEX
  8
PLAN_1
  6
CONTINUOUS
 10
-1.660287
 20
1.865520
  0
VERTEX
  8
PLAN_1
  6
CONTINUOUS
 10
-1.666118
 20
1.854311
  0
VERTEX
  8
PLAN_1
  6
CONTINUOUS
 10
-1.671945
 20
1.843102
  0
VERTEX
  8
PLAN_1
  6
CONTINUOUS
 10
-1.677327
 20
1.830992
  0
VERTEX
  8
PLAN_1
  6
CONTINUOUS
 10
-1.682260
 20
1.818437
  0
VERTEX
  8
PLAN_1
  6
CONTINUOUS
 10
-1.687193
 20
1.805433
  0
VERTEX
  8
PLAN_1
  6
CONTINUOUS
 10
-1.691228
 20
1.791531
  0
VERTEX
  8
PLAN_1
  6
CONTINUOUS
 10
-1.694815
 20
1.777185
  0
VERTEX
  8
PLAN_1
  6
CONTINUOUS
 10
-1.696161
 20
1.770008
  0
VERTEX
  8
PLAN_1
  6
CONTINUOUS
 10
-1.697504
 20
1.762386
  0
VERTEX
  8
PLAN_1
  6
CONTINUOUS
 10
-1.698402
 20
1.754764
  0
VERTEX
  8
PLAN_1
  6
CONTINUOUS
 10
-1.699299
 20
1.747138
  0
SEQEND
  8
0
  0
POLYLINE
  8
PLAN_1
  6
CONTINUOUS
 66
     1
 40
0.008520
 41
0.008520
  0
VERTEX
  8
PLAN_1
  6
CONTINUOUS
 10
-1.699299
 20
1.747138
  0
VERTEX
  8
PLAN_1
  6
CONTINUOUS
 10
-1.584953
 20
1.747138
  0
VERTEX
  8
PLAN_1
  6
CONTINUOUS
 10
-1.584953
 20
1.668217
  0
VERTEX
  8
PLAN_1
  6
CONTINUOUS
 10
-1.697953
 20
1.665079
  0
SEQEND
  8
0
  0
POLYLINE
  8
PLAN_1
  6
CONTINUOUS
 66
     1
 40
0.008520
 41
0.008520
  0
VERTEX
  8
PLAN_1
  6
CONTINUOUS
 10
-1.697953
 20
1.665079
  0
VERTEX
  8
PLAN_1
  6
CONTINUOUS
 10
-1.696161
 20
1.652075
  0
VERTEX
  8
PLAN_1
  6
CONTINUOUS
 10
-1.693917
 20
1.639071
  0
VERTEX
  8
PLAN_1
  6
CONTINUOUS
 10
-1.690780
 20
1.626067
  0
VERTEX
  8
PLAN_1
  6
CONTINUOUS
 10
-1.687193
 20
1.613512
  0
VERTEX
  8
PLAN_1
  6
CONTINUOUS
 10
-1.683606
 20
1.600953
  0
VERTEX
  8
PLAN_1
  6
CONTINUOUS
 10
-1.679122
 20
1.588398
  0
VERTEX
  8
PLAN_1
  6
CONTINUOUS
 10
-1.674189
 20
1.576740
  0
VERTEX
  8
PLAN_1
  6
CONTINUOUS
 10
-1.668807
 20
1.564634
  0
VERTEX
  8
PLAN_1
  6
CONTINUOUS
 10
-1.662976
 20
1.553421
  0
VERTEX
  8
PLAN_1
  6
CONTINUOUS
 10
-1.656701
 20
1.542213
  0
VERTEX
  8
PLAN_1
  6
CONTINUOUS
 10
-1.650421
 20
1.531000
  0
VERTEX
  8
PLAN_1
  6
CONTINUOUS
 10
-1.643248
 20
1.520689
  0
VERTEX
  8
PLAN_1
  6
CONTINUOUS
 10
-1.635626
 20
1.510374
  0
VERTEX
  8
PLAN_1
  6
CONTINUOUS
 10
-1.628000
 20
1.500059
  0
VERTEX
  8
PLAN_1
  6
CONTINUOUS
 10
-1.619480
 20
1.490646
  0
VERTEX
  8
PLAN_1
  6
CONTINUOUS
 10
-1.610961
 20
1.481228
  0
VERTEX
  8
PLAN_1
  6
CONTINUOUS
 10
-1.601992
 20
1.472260
  0
VERTEX
  8
PLAN_1
  6
CONTINUOUS
 10
-1.592575
 20
1.463740
  0
VERTEX
  8
PLAN_1
  6
CONTINUOUS
 10
-1.582713
 20
1.455665
  0
VERTEX
  8
PLAN_1
  6
CONTINUOUS
 10
-1.572846
 20
1.448043
  0
VERTEX
  8
PLAN_1
  6
CONTINUOUS
 10
-1.562531
 20
1.440421
  0
VERTEX
  8
PLAN_1
  6
CONTINUOUS
 10
-1.551772
 20
1.433693
  0
VERTEX
  8
PLAN_1
  6
CONTINUOUS
 10
-1.541008
 20
1.426969
  0
VERTEX
  8
PLAN_1
  6
CONTINUOUS
 10
-1.529799
 20
1.421138
  0
VERTEX
  8
PLAN_1
  6
CONTINUOUS
 10
-1.518138
 20
1.415760
  0
VERTEX
  8
PLAN_1
  6
CONTINUOUS
 10
-1.506031
 20
1.410378
  0
VERTEX
  8
PLAN_1
  6
CONTINUOUS
 10
-1.494374
 20
1.405894
  0
VERTEX
  8
PLAN_1
  6
CONTINUOUS
 10
-1.481815
 20
1.401858
  0
VERTEX
  8
PLAN_1
  6
CONTINUOUS
 10
-1.469260
 20
1.398268
  0
VERTEX
  8
PLAN_1
  6
CONTINUOUS
 10
-1.456256
 20
1.395130
  0
VERTEX
  8
PLAN_1
  6
CONTINUOUS
 10
-1.443252
 20
1.392441
  0
VERTEX
  8
PLAN_1
  6
CONTINUOUS
 10
-1.430248
 20
1.390646
  0
SEQEND
  8
0
  0
POLYLINE
  8
PLAN_1
  6
CONTINUOUS
 66
     1
 40
0.008520
 41
0.008520
  0
VERTEX
  8
PLAN_1
  6
CONTINUOUS
 10
-1.430248
 20
1.390646
  0
VERTEX
  8
PLAN_1
  6
CONTINUOUS
 10
-1.429799
 20
1.508579
  0
VERTEX
  8
PLAN_1
  6
CONTINUOUS
 10
-1.346843
 20
1.508579
  0
VERTEX
  8
PLAN_1
  6
CONTINUOUS
 10
-1.346843
 20
1.394681
  0
SEQEND
  8
0
  0
POLYLINE
  8
PLAN_1
  6
CONTINUOUS
 66
     1
 40
0.008520
 41
0.008520
  0
VERTEX
  8
PLAN_1
  6
CONTINUOUS
 10
-1.346843
 20
1.394681
  0
VERTEX
  8
PLAN_1
  6
CONTINUOUS
 10
-1.333839
 20
1.396476
  0
VERTEX
  8
PLAN_1
  6
CONTINUOUS
 10
-1.320835
 20
1.399165
  0
VERTEX
  8
PLAN_1
  6
CONTINUOUS
 10
-1.308280
 20
1.401858
  0
VERTEX
  8
PLAN_1
  6
CONTINUOUS
 10
-1.295724
 20
1.405445
  0
VERTEX
  8
PLAN_1
  6
CONTINUOUS
 10
-1.283165
 20
1.409480
  0
VERTEX
  8
PLAN_1
  6
CONTINUOUS
 10
-1.271059
 20
1.413965
  0
VERTEX
  8
PLAN_1
  6
CONTINUOUS
 10
-1.259402
 20
1.418449
  0
VERTEX
  8
PLAN_1
  6
CONTINUOUS
 10
-1.247744
 20
1.423831
  0
VERTEX
  8
PLAN_1
  6
CONTINUOUS
 10
-1.236531
 20
1.429657
  0
VERTEX
  8
PLAN_1
  6
CONTINUOUS
 10
-1.225323
 20
1.435937
  0
VERTEX
  8
PLAN_1
  6
CONTINUOUS
 10
-1.214559
 20
1.442661
  0
VERTEX
  8
PLAN_1
  6
CONTINUOUS
 10
-1.203795
 20
1.449839
  0
VERTEX
  8
PLAN_1
  6
CONTINUOUS
 10
-1.193933
 20
1.457461
  0
VERTEX
  8
PLAN_1
  6
CONTINUOUS
 10
-1.184067
 20
1.465531
  0
VERTEX
  8
PLAN_1
  6
CONTINUOUS
 10
-1.174201
 20
1.473602
  0
VERTEX
  8
PLAN_1
  6
CONTINUOUS
 10
-1.165232
 20
1.482122
  0
VERTEX
  8
PLAN_1
  6
CONTINUOUS
 10
-1.156264
 20
1.491091
  0
VERTEX
  8
PLAN_1
  6
CONTINUOUS
 10
-1.147744
 20
1.500508
  0
VERTEX
  8
PLAN_1
  6
CONTINUOUS
 10
-1.139673
 20
1.510374
  0
VERTEX
  8
PLAN_1
  6
CONTINUOUS
 10
-1.132051
 20
1.520240
  0
VERTEX
  8
PLAN_1
  6
CONTINUOUS
 10
-1.124874
 20
1.530551
  0
VERTEX
  8
PLAN_1
  6
CONTINUOUS
 10
-1.117701
 20
1.541315
  0
VERTEX
  8
PLAN_1
  6
CONTINUOUS
 10
-1.111421
 20
1.552079
  0
VERTEX
  8
PLAN_1
  6
CONTINUOUS
 10
-1.105146
 20
1.563287
  0
VERTEX
  8
PLAN_1
  6
CONTINUOUS
 10
-1.099764
 20
1.574945
  0
VERTEX
  8
PLAN_1
  6
CONTINUOUS
 10
-1.094382
 20
1.586606
  0
VERTEX
  8
PLAN_1
  6
CONTINUOUS
 10
-1.089898
 20
1.598713
  0
VERTEX
  8
PLAN_1
  6
CONTINUOUS
 10
-1.085862
 20
1.610819
  0
VERTEX
  8
PLAN_1
  6
CONTINUOUS
 10
-1.081827
 20
1.623374
  0
VERTEX
  8
PLAN_1
  6
CONTINUOUS
 10
-1.078689
 20
1.635933
  0
VERTEX
  8
PLAN_1
  6
CONTINUOUS
 10
-1.075996
 20
1.648937
  0
VERTEX
  8
PLAN_1
  6
CONTINUOUS
 10
-1.073756
 20
1.661941
  0
SEQEND
  8
0
  0
POLYLINE
  8
PLAN_1
  6
CONTINUOUS
 66
     1
 40
0.008520
 41
0.008520
  0
VERTEX
  8
PLAN_1
  6
CONTINUOUS
 10
-1.073756
 20
1.661941
  0
VERTEX
  8
PLAN_1
  6
CONTINUOUS
 10
-1.187205
 20
1.661492
  0
VERTEX
  8
PLAN_1
  6
CONTINUOUS
 10
-1.187205
 20
1.739965
  0
VERTEX
  8
PLAN_1
  6
CONTINUOUS
 10
-1.072858
 20
1.739965
  0
SEQEND
  8
0
  0
POLYLINE
  8
PLAN_1
  6
CONTINUOUS
 66
     1
 40
0.008520
 41
0.008520
  0
VERTEX
  8
PLAN_1
  6
CONTINUOUS
 10
-1.072858
 20
1.739965
  0
VERTEX
  8
PLAN_1
  6
CONTINUOUS
 10
-1.074654
 20
1.755657
  0
VERTEX
  8
PLAN_1
  6
CONTINUOUS
 10
-1.077343
 20
1.770457
  0
VERTEX
  8
PLAN_1
  6
CONTINUOUS
 10
-1.080929
 20
1.784807
  0
VERTEX
  8
PLAN_1
  6
CONTINUOUS
 10
-1.084965
 20
1.798260
  0
VERTEX
  8
PLAN_1
  6
CONTINUOUS
 10
-1.089449
 20
1.811713
  0
VERTEX
  8
PLAN_1
  6
CONTINUOUS
 10
-1.094831
 20
1.824268
  0
VERTEX
  8
PLAN_1
  6
CONTINUOUS
 10
-1.100213
 20
1.835925
  0
VERTEX
  8
PLAN_1
  6
CONTINUOUS
 10
-1.105594
 20
1.847587
  0
VERTEX
  8
PLAN_1
  6
CONTINUOUS
 10
-1.111421
 20
1.858346
  0
VERTEX
  8
PLAN_1
  6
CONTINUOUS
 10
-1.117252
 20
1.868661
  0
VERTEX
  8
PLAN_1
  6
CONTINUOUS
 10
-1.123531
 20
1.878079
  0
VERTEX
  8
PLAN_1
  6
CONTINUOUS
 10
-1.128909
 20
1.887047
  0
VERTEX
  8
PLAN_1
  6
CONTINUOUS
 10
-1.140122
 20
1.902740
  0
VERTEX
  8
PLAN_1
  6
CONTINUOUS
 10
-1.149091
 20
1.915744
  0
VERTEX
  8
PLAN_1
  6
CONTINUOUS
 10
-1.151331
 20
1.919331
  0
VERTEX
  8
PLAN_1
  6
CONTINUOUS
 10
-1.153126
 20
1.923366
  0
VERTEX
  8
PLAN_1
  6
CONTINUOUS
 10
-1.154921
 20
1.927850
  0
VERTEX
  8
PLAN_1
  6
CONTINUOUS
 10
-1.157161
 20
1.932783
  0
VERTEX
  8
PLAN_1
  6
CONTINUOUS
 10
-1.160748
 20
1.944890
  0
VERTEX
  8
PLAN_1
  6
CONTINUOUS
 10
-1.164335
 20
1.958343
  0
VERTEX
  8
PLAN_1
  6
CONTINUOUS
 10
-1.167925
 20
1.973142
  0
VERTEX
  8
PLAN_1
  6
CONTINUOUS
 10
-1.171063
 20
1.988839
  0
VERTEX
  8
PLAN_1
  6
CONTINUOUS
 10
-1.174201
 20
2.004980
  0
VERTEX
  8
PLAN_1
  6
CONTINUOUS
 10
-1.176894
 20
2.021122
  0
VERTEX
  8
PLAN_1
  6
CONTINUOUS
 10
-1.181378
 20
2.051614
  0
VERTEX
  8
PLAN_1
  6
CONTINUOUS
 10
-1.184965
 20
2.077622
  0
VERTEX
  8
PLAN_1
  6
CONTINUOUS
 10
-1.187205
 20
2.095559
  0
VERTEX
  8
PLAN_1
  6
CONTINUOUS
 10
-1.188102
 20
2.102736
  0
VERTEX
  8
PLAN_1
  6
CONTINUOUS
 10
-1.188102
 20
2.111705
  0
VERTEX
  8
PLAN_1
  6
CONTINUOUS
 10
-1.188102
 20
2.136815
  0
VERTEX
  8
PLAN_1
  6
CONTINUOUS
 10
-1.188102
 20
2.176276
  0
VERTEX
  8
PLAN_1
  6
CONTINUOUS
 10
-1.188102
 20
2.227394
  0
VERTEX
  8
PLAN_1
  6
CONTINUOUS
 10
-1.188102
 20
2.287933
  0
VERTEX
  8
PLAN_1
  6
CONTINUOUS
 10
-1.188102
 20
2.355193
  0
VERTEX
  8
PLAN_1
  6
CONTINUOUS
 10
-1.188102
 20
2.426941
  0
VERTEX
  8
PLAN_1
  6
CONTINUOUS
 10
-1.188102
 20
2.500929
  0
SEQEND
  8
0
  0
POLYLINE
  8
PLAN_1
  6
CONTINUOUS
 66
     1
 40
0.008520
 41
0.008520
  0
VERTEX
  8
PLAN_1
  6
CONTINUOUS
 10
-1.583157
 20
2.500480
  0
VERTEX
  8
PLAN_1
  6
CONTINUOUS
 10
-1.571949
 20
2.495102
  0
VERTEX
  8
PLAN_1
  6
CONTINUOUS
 10
-1.560291
 20
2.489720
  0
VERTEX
  8
PLAN_1
  6
CONTINUOUS
 10
-1.549079
 20
2.484787
  0
VERTEX
  8
PLAN_1
  6
CONTINUOUS
 10
-1.537421
 20
2.480303
  0
VERTEX
  8
PLAN_1
  6
CONTINUOUS
 10
-1.525315
 20
2.476268
  0
VERTEX
  8
PLAN_1
  6
CONTINUOUS
 10
-1.513205
 20
2.472232
  0
VERTEX
  8
PLAN_1
  6
CONTINUOUS
 10
-1.501098
 20
2.468646
  0
VERTEX
  8
PLAN_1
  6
CONTINUOUS
 10
-1.488992
 20
2.465504
  0
VERTEX
  8
PLAN_1
  6
CONTINUOUS
 10
-1.476437
 20
2.462815
  0
VERTEX
  8
PLAN_1
  6
CONTINUOUS
 10
-1.463878
 20
2.460126
  0
VERTEX
  8
PLAN_1
  6
CONTINUOUS
 10
-1.451323
 20
2.457882
  0
VERTEX
  8
PLAN_1
  6
CONTINUOUS
 10
-1.438319
 20
2.456535
  0
VERTEX
  8
PLAN_1
  6
CONTINUOUS
 10
-1.425315
 20
2.454744
  0
VERTEX
  8
PLAN_1
  6
CONTINUOUS
 10
-1.412311
 20
2.453846
  0
VERTEX
  8
PLAN_1
  6
CONTINUOUS
 10
-1.399307
 20
2.453398
  0
VERTEX
  8
PLAN_1
  6
CONTINUOUS
 10
-1.385854
 20
2.453398
  0
VERTEX
  8
PLAN_1
  6
CONTINUOUS
 10
-1.372850
 20
2.453398
  0
VERTEX
  8
PLAN_1
  6
CONTINUOUS
 10
-1.359398
 20
2.453846
  0
VERTEX
  8
PLAN_1
  6
CONTINUOUS
 10
-1.346394
 20
2.455193
  0
VERTEX
  8
PLAN_1
  6
CONTINUOUS
 10
-1.333390
 20
2.456535
  0
VERTEX
  8
PLAN_1
  6
CONTINUOUS
 10
-1.320386
 20
2.458331
  0
VERTEX
  8
PLAN_1
  6
CONTINUOUS
 10
-1.307831
 20
2.460126
  0
VERTEX
  8
PLAN_1
  6
CONTINUOUS
 10
-1.295276
 20
2.462815
  0
VERTEX
  8
PLAN_1
  6
CONTINUOUS
 10
-1.282720
 20
2.465504
  0
VERTEX
  8
PLAN_1
  6
CONTINUOUS
 10
-1.270161
 20
2.469094
  0
VERTEX
  8
PLAN_1
  6
CONTINUOUS
 10
-1.258055
 20
2.472681
  0
VERTEX
  8
PLAN_1
  6
CONTINUOUS
 10
-1.245949
 20
2.476268
  0
VERTEX
  8
PLAN_1
  6
CONTINUOUS
 10
-1.234291
 20
2.480752
  0
VERTEX
  8
PLAN_1
  6
CONTINUOUS
 10
-1.222630
 20
2.485236
  0
VERTEX
  8
PLAN_1
  6
CONTINUOUS
 10
-1.210972
 20
2.490169
  0
VERTEX
  8
PLAN_1
  6
CONTINUOUS
 10
-1.199315
 20
2.495551
  0
VERTEX
  8
PLAN_1
  6
CONTINUOUS
 10
-1.188102
 20
2.500929
  0
SEQEND
  8
0
  0
POLYLINE
  8
PLAN_1
  6
CONTINUOUS
 66
     1
 40
0.008520
 41
0.008520
  0
VERTEX
  8
PLAN_1
  6
CONTINUOUS
 10
-1.188102
 20
2.500929
  0
VERTEX
  8
PLAN_1
  6
CONTINUOUS
 10
-1.175098
 20
2.508106
  0
VERTEX
  8
PLAN_1
  6
CONTINUOUS
 10
-1.162543
 20
2.515280
  0
VERTEX
  8
PLAN_1
  6
CONTINUOUS
 10
-1.150437
 20
2.522902
  0
VERTEX
  8
PLAN_1
  6
CONTINUOUS
 10
-1.137878
 20
2.531421
  0
VERTEX
  8
PLAN_1
  6
CONTINUOUS
 10
-1.126220
 20
2.539945
  0
VERTEX
  8
PLAN_1
  6
CONTINUOUS
 10
-1.114563
 20
2.548909
  0
VERTEX
  8
PLAN_1
  6
CONTINUOUS
 10
-1.103350
 20
2.558327
  0
VERTEX
  8
PLAN_1
  6
CONTINUOUS
 10
-1.092591
 20
2.567744
  0
VERTEX
  8
PLAN_1
  6
CONTINUOUS
 10
-1.082276
 20
2.578059
  0
VERTEX
  8
PLAN_1
  6
CONTINUOUS
 10
-1.071961
 20
2.588374
  0
VERTEX
  8
PLAN_1
  6
CONTINUOUS
 10
-1.062098
 20
2.599134
  0
VERTEX
  8
PLAN_1
  6
CONTINUOUS
 10
-1.052681
 20
2.610346
  0
VERTEX
  8
PLAN_1
  6
CONTINUOUS
 10
-1.043264
 20
2.621555
  0
VERTEX
  8
PLAN_1
  6
CONTINUOUS
 10
-1.034744
 20
2.633213
  0
VERTEX
  8
PLAN_1
  6
CONTINUOUS
 10
-1.026224
 20
2.645323
  0
VERTEX
  8
PLAN_1
  6
CONTINUOUS
 10
-1.018154
 20
2.657429
  0
VERTEX
  8
PLAN_1
  6
CONTINUOUS
 10
-1.010976
 20
2.669984
  0
VERTEX
  8
PLAN_1
  6
CONTINUOUS
 10
-1.003803
 20
2.682988
  0
VERTEX
  8
PLAN_1
  6
CONTINUOUS
 10
-0.997075
 20
2.695992
  0
VERTEX
  8
PLAN_1
  6
CONTINUOUS
 10
-0.990799
 20
2.709445
  0
VERTEX
  8
PLAN_1
  6
CONTINUOUS
 10
-0.984969
 20
2.722898
  0
VERTEX
  8
PLAN_1
  6
CONTINUOUS
 10
-0.979587
 20
2.736799
  0
VERTEX
  8
PLAN_1
  6
CONTINUOUS
 10
-0.974654
 20
2.751150
  0
VERTEX
  8
PLAN_1
  6
CONTINUOUS
 10
-0.970169
 20
2.765047
  0
VERTEX
  8
PLAN_1
  6
CONTINUOUS
 10
-0.966134
 20
2.779846
  0
VERTEX
  8
PLAN_1
  6
CONTINUOUS
 10
-0.962996
 20
2.794197
  0
VERTEX
  8
PLAN_1
  6
CONTINUOUS
 10
-0.959858
 20
2.809441
  0
VERTEX
  8
PLAN_1
  6
CONTINUOUS
 10
-0.957614
 20
2.824240
  0
VERTEX
  8
PLAN_1
  6
CONTINUOUS
 10
-0.955374
 20
2.839488
  0
VERTEX
  8
PLAN_1
  6
CONTINUOUS
 10
-0.954028
 20
2.854732
  0
VERTEX
  8
PLAN_1
  6
CONTINUOUS
 10
-0.953579
 20
2.870429
  0
VERTEX
  8
PLAN_1
  6
CONTINUOUS
 10
-0.953130
 20
2.886122
  0
VERTEX
  8
PLAN_1
  6
CONTINUOUS
 10
-0.953579
 20
2.908543
  0
VERTEX
  8
PLAN_1
  6
CONTINUOUS
 10
-0.955374
 20
2.930516
  0
VERTEX
  8
PLAN_1
  6
CONTINUOUS
 10
-0.958063
 20
2.952039
  0
VERTEX
  8
PLAN_1
  6
CONTINUOUS
 10
-0.962098
 20
2.973114
  0
VERTEX
  8
PLAN_1
  6
CONTINUOUS
 10
-0.966583
 20
2.994189
  0
VERTEX
  8
PLAN_1
  6
CONTINUOUS
 10
-0.972413
 20
3.014819
  0
VERTEX
  8
PLAN_1
  6
CONTINUOUS
 10
-0.979138
 20
3.034996
  0
VERTEX
  8
PLAN_1
  6
CONTINUOUS
 10
-0.987213
 20
3.054728
  0
VERTEX
  8
PLAN_1
  6
CONTINUOUS
 10
-0.995732
 20
3.073559
  0
VERTEX
  8
PLAN_1
  6
CONTINUOUS
 10
-1.005150
 20
3.092394
  0
VERTEX
  8
PLAN_1
  6
CONTINUOUS
 10
-1.015909
 20
3.110780
  0
VERTEX
  8
PLAN_1
  6
CONTINUOUS
 10
-1.027122
 20
3.128268
  0
VERTEX
  8
PLAN_1
  6
CONTINUOUS
 10
-1.039228
 20
3.145307
  0
VERTEX
  8
PLAN_1
  6
CONTINUOUS
 10
-1.051783
 20
3.161453
  0
VERTEX
  8
PLAN_1
  6
CONTINUOUS
 10
-1.065685
 20
3.177146
  0
VERTEX
  8
PLAN_1
  6
CONTINUOUS
 10
-1.080035
 20
3.192394
  0
VERTEX
  8
PLAN_1
  6
CONTINUOUS
 10
-1.094831
 20
3.206740
  0
VERTEX
  8
PLAN_1
  6
CONTINUOUS
 10
-1.110528
 20
3.220193
  0
VERTEX
  8
PLAN_1
  6
CONTINUOUS
 10
-1.127118
 20
3.233197
  0
VERTEX
  8
PLAN_1
  6
CONTINUOUS
 10
-1.144157
 20
3.244858
  0
VERTEX
  8
PLAN_1
  6
CONTINUOUS
 10
-1.161646
 20
3.256516
  0
VERTEX
  8
PLAN_1
  6
CONTINUOUS
 10
-1.179583
 20
3.266831
  0
VERTEX
  8
PLAN_1
  6
CONTINUOUS
 10
-1.198417
 20
3.276244
  0
VERTEX
  8
PLAN_1
  6
CONTINUOUS
 10
-1.217697
 20
3.284768
  0
VERTEX
  8
PLAN_1
  6
CONTINUOUS
 10
-1.236980
 20
3.292839
  0
VERTEX
  8
PLAN_1
  6
CONTINUOUS
 10
-1.257157
 20
3.299563
  0
VERTEX
  8
PLAN_1
  6
CONTINUOUS
 10
-1.277787
 20
3.305394
  0
VERTEX
  8
PLAN_1
  6
CONTINUOUS
 10
-1.298862
 20
3.310327
  0
VERTEX
  8
PLAN_1
  6
CONTINUOUS
 10
-1.319937
 20
3.313913
  0
VERTEX
  8
PLAN_1
  6
CONTINUOUS
 10
-1.341909
 20
3.316602
  0
VERTEX
  8
PLAN_1
  6
CONTINUOUS
 10
-1.363882
 20
3.318398
  0
VERTEX
  8
PLAN_1
  6
CONTINUOUS
 10
-1.385854
 20
3.318846
  0
VERTEX
  8
PLAN_1
  6
CONTINUOUS
 10
-1.408276
 20
3.318398
  0
VERTEX
  8
PLAN_1
  6
CONTINUOUS
 10
-1.430248
 20
3.316602
  0
VERTEX
  8
PLAN_1
  6
CONTINUOUS
 10
-1.451772
 20
3.313913
  0
VERTEX
  8
PLAN_1
  6
CONTINUOUS
 10
-1.473295
 20
3.310327
  0
VERTEX
  8
PLAN_1
  6
CONTINUOUS
 10
-1.494374
 20
3.305394
  0
VERTEX
  8
PLAN_1
  6
CONTINUOUS
 10
-1.514551
 20
3.299563
  0
VERTEX
  8
PLAN_1
  6
CONTINUOUS
 10
-1.534728
 20
3.292839
  0
VERTEX
  8
PLAN_1
  6
CONTINUOUS
 10
-1.554461
 20
3.284768
  0
VERTEX
  8
PLAN_1
  6
CONTINUOUS
 10
-1.573744
 20
3.276244
  0
VERTEX
  8
PLAN_1
  6
CONTINUOUS
 10
-1.592575
 20
3.266831
  0
VERTEX
  8
PLAN_1
  6
CONTINUOUS
 10
-1.610512
 20
3.256516
  0
VERTEX
  8
PLAN_1
  6
CONTINUOUS
 10
-1.628000
 20
3.244858
  0
VERTEX
  8
PLAN_1
  6
CONTINUOUS
 10
-1.645039
 20
3.233197
  0
VERTEX
  8
PLAN_1
  6
CONTINUOUS
 10
-1.661185
 20
3.220193
  0
VERTEX
  8
PLAN_1
  6
CONTINUOUS
 10
-1.677327
 20
3.206740
  0
VERTEX
  8
PLAN_1
  6
CONTINUOUS
 10
-1.692126
 20
3.192394
  0
VERTEX
  8
PLAN_1
  6
CONTINUOUS
 10
-1.706472
 20
3.177146
  0
VERTEX
  8
PLAN_1
  6
CONTINUOUS
 10
-1.719925
 20
3.161453
  0
VERTEX
  8
PLAN_1
  6
CONTINUOUS
 10
-1.732929
 20
3.145307
  0
VERTEX
  8
PLAN_1
  6
CONTINUOUS
 10
-1.745039
 20
3.128268
  0
VERTEX
  8
PLAN_1
  6
CONTINUOUS
 10
-1.756248
 20
3.110780
  0
VERTEX
  8
PLAN_1
  6
CONTINUOUS
 10
-1.766563
 20
3.092394
  0
VERTEX
  8
PLAN_1
  6
CONTINUOUS
 10
-1.776429
 20
3.073559
  0
VERTEX
  8
PLAN_1
  6
CONTINUOUS
 10
-1.784949
 20
3.054728
  0
VERTEX
  8
PLAN_1
  6
CONTINUOUS
 10
-1.792571
 20
3.034996
  0
VERTEX
  8
PLAN_1
  6
CONTINUOUS
 10
-1.799295
 20
3.014819
  0
VERTEX
  8
PLAN_1
  6
CONTINUOUS
 10
-1.805126
 20
2.994189
  0
VERTEX
  8
PLAN_1
  6
CONTINUOUS
 10
-1.810059
 20
2.973114
  0
VERTEX
  8
PLAN_1
  6
CONTINUOUS
 10
-1.814094
 20
2.952039
  0
VERTEX
  8
PLAN_1
  6
CONTINUOUS
 10
-1.816783
 20
2.930516
  0
VERTEX
  8
PLAN_1
  6
CONTINUOUS
 10
-1.818579
 20
2.908543
  0
VERTEX
  8
PLAN_1
  6
CONTINUOUS
 10
-1.819028
 20
2.886122
  0
VERTEX
  8
PLAN_1
  6
CONTINUOUS
 10
-1.818579
 20
2.870429
  0
VERTEX
  8
PLAN_1
  6
CONTINUOUS
 10
-1.817681
 20
2.854732
  0
VERTEX
  8
PLAN_1
  6
CONTINUOUS
 10
-1.816339
 20
2.839488
  0
VERTEX
  8
PLAN_1
  6
CONTINUOUS
 10
-1.814543
 20
2.824240
  0
VERTEX
  8
PLAN_1
  6
CONTINUOUS
 10
-1.812299
 20
2.808992
  0
VERTEX
  8
PLAN_1
  6
CONTINUOUS
 10
-1.809161
 20
2.794197
  0
VERTEX
  8
PLAN_1
  6
CONTINUOUS
 10
-1.805575
 20
2.779398
  0
VERTEX
  8
PLAN_1
  6
CONTINUOUS
 10
-1.801988
 20
2.765047
  0
VERTEX
  8
PLAN_1
  6
CONTINUOUS
 10
-1.797504
 20
2.750701
  0
VERTEX
  8
PLAN_1
  6
CONTINUOUS
 10
-1.792571
 20
2.736799
  0
VERTEX
  8
PLAN_1
  6
CONTINUOUS
 10
-1.787189
 20
2.722898
  0
VERTEX
  8
PLAN_1
  6
CONTINUOUS
 10
-1.781358
 20
2.708996
  0
VERTEX
  8
PLAN_1
  6
CONTINUOUS
 10
-1.775083
 20
2.695543
  0
VERTEX
  8
PLAN_1
  6
CONTINUOUS
 10
-1.768354
 20
2.682539
  0
VERTEX
  8
PLAN_1
  6
CONTINUOUS
 10
-1.761181
 20
2.669984
  0
VERTEX
  8
PLAN_1
  6
CONTINUOUS
 10
-1.753559
 20
2.656980
  0
VERTEX
  8
PLAN_1
  6
CONTINUOUS
 10
-1.745488
 20
2.644874
  0
VERTEX
  8
PLAN_1
  6
CONTINUOUS
 10
-1.736969
 20
2.632764
  0
VERTEX
  8
PLAN_1
  6
CONTINUOUS
 10
-1.728445
 20
2.621106
  0
VERTEX
  8
PLAN_1
  6
CONTINUOUS
 10
-1.719031
 20
2.609898
  0
VERTEX
  8
PLAN_1
  6
CONTINUOUS
 10
-1.709614
 20
2.598685
  0
VERTEX
  8
PLAN_1
  6
CONTINUOUS
 10
-1.699748
 20
2.587925
  0
VERTEX
  8
PLAN_1
  6
CONTINUOUS
 10
-1.689433
 20
2.577610
  0
VERTEX
  8
PLAN_1
  6
CONTINUOUS
 10
-1.679122
 20
2.567295
  0
VERTEX
  8
PLAN_1
  6
CONTINUOUS
 10
-1.667909
 20
2.557878
  0
VERTEX
  8
PLAN_1
  6
CONTINUOUS
 10
-1.656701
 20
2.548465
  0
VERTEX
  8
PLAN_1
  6
CONTINUOUS
 10
-1.645039
 20
2.539496
  0
VERTEX
  8
PLAN_1
  6
CONTINUOUS
 10
-1.633382
 20
2.530976
  0
VERTEX
  8
PLAN_1
  6
CONTINUOUS
 10
-1.621276
 20
2.522902
  0
VERTEX
  8
PLAN_1
  6
CONTINUOUS
 10
-1.608720
 20
2.514831
  0
VERTEX
  8
PLAN_1
  6
CONTINUOUS
 10
-1.596161
 20
2.507657
  0
VERTEX
  8
PLAN_1
  6
CONTINUOUS
 10
-1.583157
 20
2.500480
  0
SEQEND
  8
0
  0
POLYLINE
  8
PLAN_1
  6
CONTINUOUS
 66
     1
 40
0.008520
 41
0.008520
  0
VERTEX
  8
PLAN_1
  6
CONTINUOUS
 10
-1.385854
 20
2.649807
  0
VERTEX
  8
PLAN_1
  6
CONTINUOUS
 10
-1.373299
 20
2.649807
  0
VERTEX
  8
PLAN_1
  6
CONTINUOUS
 10
-1.361642
 20
2.650701
  0
VERTEX
  8
PLAN_1
  6
CONTINUOUS
 10
-1.349531
 20
2.652496
  0
VERTEX
  8
PLAN_1
  6
CONTINUOUS
 10
-1.337874
 20
2.654291
  0
VERTEX
  8
PLAN_1
  6
CONTINUOUS
 10
-1.326665
 20
2.656980
  0
VERTEX
  8
PLAN_1
  6
CONTINUOUS
 10
-1.315453
 20
2.660118
  0
VERTEX
  8
PLAN_1
  6
CONTINUOUS
 10
-1.304244
 20
2.663705
  0
VERTEX
  8
PLAN_1
  6
CONTINUOUS
 10
-1.293929
 20
2.668189
  0
VERTEX
  8
PLAN_1
  6
CONTINUOUS
 10
-1.283165
 20
2.672673
  0
VERTEX
  8
PLAN_1
  6
CONTINUOUS
 10
-1.273303
 20
2.678055
  0
VERTEX
  8
PLAN_1
  6
CONTINUOUS
 10
-1.262988
 20
2.683886
  0
VERTEX
  8
PLAN_1
  6
CONTINUOUS
 10
-1.253571
 20
2.689717
  0
VERTEX
  8
PLAN_1
  6
CONTINUOUS
 10
-1.244154
 20
2.696441
  0
VERTEX
  8
PLAN_1
  6
CONTINUOUS
 10
-1.235634
 20
2.703614
  0
VERTEX
  8
PLAN_1
  6
CONTINUOUS
 10
-1.226665
 20
2.710791
  0
VERTEX
  8
PLAN_1
  6
CONTINUOUS
 10
-1.218594
 20
2.718862
  0
VERTEX
  8
PLAN_1
  6
CONTINUOUS
 10
-1.210972
 20
2.726933
  0
VERTEX
  8
PLAN_1
  6
CONTINUOUS
 10
-1.203350
 20
2.735453
  0
VERTEX
  8
PLAN_1
  6
CONTINUOUS
 10
-1.196622
 20
2.744421
  0
VERTEX
  8
PLAN_1
  6
CONTINUOUS
 10
-1.189898
 20
2.753839
  0
VERTEX
  8
PLAN_1
  6
CONTINUOUS
 10
-1.183618
 20
2.763256
  0
VERTEX
  8
PLAN_1
  6
CONTINUOUS
 10
-1.177787
 20
2.773122
  0
VERTEX
  8
PLAN_1
  6
CONTINUOUS
 10
-1.172858
 20
2.783433
  0
VERTEX
  8
PLAN_1
  6
CONTINUOUS
 10
-1.167925
 20
2.793748
  0
VERTEX
  8
PLAN_1
  6
CONTINUOUS
 10
-1.163890
 20
2.804508
  0
VERTEX
  8
PLAN_1
  6
CONTINUOUS
 10
-1.160299
 20
2.815720
  0
VERTEX
  8
PLAN_1
  6
CONTINUOUS
 10
-1.157161
 20
2.826929
  0
VERTEX
  8
PLAN_1
  6
CONTINUOUS
 10
-1.154472
 20
2.838142
  0
VERTEX
  8
PLAN_1
  6
CONTINUOUS
 10
-1.152228
 20
2.849799
  0
VERTEX
  8
PLAN_1
  6
CONTINUOUS
 10
-1.150882
 20
2.861461
  0
VERTEX
  8
PLAN_1
  6
CONTINUOUS
 10
-1.149988
 20
2.873567
  0
VERTEX
  8
PLAN_1
  6
CONTINUOUS
 10
-1.149539
 20
2.885673
  0
VERTEX
  8
PLAN_1
  6
CONTINUOUS
 10
-1.149988
 20
2.897780
  0
VERTEX
  8
PLAN_1
  6
CONTINUOUS
 10
-1.150882
 20
2.909890
  0
VERTEX
  8
PLAN_1
  6
CONTINUOUS
 10
-1.152228
 20
2.921547
  0
VERTEX
  8
PLAN_1
  6
CONTINUOUS
 10
-1.154472
 20
2.933205
  0
VERTEX
  8
PLAN_1
  6
CONTINUOUS
 10
-1.157161
 20
2.944866
  0
VERTEX
  8
PLAN_1
  6
CONTINUOUS
 10
-1.160299
 20
2.956075
  0
VERTEX
  8
PLAN_1
  6
CONTINUOUS
 10
-1.163890
 20
2.966839
  0
VERTEX
  8
PLAN_1
  6
CONTINUOUS
 10
-1.167925
 20
2.977598
  0
VERTEX
  8
PLAN_1
  6
CONTINUOUS
 10
-1.172858
 20
2.987913
  0
VERTEX
  8
PLAN_1
  6
CONTINUOUS
 10
-1.177787
 20
2.998228
  0
VERTEX
  8
PLAN_1
  6
CONTINUOUS
 10
-1.183618
 20
3.008091
  0
VERTEX
  8
PLAN_1
  6
CONTINUOUS
 10
-1.189898
 20
3.017957
  0
VERTEX
  8
PLAN_1
  6
CONTINUOUS
 10
-1.196622
 20
3.026925
  0
VERTEX
  8
PLAN_1
  6
CONTINUOUS
 10
-1.203350
 20
3.035894
  0
VERTEX
  8
PLAN_1
  6
CONTINUOUS
 10
-1.210972
 20
3.044413
  0
VERTEX
  8
PLAN_1
  6
CONTINUOUS
 10
-1.218594
 20
3.052484
  0
VERTEX
  8
PLAN_1
  6
CONTINUOUS
 10
-1.226665
 20
3.060555
  0
VERTEX
  8
PLAN_1
  6
CONTINUOUS
 10
-1.235634
 20
3.067732
  0
VERTEX
  8
PLAN_1
  6
CONTINUOUS
 10
-1.244154
 20
3.074906
  0
VERTEX
  8
PLAN_1
  6
CONTINUOUS
 10
-1.253571
 20
3.081634
  0
VERTEX
  8
PLAN_1
  6
CONTINUOUS
 10
-1.262988
 20
3.087461
  0
VERTEX
  8
PLAN_1
  6
CONTINUOUS
 10
-1.273303
 20
3.093291
  0
VERTEX
  8
PLAN_1
  6
CONTINUOUS
 10
-1.283165
 20
3.098673
  0
VERTEX
  8
PLAN_1
  6
CONTINUOUS
 10
-1.293929
 20
3.103157
  0
VERTEX
  8
PLAN_1
  6
CONTINUOUS
 10
-1.304244
 20
3.107642
  0
VERTEX
  8
PLAN_1
  6
CONTINUOUS
 10
-1.315453
 20
3.111228
  0
VERTEX
  8
PLAN_1
  6
CONTINUOUS
 10
-1.326665
 20
3.114366
  0
VERTEX
  8
PLAN_1
  6
CONTINUOUS
 10
-1.337874
 20
3.117059
  0
VERTEX
  8
PLAN_1
  6
CONTINUOUS
 10
-1.349531
 20
3.119299
  0
VERTEX
  8
PLAN_1
  6
CONTINUOUS
 10
-1.361642
 20
3.120646
  0
VERTEX
  8
PLAN_1
  6
CONTINUOUS
 10
-1.373299
 20
3.121543
  0
VERTEX
  8
PLAN_1
  6
CONTINUOUS
 10
-1.385854
 20
3.121988
  0
VERTEX
  8
PLAN_1
  6
CONTINUOUS
 10
-1.397961
 20
3.121543
  0
VERTEX
  8
PLAN_1
  6
CONTINUOUS
 10
-1.409622
 20
3.120646
  0
VERTEX
  8
PLAN_1
  6
CONTINUOUS
 10
-1.421728
 20
3.119299
  0
VERTEX
  8
PLAN_1
  6
CONTINUOUS
 10
-1.433386
 20
3.117059
  0
VERTEX
  8
PLAN_1
  6
CONTINUOUS
 10
-1.444598
 20
3.114366
  0
VERTEX
  8
PLAN_1
  6
CONTINUOUS
 10
-1.455807
 20
3.111228
  0
VERTEX
  8
PLAN_1
  6
CONTINUOUS
 10
-1.467020
 20
3.107642
  0
VERTEX
  8
PLAN_1
  6
CONTINUOUS
 10
-1.477780
 20
3.103157
  0
VERTEX
  8
PLAN_1
  6
CONTINUOUS
 10
-1.488094
 20
3.098673
  0
VERTEX
  8
PLAN_1
  6
CONTINUOUS
 10
-1.498409
 20
3.093291
  0
VERTEX
  8
PLAN_1
  6
CONTINUOUS
 10
-1.508272
 20
3.087461
  0
VERTEX
  8
PLAN_1
  6
CONTINUOUS
 10
-1.517689
 20
3.081634
  0
VERTEX
  8
PLAN_1
  6
CONTINUOUS
 10
-1.527106
 20
3.074906
  0
VERTEX
  8
PLAN_1
  6
CONTINUOUS
 10
-1.536075
 20
3.067732
  0
VERTEX
  8
PLAN_1
  6
CONTINUOUS
 10
-1.544594
 20
3.060555
  0
VERTEX
  8
PLAN_1
  6
CONTINUOUS
 10
-1.552665
 20
3.052484
  0
VERTEX
  8
PLAN_1
  6
CONTINUOUS
 10
-1.560291
 20
3.044413
  0
VERTEX
  8
PLAN_1
  6
CONTINUOUS
 10
-1.567913
 20
3.035894
  0
VERTEX
  8
PLAN_1
  6
CONTINUOUS
 10
-1.575087
 20
3.026925
  0
VERTEX
  8
PLAN_1
  6
CONTINUOUS
 10
-1.581366
 20
3.017957
  0
VERTEX
  8
PLAN_1
  6
CONTINUOUS
 10
-1.587642
 20
3.008091
  0
VERTEX
  8
PLAN_1
  6
CONTINUOUS
 10
-1.593472
 20
2.998228
  0
VERTEX
  8
PLAN_1
  6
CONTINUOUS
 10
-1.598406
 20
2.987913
  0
VERTEX
  8
PLAN_1
  6
CONTINUOUS
 10
-1.603339
 20
2.977598
  0
VERTEX
  8
PLAN_1
  6
CONTINUOUS
 10
-1.607374
 20
2.966839
  0
VERTEX
  8
PLAN_1
  6
CONTINUOUS
 10
-1.610961
 20
2.956075
  0
VERTEX
  8
PLAN_1
  6
CONTINUOUS
 10
-1.614547
 20
2.944866
  0
VERTEX
  8
PLAN_1
  6
CONTINUOUS
 10
-1.616791
 20
2.933205
  0
VERTEX
  8
PLAN_1
  6
CONTINUOUS
 10
-1.619031
 20
2.921547
  0
VERTEX
  8
PLAN_1
  6
CONTINUOUS
 10
-1.620378
 20
2.909890
  0
VERTEX
  8
PLAN_1
  6
CONTINUOUS
 10
-1.621276
 20
2.897780
  0
VERTEX
  8
PLAN_1
  6
CONTINUOUS
 10
-1.621724
 20
2.885673
  0
VERTEX
  8
PLAN_1
  6
CONTINUOUS
 10
-1.621276
 20
2.873567
  0
VERTEX
  8
PLAN_1
  6
CONTINUOUS
 10
-1.620378
 20
2.861461
  0
VERTEX
  8
PLAN_1
  6
CONTINUOUS
 10
-1.619031
 20
2.849799
  0
VERTEX
  8
PLAN_1
  6
CONTINUOUS
 10
-1.616791
 20
2.838142
  0
VERTEX
  8
PLAN_1
  6
CONTINUOUS
 10
-1.614547
 20
2.826929
  0
VERTEX
  8
PLAN_1
  6
CONTINUOUS
 10
-1.610961
 20
2.815720
  0
VERTEX
  8
PLAN_1
  6
CONTINUOUS
 10
-1.607374
 20
2.804508
  0
VERTEX
  8
PLAN_1
  6
CONTINUOUS
 10
-1.603339
 20
2.793748
  0
VERTEX
  8
PLAN_1
  6
CONTINUOUS
 10
-1.598406
 20
2.783433
  0
VERTEX
  8
PLAN_1
  6
CONTINUOUS
 10
-1.593472
 20
2.773122
  0
VERTEX
  8
PLAN_1
  6
CONTINUOUS
 10
-1.587642
 20
2.763256
  0
VERTEX
  8
PLAN_1
  6
CONTINUOUS
 10
-1.581366
 20
2.753839
  0
VERTEX
  8
PLAN_1
  6
CONTINUOUS
 10
-1.575087
 20
2.744421
  0
VERTEX
  8
PLAN_1
  6
CONTINUOUS
 10
-1.567913
 20
2.735453
  0
VERTEX
  8
PLAN_1
  6
CONTINUOUS
 10
-1.560291
 20
2.726933
  0
VERTEX
  8
PLAN_1
  6
CONTINUOUS
 10
-1.552665
 20
2.718862
  0
VERTEX
  8
PLAN_1
  6
CONTINUOUS
 10
-1.544594
 20
2.710791
  0
VERTEX
  8
PLAN_1
  6
CONTINUOUS
 10
-1.536075
 20
2.703614
  0
VERTEX
  8
PLAN_1
  6
CONTINUOUS
 10
-1.527106
 20
2.696441
  0
VERTEX
  8
PLAN_1
  6
CONTINUOUS
 10
-1.517689
 20
2.689717
  0
VERTEX
  8
PLAN_1
  6
CONTINUOUS
 10
-1.508272
 20
2.683886
  0
VERTEX
  8
PLAN_1
  6
CONTINUOUS
 10
-1.498409
 20
2.678055
  0
VERTEX
  8
PLAN_1
  6
CONTINUOUS
 10
-1.488094
 20
2.672673
  0
VERTEX
  8
PLAN_1
  6
CONTINUOUS
 10
-1.477780
 20
2.668189
  0
VERTEX
  8
PLAN_1
  6
CONTINUOUS
 10
-1.467020
 20
2.663705
  0
VERTEX
  8
PLAN_1
  6
CONTINUOUS
 10
-1.455807
 20
2.660118
  0
VERTEX
  8
PLAN_1
  6
CONTINUOUS
 10
-1.444598
 20
2.656980
  0
VERTEX
  8
PLAN_1
  6
CONTINUOUS
 10
-1.433386
 20
2.654291
  0
VERTEX
  8
PLAN_1
  6
CONTINUOUS
 10
-1.421728
 20
2.652496
  0
VERTEX
  8
PLAN_1
  6
CONTINUOUS
 10
-1.409622
 20
2.650701
  0
VERTEX
  8
PLAN_1
  6
CONTINUOUS
 10
-1.397961
 20
2.649807
  0
VERTEX
  8
PLAN_1
  6
CONTINUOUS
 10
-1.385854
 20
2.649807
  0
SEQEND
  8
0
  0
POLYLINE
  8
PLAN_1
  6
CONTINUOUS
 66
     1
 40
0.005378
 41
0.005378
  0
VERTEX
  8
PLAN_1
  6
CONTINUOUS
 10
-1.475091
 20
1.870004
  0
VERTEX
  8
PLAN_1
  6
CONTINUOUS
 10
-1.292134
 20
1.870004
  0
VERTEX
  8
PLAN_1
  6
CONTINUOUS
 10
-1.202453
 20
1.713059
  0
VERTEX
  8
PLAN_1
  6
CONTINUOUS
 10
-1.293031
 20
1.554768
  0
VERTEX
  8
PLAN_1
  6
CONTINUOUS
 10
-1.475091
 20
1.554768
  0
VERTEX
  8
PLAN_1
  6
CONTINUOUS
 10
-1.566118
 20
1.713957
  0
VERTEX
  8
PLAN_1
  6
CONTINUOUS
 10
-1.475091
 20
1.870004
  0
SEQEND
  8
0
  0
POLYLINE
  8
PLAN_1
  6
CONTINUOUS
 66
     1
 40
0.005378
 41
0.005378
  0
VERTEX
  8
PLAN_1
  6
CONTINUOUS
 10
-1.384957
 20
1.592882
  0
VERTEX
  8
PLAN_1
  6
CONTINUOUS
 10
-1.378681
 20
1.593331
  0
VERTEX
  8
PLAN_1
  6
CONTINUOUS
 10
-1.372850
 20
1.593780
  0
VERTEX
  8
PLAN_1
  6
CONTINUOUS
 10
-1.367020
 20
1.594677
  0
VERTEX
  8
PLAN_1
  6
CONTINUOUS
 10
-1.361193
 20
1.595575
  0
VERTEX
  8
PLAN_1
  6
CONTINUOUS
 10
-1.355362
 20
1.596917
  0
VERTEX
  8
PLAN_1
  6
CONTINUOUS
 10
-1.349980
 20
1.598264
  0
VERTEX
  8
PLAN_1
  6
CONTINUOUS
 10
-1.344154
 20
1.600059
  0
VERTEX
  8
PLAN_1
  6
CONTINUOUS
 10
-1.338772
 20
1.602299
  0
VERTEX
  8
PLAN_1
  6
CONTINUOUS
 10
-1.333839
 20
1.604543
  0
VERTEX
  8
PLAN_1
  6
CONTINUOUS
 10
-1.328457
 20
1.607232
  0
VERTEX
  8
PLAN_1
  6
CONTINUOUS
 10
-1.323524
 20
1.610370
  0
VERTEX
  8
PLAN_1
  6
CONTINUOUS
 10
-1.319039
 20
1.613063
  0
VERTEX
  8
PLAN_1
  6
CONTINUOUS
 10
-1.314106
 20
1.616650
  0
VERTEX
  8
PLAN_1
  6
CONTINUOUS
 10
-1.309622
 20
1.620236
  0
VERTEX
  8
PLAN_1
  6
CONTINUOUS
 10
-1.305587
 20
1.623823
  0
VERTEX
  8
PLAN_1
  6
CONTINUOUS
 10
-1.301551
 20
1.627858
  0
VERTEX
  8
PLAN_1
  6
CONTINUOUS
 10
-1.297516
 20
1.631894
  0
VERTEX
  8
PLAN_1
  6
CONTINUOUS
 10
-1.293929
 20
1.635933
  0
VERTEX
  8
PLAN_1
  6
CONTINUOUS
 10
-1.290343
 20
1.640417
  0
VERTEX
  8
PLAN_1
  6
CONTINUOUS
 10
-1.287205
 20
1.645346
  0
VERTEX
  8
PLAN_1
  6
CONTINUOUS
 10
-1.284063
 20
1.649831
  0
VERTEX
  8
PLAN_1
  6
CONTINUOUS
 10
-1.280925
 20
1.654764
  0
VERTEX
  8
PLAN_1
  6
CONTINUOUS
 10
-1.278681
 20
1.660146
  0
VERTEX
  8
PLAN_1
  6
CONTINUOUS
 10
-1.275992
 20
1.665079
  0
VERTEX
  8
PLAN_1
  6
CONTINUOUS
 10
-1.274201
 20
1.670461
  0
VERTEX
  8
PLAN_1
  6
CONTINUOUS
 10
-1.271957
 20
1.675843
  0
VERTEX
  8
PLAN_1
  6
CONTINUOUS
 10
-1.270610
 20
1.681669
  0
VERTEX
  8
PLAN_1
  6
CONTINUOUS
 10
-1.269268
 20
1.687500
  0
VERTEX
  8
PLAN_1
  6
CONTINUOUS
 10
-1.268370
 20
1.693331
  0
VERTEX
  8
PLAN_1
  6
CONTINUOUS
 10
-1.267472
 20
1.699157
  0
VERTEX
  8
PLAN_1
  6
CONTINUOUS
 10
-1.267024
 20
1.704988
  0
VERTEX
  8
PLAN_1
  6
CONTINUOUS
 10
-1.267024
 20
1.711264
  0
VERTEX
  8
PLAN_1
  6
CONTINUOUS
 10
-1.267024
 20
1.717094
  0
VERTEX
  8
PLAN_1
  6
CONTINUOUS
 10
-1.267472
 20
1.723374
  0
VERTEX
  8
PLAN_1
  6
CONTINUOUS
 10
-1.268370
 20
1.729201
  0
VERTEX
  8
PLAN_1
  6
CONTINUOUS
 10
-1.269268
 20
1.735031
  0
VERTEX
  8
PLAN_1
  6
CONTINUOUS
 10
-1.270610
 20
1.740862
  0
VERTEX
  8
PLAN_1
  6
CONTINUOUS
 10
-1.271957
 20
1.746244
  0
VERTEX
  8
PLAN_1
  6
CONTINUOUS
 10
-1.274201
 20
1.751622
  0
VERTEX
  8
PLAN_1
  6
CONTINUOUS
 10
-1.275992
 20
1.757004
  0
VERTEX
  8
PLAN_1
  6
CONTINUOUS
 10
-1.278681
 20
1.762386
  0
VERTEX
  8
PLAN_1
  6
CONTINUOUS
 10
-1.280925
 20
1.767319
  0
VERTEX
  8
PLAN_1
  6
CONTINUOUS
 10
-1.284063
 20
1.772252
  0
VERTEX
  8
PLAN_1
  6
CONTINUOUS
 10
-1.287205
 20
1.777185
  0
VERTEX
  8
PLAN_1
  6
CONTINUOUS
 10
-1.290343
 20
1.781669
  0
VERTEX
  8
PLAN_1
  6
CONTINUOUS
 10
-1.293929
 20
1.786150
  0
VERTEX
  8
PLAN_1
  6
CONTINUOUS
 10
-1.297516
 20
1.790634
  0
VERTEX
  8
PLAN_1
  6
CONTINUOUS
 10
-1.301551
 20
1.794673
  0
VERTEX
  8
PLAN_1
  6
CONTINUOUS
 10
-1.305587
 20
1.798709
  0
VERTEX
  8
PLAN_1
  6
CONTINUOUS
 10
-1.309622
 20
1.802295
  0
VERTEX
  8
PLAN_1
  6
CONTINUOUS
 10
-1.314106
 20
1.805882
  0
VERTEX
  8
PLAN_1
  6
CONTINUOUS
 10
-1.319039
 20
1.809020
  0
VERTEX
  8
PLAN_1
  6
CONTINUOUS
 10
-1.323524
 20
1.812161
  0
VERTEX
  8
PLAN_1
  6
CONTINUOUS
 10
-1.328457
 20
1.814850
  0
VERTEX
  8
PLAN_1
  6
CONTINUOUS
 10
-1.333839
 20
1.817539
  0
VERTEX
  8
PLAN_1
  6
CONTINUOUS
 10
-1.338772
 20
1.819783
  0
VERTEX
  8
PLAN_1
  6
CONTINUOUS
 10
-1.344154
 20
1.822024
  0
VERTEX
  8
PLAN_1
  6
CONTINUOUS
 10
-1.349980
 20
1.823819
  0
VERTEX
  8
PLAN_1
  6
CONTINUOUS
 10
-1.355362
 20
1.825614
  0
VERTEX
  8
PLAN_1
  6
CONTINUOUS
 10
-1.361193
 20
1.826957
  0
VERTEX
  8
PLAN_1
  6
CONTINUOUS
 10
-1.367020
 20
1.827854
  0
VERTEX
  8
PLAN_1
  6
CONTINUOUS
 10
-1.372850
 20
1.828752
  0
VERTEX
  8
PLAN_1
  6
CONTINUOUS
 10
-1.378681
 20
1.829201
  0
VERTEX
  8
PLAN_1
  6
CONTINUOUS
 10
-1.384957
 20
1.829201
  0
VERTEX
  8
PLAN_1
  6
CONTINUOUS
 10
-1.390787
 20
1.829201
  0
VERTEX
  8
PLAN_1
  6
CONTINUOUS
 10
-1.397067
 20
1.828752
  0
VERTEX
  8
PLAN_1
  6
CONTINUOUS
 10
-1.402894
 20
1.827854
  0
VERTEX
  8
PLAN_1
  6
CONTINUOUS
 10
-1.408724
 20
1.826957
  0
VERTEX
  8
PLAN_1
  6
CONTINUOUS
 10
-1.414555
 20
1.825614
  0
VERTEX
  8
PLAN_1
  6
CONTINUOUS
 10
-1.419933
 20
1.823819
  0
VERTEX
  8
PLAN_1
  6
CONTINUOUS
 10
-1.425315
 20
1.822024
  0
VERTEX
  8
PLAN_1
  6
CONTINUOUS
 10
-1.430697
 20
1.819783
  0
VERTEX
  8
PLAN_1
  6
CONTINUOUS
 10
-1.436079
 20
1.817539
  0
VERTEX
  8
PLAN_1
  6
CONTINUOUS
 10
-1.441012
 20
1.814850
  0
VERTEX
  8
PLAN_1
  6
CONTINUOUS
 10
-1.445945
 20
1.812161
  0
VERTEX
  8
PLAN_1
  6
CONTINUOUS
 10
-1.450874
 20
1.809020
  0
VERTEX
  8
PLAN_1
  6
CONTINUOUS
 10
-1.455358
 20
1.805882
  0
VERTEX
  8
PLAN_1
  6
CONTINUOUS
 10
-1.459843
 20
1.802295
  0
VERTEX
  8
PLAN_1
  6
CONTINUOUS
 10
-1.464327
 20
1.798709
  0
VERTEX
  8
PLAN_1
  6
CONTINUOUS
 10
-1.468362
 20
1.794673
  0
VERTEX
  8
PLAN_1
  6
CONTINUOUS
 10
-1.472402
 20
1.790634
  0
VERTEX
  8
PLAN_1
  6
CONTINUOUS
 10
-1.475988
 20
1.786150
  0
VERTEX
  8
PLAN_1
  6
CONTINUOUS
 10
-1.479575
 20
1.781669
  0
VERTEX
  8
PLAN_1
  6
CONTINUOUS
 10
-1.482713
 20
1.777185
  0
VERTEX
  8
PLAN_1
  6
CONTINUOUS
 10
-1.485854
 20
1.772252
  0
VERTEX
  8
PLAN_1
  6
CONTINUOUS
 10
-1.488543
 20
1.767319
  0
VERTEX
  8
PLAN_1
  6
CONTINUOUS
 10
-1.491232
 20
1.762386
  0
VERTEX
  8
PLAN_1
  6
CONTINUOUS
 10
-1.493476
 20
1.757004
  0
VERTEX
  8
PLAN_1
  6
CONTINUOUS
 10
-1.495717
 20
1.751622
  0
VERTEX
  8
PLAN_1
  6
CONTINUOUS
 10
-1.497512
 20
1.746244
  0
VERTEX
  8
PLAN_1
  6
CONTINUOUS
 10
-1.499303
 20
1.740862
  0
VERTEX
  8
PLAN_1
  6
CONTINUOUS
 10
-1.500650
 20
1.735031
  0
VERTEX
  8
PLAN_1
  6
CONTINUOUS
 10
-1.501547
 20
1.729201
  0
VERTEX
  8
PLAN_1
  6
CONTINUOUS
 10
-1.502445
 20
1.723374
  0
VERTEX
  8
PLAN_1
  6
CONTINUOUS
 10
-1.502894
 20
1.717094
  0
VERTEX
  8
PLAN_1
  6
CONTINUOUS
 10
-1.502894
 20
1.711264
  0
VERTEX
  8
PLAN_1
  6
CONTINUOUS
 10
-1.502894
 20
1.704988
  0
VERTEX
  8
PLAN_1
  6
CONTINUOUS
 10
-1.502445
 20
1.699157
  0
VERTEX
  8
PLAN_1
  6
CONTINUOUS
 10
-1.501547
 20
1.693331
  0
VERTEX
  8
PLAN_1
  6
CONTINUOUS
 10
-1.500650
 20
1.687500
  0
VERTEX
  8
PLAN_1
  6
CONTINUOUS
 10
-1.499303
 20
1.681669
  0
VERTEX
  8
PLAN_1
  6
CONTINUOUS
 10
-1.497512
 20
1.675843
  0
VERTEX
  8
PLAN_1
  6
CONTINUOUS
 10
-1.495717
 20
1.670461
  0
VERTEX
  8
PLAN_1
  6
CONTINUOUS
 10
-1.493476
 20
1.665079
  0
VERTEX
  8
PLAN_1
  6
CONTINUOUS
 10
-1.491232
 20
1.660146
  0
VERTEX
  8
PLAN_1
  6
CONTINUOUS
 10
-1.488543
 20
1.654764
  0
VERTEX
  8
PLAN_1
  6
CONTINUOUS
 10
-1.485854
 20
1.649831
  0
VERTEX
  8
PLAN_1
  6
CONTINUOUS
 10
-1.482713
 20
1.645346
  0
VERTEX
  8
PLAN_1
  6
CONTINUOUS
 10
-1.479575
 20
1.640417
  0
VERTEX
  8
PLAN_1
  6
CONTINUOUS
 10
-1.475988
 20
1.635933
  0
VERTEX
  8
PLAN_1
  6
CONTINUOUS
 10
-1.472402
 20
1.631894
  0
VERTEX
  8
PLAN_1
  6
CONTINUOUS
 10
-1.468362
 20
1.627858
  0
VERTEX
  8
PLAN_1
  6
CONTINUOUS
 10
-1.464327
 20
1.623823
  0
VERTEX
  8
PLAN_1
  6
CONTINUOUS
 10
-1.459843
 20
1.620236
  0
VERTEX
  8
PLAN_1
  6
CONTINUOUS
 10
-1.455358
 20
1.616650
  0
VERTEX
  8
PLAN_1
  6
CONTINUOUS
 10
-1.450874
 20
1.613063
  0
VERTEX
  8
PLAN_1
  6
CONTINUOUS
 10
-1.445945
 20
1.610370
  0
VERTEX
  8
PLAN_1
  6
CONTINUOUS
 10
-1.441012
 20
1.607232
  0
VERTEX
  8
PLAN_1
  6
CONTINUOUS
 10
-1.436079
 20
1.604543
  0
VERTEX
  8
PLAN_1
  6
CONTINUOUS
 10
-1.430697
 20
1.602299
  0
VERTEX
  8
PLAN_1
  6
CONTINUOUS
 10
-1.425315
 20
1.600059
  0
VERTEX
  8
PLAN_1
  6
CONTINUOUS
 10
-1.419933
 20
1.598264
  0
VERTEX
  8
PLAN_1
  6
CONTINUOUS
 10
-1.414555
 20
1.596917
  0
VERTEX
  8
PLAN_1
  6
CONTINUOUS
 10
-1.408724
 20
1.595575
  0
VERTEX
  8
PLAN_1
  6
CONTINUOUS
 10
-1.402894
 20
1.594677
  0
VERTEX
  8
PLAN_1
  6
CONTINUOUS
 10
-1.397067
 20
1.593780
  0
VERTEX
  8
PLAN_1
  6
CONTINUOUS
 10
-1.390787
 20
1.593331
  0
VERTEX
  8
PLAN_1
  6
CONTINUOUS
 10
-1.384957
 20
1.592882
  0
SEQEND
  8
0
  0
POLYLINE
  8
PLAN_1
  6
CONTINUOUS
 66
     1
 40
0.005378
 41
0.005378
  0
VERTEX
  8
PLAN_1
  6
CONTINUOUS
 10
-1.385854
 20
1.631449
  0
VERTEX
  8
PLAN_1
  6
CONTINUOUS
 10
-1.377783
 20
1.631894
  0
VERTEX
  8
PLAN_1
  6
CONTINUOUS
 10
-1.369713
 20
1.633240
  0
VERTEX
  8
PLAN_1
  6
CONTINUOUS
 10
-1.362535
 20
1.635035
  0
VERTEX
  8
PLAN_1
  6
CONTINUOUS
 10
-1.354913
 20
1.637724
  0
VERTEX
  8
PLAN_1
  6
CONTINUOUS
 10
-1.348189
 20
1.640862
  0
VERTEX
  8
PLAN_1
  6
CONTINUOUS
 10
-1.341909
 20
1.644902
  0
VERTEX
  8
PLAN_1
  6
CONTINUOUS
 10
-1.335634
 20
1.649386
  0
VERTEX
  8
PLAN_1
  6
CONTINUOUS
 10
-1.330252
 20
1.654764
  0
VERTEX
  8
PLAN_1
  6
CONTINUOUS
 10
-1.324870
 20
1.660146
  0
VERTEX
  8
PLAN_1
  6
CONTINUOUS
 10
-1.320386
 20
1.666425
  0
VERTEX
  8
PLAN_1
  6
CONTINUOUS
 10
-1.316350
 20
1.672701
  0
VERTEX
  8
PLAN_1
  6
CONTINUOUS
 10
-1.313213
 20
1.679429
  0
VERTEX
  8
PLAN_1
  6
CONTINUOUS
 10
-1.310520
 20
1.687051
  0
VERTEX
  8
PLAN_1
  6
CONTINUOUS
 10
-1.308728
 20
1.694224
  0
VERTEX
  8
PLAN_1
  6
CONTINUOUS
 10
-1.307382
 20
1.702299
  0
VERTEX
  8
PLAN_1
  6
CONTINUOUS
 10
-1.306933
 20
1.710370
  0
VERTEX
  8
PLAN_1
  6
CONTINUOUS
 10
-1.307382
 20
1.718441
  0
VERTEX
  8
PLAN_1
  6
CONTINUOUS
 10
-1.308728
 20
1.726063
  0
VERTEX
  8
PLAN_1
  6
CONTINUOUS
 10
-1.310520
 20
1.733685
  0
VERTEX
  8
PLAN_1
  6
CONTINUOUS
 10
-1.313213
 20
1.740862
  0
VERTEX
  8
PLAN_1
  6
CONTINUOUS
 10
-1.316350
 20
1.747587
  0
VERTEX
  8
PLAN_1
  6
CONTINUOUS
 10
-1.320386
 20
1.754315
  0
VERTEX
  8
PLAN_1
  6
CONTINUOUS
 10
-1.324870
 20
1.760142
  0
VERTEX
  8
PLAN_1
  6
CONTINUOUS
 10
-1.330252
 20
1.765972
  0
VERTEX
  8
PLAN_1
  6
CONTINUOUS
 10
-1.335634
 20
1.770906
  0
VERTEX
  8
PLAN_1
  6
CONTINUOUS
 10
-1.341909
 20
1.775390
  0
VERTEX
  8
PLAN_1
  6
CONTINUOUS
 10
-1.348189
 20
1.779425
  0
VERTEX
  8
PLAN_1
  6
CONTINUOUS
 10
-1.354913
 20
1.783012
  0
VERTEX
  8
PLAN_1
  6
CONTINUOUS
 10
-1.362535
 20
1.785256
  0
VERTEX
  8
PLAN_1
  6
CONTINUOUS
 10
-1.369713
 20
1.787496
  0
VERTEX
  8
PLAN_1
  6
CONTINUOUS
 10
-1.377783
 20
1.788394
  0
VERTEX
  8
PLAN_1
  6
CONTINUOUS
 10
-1.385854
 20
1.788843
  0
VERTEX
  8
PLAN_1
  6
CONTINUOUS
 10
-1.393925
 20
1.788394
  0
VERTEX
  8
PLAN_1
  6
CONTINUOUS
 10
-1.401551
 20
1.787496
  0
VERTEX
  8
PLAN_1
  6
CONTINUOUS
 10
-1.409173
 20
1.785256
  0
VERTEX
  8
PLAN_1
  6
CONTINUOUS
 10
-1.416346
 20
1.783012
  0
VERTEX
  8
PLAN_1
  6
CONTINUOUS
 10
-1.423075
 20
1.779425
  0
VERTEX
  8
PLAN_1
  6
CONTINUOUS
 10
-1.429799
 20
1.775390
  0
VERTEX
  8
PLAN_1
  6
CONTINUOUS
 10
-1.435630
 20
1.770906
  0
VERTEX
  8
PLAN_1
  6
CONTINUOUS
 10
-1.441461
 20
1.765972
  0
VERTEX
  8
PLAN_1
  6
CONTINUOUS
 10
-1.446390
 20
1.760142
  0
VERTEX
  8
PLAN_1
  6
CONTINUOUS
 10
-1.450874
 20
1.754315
  0
VERTEX
  8
PLAN_1
  6
CONTINUOUS
 10
-1.454913
 20
1.747587
  0
VERTEX
  8
PLAN_1
  6
CONTINUOUS
 10
-1.458500
 20
1.740862
  0
VERTEX
  8
PLAN_1
  6
CONTINUOUS
 10
-1.460740
 20
1.733685
  0
VERTEX
  8
PLAN_1
  6
CONTINUOUS
 10
-1.462984
 20
1.726063
  0
VERTEX
  8
PLAN_1
  6
CONTINUOUS
 10
-1.463878
 20
1.718441
  0
VERTEX
  8
PLAN_1
  6
CONTINUOUS
 10
-1.464327
 20
1.710370
  0
VERTEX
  8
PLAN_1
  6
CONTINUOUS
 10
-1.463878
 20
1.702299
  0
VERTEX
  8
PLAN_1
  6
CONTINUOUS
 10
-1.462984
 20
1.694224
  0
VERTEX
  8
PLAN_1
  6
CONTINUOUS
 10
-1.460740
 20
1.687051
  0
VERTEX
  8
PLAN_1
  6
CONTINUOUS
 10
-1.458500
 20
1.679429
  0
VERTEX
  8
PLAN_1
  6
CONTINUOUS
 10
-1.454913
 20
1.672701
  0
VERTEX
  8
PLAN_1
  6
CONTINUOUS
 10
-1.450874
 20
1.666425
  0
VERTEX
  8
PLAN_1
  6
CONTINUOUS
 10
-1.446390
 20
1.660146
  0
VERTEX
  8
PLAN_1
  6
CONTINUOUS
 10
-1.441461
 20
1.654764
  0
VERTEX
  8
PLAN_1
  6
CONTINUOUS
 10
-1.435630
 20
1.649386
  0
VERTEX
  8
PLAN_1
  6
CONTINUOUS
 10
-1.429799
 20
1.644902
  0
VERTEX
  8
PLAN_1
  6
CONTINUOUS
 10
-1.423075
 20
1.640862
  0
VERTEX
  8
PLAN_1
  6
CONTINUOUS
 10
-1.416346
 20
1.637724
  0
VERTEX
  8
PLAN_1
  6
CONTINUOUS
 10
-1.409173
 20
1.635035
  0
VERTEX
  8
PLAN_1
  6
CONTINUOUS
 10
-1.401551
 20
1.633240
  0
VERTEX
  8
PLAN_1
  6
CONTINUOUS
 10
-1.393925
 20
1.631894
  0
VERTEX
  8
PLAN_1
  6
CONTINUOUS
 10
-1.385854
 20
1.631449
  0
SEQEND
  8
0
  0
POLYLINE
  8
PLAN_1
  6
CONTINUOUS
 66
     1
 40
0.008520
 41
0.008520
  0
VERTEX
  8
PLAN_1
  6
CONTINUOUS
 10
-1.749972
 20
2.102287
  0
VERTEX
  8
PLAN_1
  6
CONTINUOUS
 10
-1.811854
 20
2.102287
  0
VERTEX
  8
PLAN_1
  6
CONTINUOUS
 10
-1.811854
 20
2.132331
  0
VERTEX
  8
PLAN_1
  6
CONTINUOUS
 10
-1.906020
 20
2.132331
  0
VERTEX
  8
PLAN_1
  6
CONTINUOUS
 10
-1.906020
 20
2.074484
  0
VERTEX
  8
PLAN_1
  6
CONTINUOUS
 10
-1.653559
 20
2.074484
  0
VERTEX
  8
PLAN_1
  6
CONTINUOUS
 10
-1.653559
 20
2.132331
  0
VERTEX
  8
PLAN_1
  6
CONTINUOUS
 10
-1.749972
 20
2.132331
  0
VERTEX
  8
PLAN_1
  6
CONTINUOUS
 10
-1.749972
 20
2.102287
  0
SEQEND
  8
0
  0
POLYLINE
  8
PLAN_1
  6
CONTINUOUS
 66
     1
 40
0.008520
 41
0.008520
  0
VERTEX
  8
PLAN_1
  6
CONTINUOUS
 10
-0.957614
 20
2.102287
  0
VERTEX
  8
PLAN_1
  6
CONTINUOUS
 10
-1.019496
 20
2.102287
  0
VERTEX
  8
PLAN_1
  6
CONTINUOUS
 10
-1.019496
 20
2.132331
  0
VERTEX
  8
PLAN_1
  6
CONTINUOUS
 10
-1.113217
 20
2.132331
  0
VERTEX
  8
PLAN_1
  6
CONTINUOUS
 10
-1.113217
 20
2.074484
  0
VERTEX
  8
PLAN_1
  6
CONTINUOUS
 10
-0.859413
 20
2.074484
  0
VERTEX
  8
PLAN_1
  6
CONTINUOUS
 10
-0.859413
 20
2.132331
  0
VERTEX
  8
PLAN_1
  6
CONTINUOUS
 10
-0.957614
 20
2.132331
  0
VERTEX
  8
PLAN_1
  6
CONTINUOUS
 10
-0.957614
 20
2.102287
  0
SEQEND
  8
0
  0
POLYLINE
  8
PLAN_1
 62
     5
  6
CONTINUOUS
 66
     1
 40
0.003000
 41
0.003000
  0
VERTEX
  8
PLAN_1
 62
     5
  6
CONTINUOUS
 10
-2.164760
 20
0.505917
  0
VERTEX
  8
PLAN_1
 62
     5
  6
CONTINUOUS
 10
-2.164760
 20
0.514437
  0
SEQEND
  8
0
  0
POLYLINE
  8
PLAN_1
 62
     5
  6
CONTINUOUS
 66
     1
 40
0.003000
 41
0.003000
  0
VERTEX
  8
PLAN_1
 62
     5
  6
CONTINUOUS
 10
-2.164760
 20
0.522508
  0
VERTEX
  8
PLAN_1
 62
     5
  6
CONTINUOUS
 10
-2.164760
 20
0.531028
  0
SEQEND
  8
0
  0
POLYLINE
  8
PLAN_1
 62
     5
  6
CONTINUOUS
 66
     1
 40
0.003000
 41
0.003000
  0
VERTEX
  8
PLAN_1
 62
     5
  6
CONTINUOUS
 10
-2.164760
 20
0.539098
  0
VERTEX
  8
PLAN_1
 62
     5
  6
CONTINUOUS
 10
-2.164760
 20
0.547618
  0
SEQEND
  8
0
  0
POLYLINE
  8
PLAN_1
 62
     5
  6
CONTINUOUS
 66
     1
 40
0.003000
 41
0.003000
  0
VERTEX
  8
PLAN_1
 62
     5
  6
CONTINUOUS
 10
-2.164760
 20
0.555693
  0
VERTEX
  8
PLAN_1
 62
     5
  6
CONTINUOUS
 10
-2.164760
 20
0.564213
  0
SEQEND
  8
0
  0
POLYLINE
  8
PLAN_1
 62
     5
  6
CONTINUOUS
 66
     1
 40
0.003000
 41
0.003000
  0
VERTEX
  8
PLAN_1
 62
     5
  6
CONTINUOUS
 10
-2.164760
 20
0.572732
  0
VERTEX
  8
PLAN_1
 62
     5
  6
CONTINUOUS
 10
-2.164760
 20
0.580803
  0
SEQEND
  8
0
  0
POLYLINE
  8
PLAN_1
 62
     5
  6
CONTINUOUS
 66
     1
 40
0.003000
 41
0.003000
  0
VERTEX
  8
PLAN_1
 62
     5
  6
CONTINUOUS
 10
-2.164760
 20
0.589323
  0
VERTEX
  8
PLAN_1
 62
     5
  6
CONTINUOUS
 10
-2.164760
 20
0.597394
  0
SEQEND
  8
0
  0
POLYLINE
  8
PLAN_1
 62
     5
  6
CONTINUOUS
 66
     1
 40
0.003000
 41
0.003000
  0
VERTEX
  8
PLAN_1
 62
     5
  6
CONTINUOUS
 10
-2.164760
 20
0.605913
  0
VERTEX
  8
PLAN_1
 62
     5
  6
CONTINUOUS
 10
-2.164760
 20
0.613984
  0
SEQEND
  8
0
  0
POLYLINE
  8
PLAN_1
 62
     5
  6
CONTINUOUS
 66
     1
 40
0.003000
 41
0.003000
  0
VERTEX
  8
PLAN_1
 62
     5
  6
CONTINUOUS
 10
-2.164760
 20
0.622504
  0
VERTEX
  8
PLAN_1
 62
     5
  6
CONTINUOUS
 10
-2.164760
 20
0.631028
  0
SEQEND
  8
0
  0
POLYLINE
  8
PLAN_1
 62
     5
  6
CONTINUOUS
 66
     1
 40
0.003000
 41
0.003000
  0
VERTEX
  8
PLAN_1
 62
     5
  6
CONTINUOUS
 10
-2.164760
 20
0.639098
  0
VERTEX
  8
PLAN_1
 62
     5
  6
CONTINUOUS
 10
-2.164760
 20
0.647618
  0
SEQEND
  8
0
  0
POLYLINE
  8
PLAN_1
 62
     5
  6
CONTINUOUS
 66
     1
 40
0.003000
 41
0.003000
  0
VERTEX
  8
PLAN_1
 62
     5
  6
CONTINUOUS
 10
-2.164760
 20
0.655689
  0
VERTEX
  8
PLAN_1
 62
     5
  6
CONTINUOUS
 10
-2.164760
 20
0.664209
  0
SEQEND
  8
0
  0
POLYLINE
  8
PLAN_1
 62
     5
  6
CONTINUOUS
 66
     1
 40
0.003000
 41
0.003000
  0
VERTEX
  8
PLAN_1
 62
     5
  6
CONTINUOUS
 10
-2.164760
 20
0.672280
  0
VERTEX
  8
PLAN_1
 62
     5
  6
CONTINUOUS
 10
-2.164760
 20
0.680799
  0
SEQEND
  8
0
  0
POLYLINE
  8
PLAN_1
 62
     5
  6
CONTINUOUS
 66
     1
 40
0.003000
 41
0.003000
  0
VERTEX
  8
PLAN_1
 62
     5
  6
CONTINUOUS
 10
-2.164760
 20
0.689319
  0
VERTEX
  8
PLAN_1
 62
     5
  6
CONTINUOUS
 10
-2.164760
 20
0.697390
  0
SEQEND
  8
0
  0
POLYLINE
  8
PLAN_1
 62
     5
  6
CONTINUOUS
 66
     1
 40
0.003000
 41
0.003000
  0
VERTEX
  8
PLAN_1
 62
     5
  6
CONTINUOUS
 10
-2.164760
 20
0.705913
  0
VERTEX
  8
PLAN_1
 62
     5
  6
CONTINUOUS
 10
-2.164760
 20
0.713984
  0
SEQEND
  8
0
  0
POLYLINE
  8
PLAN_1
 62
     5
  6
CONTINUOUS
 66
     1
 40
0.003000
 41
0.003000
  0
VERTEX
  8
PLAN_1
 62
     5
  6
CONTINUOUS
 10
-2.164760
 20
0.722504
  0
VERTEX
  8
PLAN_1
 62
     5
  6
CONTINUOUS
 10
-2.164760
 20
0.730575
  0
SEQEND
  8
0
  0
POLYLINE
  8
PLAN_1
 62
     5
  6
CONTINUOUS
 66
     1
 40
0.003000
 41
0.003000
  0
VERTEX
  8
PLAN_1
 62
     5
  6
CONTINUOUS
 10
-2.164760
 20
0.739094
  0
VERTEX
  8
PLAN_1
 62
     5
  6
CONTINUOUS
 10
-2.164760
 20
0.747165
  0
SEQEND
  8
0
  0
POLYLINE
  8
PLAN_1
 62
     5
  6
CONTINUOUS
 66
     1
 40
0.003000
 41
0.003000
  0
VERTEX
  8
PLAN_1
 62
     5
  6
CONTINUOUS
 10
-2.164760
 20
0.755685
  0
VERTEX
  8
PLAN_1
 62
     5
  6
CONTINUOUS
 10
-2.164760
 20
0.764205
  0
SEQEND
  8
0
  0
POLYLINE
  8
PLAN_1
 62
     5
  6
CONTINUOUS
 66
     1
 40
0.003000
 41
0.003000
  0
VERTEX
  8
PLAN_1
 62
     5
  6
CONTINUOUS
 10
-2.164760
 20
0.772276
  0
VERTEX
  8
PLAN_1
 62
     5
  6
CONTINUOUS
 10
-2.164760
 20
0.780799
  0
SEQEND
  8
0
  0
POLYLINE
  8
PLAN_1
 62
     5
  6
CONTINUOUS
 66
     1
 40
0.003000
 41
0.003000
  0
VERTEX
  8
PLAN_1
 62
     5
  6
CONTINUOUS
 10
-2.164760
 20
0.788870
  0
VERTEX
  8
PLAN_1
 62
     5
  6
CONTINUOUS
 10
-2.164760
 20
0.797390
  0
SEQEND
  8
0
  0
POLYLINE
  8
PLAN_1
 62
     5
  6
CONTINUOUS
 66
     1
 40
0.003000
 41
0.003000
  0
VERTEX
  8
PLAN_1
 62
     5
  6
CONTINUOUS
 10
-2.164760
 20
0.805461
  0
VERTEX
  8
PLAN_1
 62
     5
  6
CONTINUOUS
 10
-2.164760
 20
0.813980
  0
SEQEND
  8
0
  0
POLYLINE
  8
PLAN_1
 62
     5
  6
CONTINUOUS
 66
     1
 40
0.003000
 41
0.003000
  0
VERTEX
  8
PLAN_1
 62
     5
  6
CONTINUOUS
 10
-2.164760
 20
0.822500
  0
VERTEX
  8
PLAN_1
 62
     5
  6
CONTINUOUS
 10
-2.164760
 20
0.830571
  0
SEQEND
  8
0
  0
POLYLINE
  8
PLAN_1
 62
     5
  6
CONTINUOUS
 66
     1
 40
0.003000
 41
0.003000
  0
VERTEX
  8
PLAN_1
 62
     5
  6
CONTINUOUS
 10
-2.164760
 20
0.839091
  0
VERTEX
  8
PLAN_1
 62
     5
  6
CONTINUOUS
 10
-2.164760
 20
0.847161
  0
SEQEND
  8
0
  0
POLYLINE
  8
PLAN_1
 62
     5
  6
CONTINUOUS
 66
     1
 40
0.003000
 41
0.003000
  0
VERTEX
  8
PLAN_1
 62
     5
  6
CONTINUOUS
 10
-2.164760
 20
0.855685
  0
VERTEX
  8
PLAN_1
 62
     5
  6
CONTINUOUS
 10
-2.164760
 20
0.863756
  0
SEQEND
  8
0
  0
POLYLINE
  8
PLAN_1
 62
     5
  6
CONTINUOUS
 66
     1
 40
0.003000
 41
0.003000
  0
VERTEX
  8
PLAN_1
 62
     5
  6
CONTINUOUS
 10
-2.164760
 20
0.872276
  0
VERTEX
  8
PLAN_1
 62
     5
  6
CONTINUOUS
 10
-2.164760
 20
0.880795
  0
SEQEND
  8
0
  0
POLYLINE
  8
PLAN_1
 62
     5
  6
CONTINUOUS
 66
     1
 40
0.003000
 41
0.003000
  0
VERTEX
  8
PLAN_1
 62
     5
  6
CONTINUOUS
 10
-2.164760
 20
0.888866
  0
VERTEX
  8
PLAN_1
 62
     5
  6
CONTINUOUS
 10
-2.164760
 20
0.897386
  0
SEQEND
  8
0
  0
POLYLINE
  8
PLAN_1
 62
     5
  6
CONTINUOUS
 66
     1
 40
0.003000
 41
0.003000
  0
VERTEX
  8
PLAN_1
 62
     5
  6
CONTINUOUS
 10
-2.164760
 20
0.905457
  0
VERTEX
  8
PLAN_1
 62
     5
  6
CONTINUOUS
 10
-2.164760
 20
0.913976
  0
SEQEND
  8
0
  0
POLYLINE
  8
PLAN_1
 62
     5
  6
CONTINUOUS
 66
     1
 40
0.003000
 41
0.003000
  0
VERTEX
  8
PLAN_1
 62
     5
  6
CONTINUOUS
 10
-2.164760
 20
0.922047
  0
VERTEX
  8
PLAN_1
 62
     5
  6
CONTINUOUS
 10
-2.164760
 20
0.930571
  0
SEQEND
  8
0
  0
POLYLINE
  8
PLAN_1
 62
     5
  6
CONTINUOUS
 66
     1
 40
0.003000
 41
0.003000
  0
VERTEX
  8
PLAN_1
 62
     5
  6
CONTINUOUS
 10
-2.164760
 20
0.939091
  0
VERTEX
  8
PLAN_1
 62
     5
  6
CONTINUOUS
 10
-2.164760
 20
0.947161
  0
SEQEND
  8
0
  0
POLYLINE
  8
PLAN_1
 62
     5
  6
CONTINUOUS
 66
     1
 40
0.003000
 41
0.003000
  0
VERTEX
  8
PLAN_1
 62
     5
  6
CONTINUOUS
 10
-2.164760
 20
0.955681
  0
VERTEX
  8
PLAN_1
 62
     5
  6
CONTINUOUS
 10
-2.164760
 20
0.963752
  0
SEQEND
  8
0
  0
POLYLINE
  8
PLAN_1
 62
     5
  6
CONTINUOUS
 66
     1
 40
0.003000
 41
0.003000
  0
VERTEX
  8
PLAN_1
 62
     5
  6
CONTINUOUS
 10
-2.164760
 20
0.972272
  0
VERTEX
  8
PLAN_1
 62
     5
  6
CONTINUOUS
 10
-2.164760
 20
0.980343
  0
SEQEND
  8
0
  0
POLYLINE
  8
PLAN_1
 62
     5
  6
CONTINUOUS
 66
     1
 40
0.003000
 41
0.003000
  0
VERTEX
  8
PLAN_1
 62
     5
  6
CONTINUOUS
 10
-2.164760
 20
0.988862
  0
VERTEX
  8
PLAN_1
 62
     5
  6
CONTINUOUS
 10
-2.164760
 20
0.997382
  0
SEQEND
  8
0
  0
POLYLINE
  8
PLAN_1
 62
     5
  6
CONTINUOUS
 66
     1
 40
0.003000
 41
0.003000
  0
VERTEX
  8
PLAN_1
 62
     5
  6
CONTINUOUS
 10
-2.164760
 20
1.005457
  0
VERTEX
  8
PLAN_1
 62
     5
  6
CONTINUOUS
 10
-2.164760
 20
1.013079
  0
SEQEND
  8
0
  0
POLYLINE
  8
PLAN_1
 62
     5
  6
CONTINUOUS
 66
     1
 40
0.003000
 41
0.003000
  0
VERTEX
  8
PLAN_1
 62
     5
  6
CONTINUOUS
 10
-2.164760
 20
1.005457
  0
VERTEX
  8
PLAN_1
 62
     5
  6
CONTINUOUS
 10
-2.164760
 20
1.013079
  0
SEQEND
  8
0
  0
POLYLINE
  8
PLAN_1
 62
     5
  6
CONTINUOUS
 66
     1
 40
0.003000
 41
0.003000
  0
VERTEX
  8
PLAN_1
 62
     5
  6
CONTINUOUS
 10
-2.164760
 20
1.013079
  0
VERTEX
  8
PLAN_1
 62
     5
  6
CONTINUOUS
 10
-2.164311
 20
1.019354
  0
VERTEX
  8
PLAN_1
 62
     5
  6
CONTINUOUS
 10
-2.164311
 20
1.021150
  0
SEQEND
  8
0
  0
POLYLINE
  8
PLAN_1
 62
     5
  6
CONTINUOUS
 66
     1
 40
0.003000
 41
0.003000
  0
VERTEX
  8
PLAN_1
 62
     5
  6
CONTINUOUS
 10
-2.162965
 20
1.029220
  0
VERTEX
  8
PLAN_1
 62
     5
  6
CONTINUOUS
 10
-2.161618
 20
1.035949
  0
VERTEX
  8
PLAN_1
 62
     5
  6
CONTINUOUS
 10
-2.161169
 20
1.037740
  0
SEQEND
  8
0
  0
POLYLINE
  8
PLAN_1
 62
     5
  6
CONTINUOUS
 66
     1
 40
0.003000
 41
0.003000
  0
VERTEX
  8
PLAN_1
 62
     5
  6
CONTINUOUS
 10
-2.159378
 20
1.045811
  0
VERTEX
  8
PLAN_1
 62
     5
  6
CONTINUOUS
 10
-2.158929
 20
1.046709
  0
VERTEX
  8
PLAN_1
 62
     5
  6
CONTINUOUS
 10
-2.156685
 20
1.053437
  0
SEQEND
  8
0
  0
POLYLINE
  8
PLAN_1
 62
     5
  6
CONTINUOUS
 66
     1
 40
0.003000
 41
0.003000
  0
VERTEX
  8
PLAN_1
 62
     5
  6
CONTINUOUS
 10
-2.153996
 20
1.061508
  0
VERTEX
  8
PLAN_1
 62
     5
  6
CONTINUOUS
 10
-2.152201
 20
1.065543
  0
VERTEX
  8
PLAN_1
 62
     5
  6
CONTINUOUS
 10
-2.150858
 20
1.069130
  0
SEQEND
  8
0
  0
POLYLINE
  8
PLAN_1
 62
     5
  6
CONTINUOUS
 66
     1
 40
0.003000
 41
0.003000
  0
VERTEX
  8
PLAN_1
 62
     5
  6
CONTINUOUS
 10
-2.147268
 20
1.076752
  0
VERTEX
  8
PLAN_1
 62
     5
  6
CONTINUOUS
 10
-2.145925
 20
1.078996
  0
VERTEX
  8
PLAN_1
 62
     5
  6
CONTINUOUS
 10
-2.143232
 20
1.083929
  0
SEQEND
  8
0
  0
POLYLINE
  8
PLAN_1
 62
     5
  6
CONTINUOUS
 66
     1
 40
0.003000
 41
0.003000
  0
VERTEX
  8
PLAN_1
 62
     5
  6
CONTINUOUS
 10
-2.138748
 20
1.091102
  0
VERTEX
  8
PLAN_1
 62
     5
  6
CONTINUOUS
 10
-2.137406
 20
1.092898
  0
VERTEX
  8
PLAN_1
 62
     5
  6
CONTINUOUS
 10
-2.133819
 20
1.097831
  0
SEQEND
  8
0
  0
POLYLINE
  8
PLAN_1
 62
     5
  6
CONTINUOUS
 66
     1
 40
0.003000
 41
0.003000
  0
VERTEX
  8
PLAN_1
 62
     5
  6
CONTINUOUS
 10
-2.128886
 20
1.104555
  0
VERTEX
  8
PLAN_1
 62
     5
  6
CONTINUOUS
 10
-2.127091
 20
1.106350
  0
VERTEX
  8
PLAN_1
 62
     5
  6
CONTINUOUS
 10
-2.123055
 20
1.110386
  0
SEQEND
  8
0
  0
POLYLINE
  8
PLAN_1
 62
     5
  6
CONTINUOUS
 66
     1
 40
0.003000
 41
0.003000
  0
VERTEX
  8
PLAN_1
 62
     5
  6
CONTINUOUS
 10
-2.117224
 20
1.116213
  0
VERTEX
  8
PLAN_1
 62
     5
  6
CONTINUOUS
 10
-2.114535
 20
1.119354
  0
VERTEX
  8
PLAN_1
 62
     5
  6
CONTINUOUS
 10
-2.110949
 20
1.122043
  0
SEQEND
  8
0
  0
POLYLINE
  8
PLAN_1
 62
     5
  6
CONTINUOUS
 66
     1
 40
0.003000
 41
0.003000
  0
VERTEX
  8
PLAN_1
 62
     5
  6
CONTINUOUS
 10
-2.104669
 20
1.126976
  0
VERTEX
  8
PLAN_1
 62
     5
  6
CONTINUOUS
 10
-2.098839
 20
1.131012
  0
VERTEX
  8
PLAN_1
 62
     5
  6
CONTINUOUS
 10
-2.097496
 20
1.131909
  0
SEQEND
  8
0
  0
POLYLINE
  8
PLAN_1
 62
     5
  6
CONTINUOUS
 66
     1
 40
0.003000
 41
0.003000
  0
VERTEX
  8
PLAN_1
 62
     5
  6
CONTINUOUS
 10
-2.090768
 20
1.135945
  0
VERTEX
  8
PLAN_1
 62
     5
  6
CONTINUOUS
 10
-2.090319
 20
1.136394
  0
VERTEX
  8
PLAN_1
 62
     5
  6
CONTINUOUS
 10
-2.083146
 20
1.139980
  0
SEQEND
  8
0
  0
POLYLINE
  8
PLAN_1
 62
     5
  6
CONTINUOUS
 66
     1
 40
0.003000
 41
0.003000
  0
VERTEX
  8
PLAN_1
 62
     5
  6
CONTINUOUS
 10
-2.075524
 20
1.143567
  0
VERTEX
  8
PLAN_1
 62
     5
  6
CONTINUOUS
 10
-2.070591
 20
1.145811
  0
VERTEX
  8
PLAN_1
 62
     5
  6
CONTINUOUS
 10
-2.067898
 20
1.146709
  0
SEQEND
  8
0
  0
POLYLINE
  8
PLAN_1
 62
     5
  6
CONTINUOUS
 66
     1
 40
0.003000
 41
0.003000
  0
VERTEX
  8
PLAN_1
 62
     5
  6
CONTINUOUS
 10
-2.060276
 20
1.149398
  0
VERTEX
  8
PLAN_1
 62
     5
  6
CONTINUOUS
 10
-2.059378
 20
1.149846
  0
VERTEX
  8
PLAN_1
 62
     5
  6
CONTINUOUS
 10
-2.052205
 20
1.151638
  0
SEQEND
  8
0
  0
POLYLINE
  8
PLAN_1
 62
     5
  6
CONTINUOUS
 66
     1
 40
0.003000
 41
0.003000
  0
VERTEX
  8
PLAN_1
 62
     5
  6
CONTINUOUS
 10
-2.044134
 20
1.153882
  0
VERTEX
  8
PLAN_1
 62
     5
  6
CONTINUOUS
 10
-2.036063
 20
1.155228
  0
SEQEND
  8
0
  0
POLYLINE
  8
PLAN_1
 62
     5
  6
CONTINUOUS
 66
     1
 40
0.003000
 41
0.003000
  0
VERTEX
  8
PLAN_1
 62
     5
  6
CONTINUOUS
 10
-2.027543
 20
1.156571
  0
VERTEX
  8
PLAN_1
 62
     5
  6
CONTINUOUS
 10
-2.021264
 20
1.157469
  0
VERTEX
  8
PLAN_1
 62
     5
  6
CONTINUOUS
 10
-2.019469
 20
1.157917
  0
SEQEND
  8
0
  0
POLYLINE
  8
PLAN_1
 62
     5
  6
CONTINUOUS
 66
     1
 40
0.003000
 41
0.003000
  0
VERTEX
  8
PLAN_1
 62
     5
  6
CONTINUOUS
 10
-2.010949
 20
1.158366
  0
VERTEX
  8
PLAN_1
 62
     5
  6
CONTINUOUS
 10
-2.006913
 20
1.158815
  0
VERTEX
  8
PLAN_1
 62
     5
  6
CONTINUOUS
 10
-2.002878
 20
1.158815
  0
SEQEND
  8
0
  0
POLYLINE
  8
PLAN_1
 62
     5
  6
CONTINUOUS
 66
     1
 40
0.003000
 41
0.003000
  0
VERTEX
  8
PLAN_1
 62
     5
  6
CONTINUOUS
 10
-1.994358
 20
1.159264
  0
VERTEX
  8
PLAN_1
 62
     5
  6
CONTINUOUS
 10
-1.991220
 20
1.159264
  0
VERTEX
  8
PLAN_1
 62
     5
  6
CONTINUOUS
 10
-1.986287
 20
1.159264
  0
SEQEND
  8
0
  0
POLYLINE
  8
PLAN_1
 62
     5
  6
CONTINUOUS
 66
     1
 40
0.003000
 41
0.003000
  0
VERTEX
  8
PLAN_1
 62
     5
  6
CONTINUOUS
 10
-1.977768
 20
1.159264
  0
VERTEX
  8
PLAN_1
 62
     5
  6
CONTINUOUS
 10
-1.969248
 20
1.159264
  0
SEQEND
  8
0
  0
POLYLINE
  8
PLAN_1
 62
     5
  6
CONTINUOUS
 66
     1
 40
0.003000
 41
0.003000
  0
VERTEX
  8
PLAN_1
 62
     5
  6
CONTINUOUS
 10
-1.961177
 20
1.159264
  0
VERTEX
  8
PLAN_1
 62
     5
  6
CONTINUOUS
 10
-1.952657
 20
1.159264
  0
SEQEND
  8
0
  0
POLYLINE
  8
PLAN_1
 62
     5
  6
CONTINUOUS
 66
     1
 40
0.003000
 41
0.003000
  0
VERTEX
  8
PLAN_1
 62
     5
  6
CONTINUOUS
 10
-1.944583
 20
1.159264
  0
VERTEX
  8
PLAN_1
 62
     5
  6
CONTINUOUS
 10
-1.936063
 20
1.159264
  0
SEQEND
  8
0
  0
POLYLINE
  8
PLAN_1
 62
     5
  6
CONTINUOUS
 66
     1
 40
0.003000
 41
0.003000
  0
VERTEX
  8
PLAN_1
 62
     5
  6
CONTINUOUS
 10
-1.927992
 20
1.159264
  0
VERTEX
  8
PLAN_1
 62
     5
  6
CONTINUOUS
 10
-1.919472
 20
1.159264
  0
SEQEND
  8
0
  0
POLYLINE
  8
PLAN_1
 62
     5
  6
CONTINUOUS
 66
     1
 40
0.003000
 41
0.003000
  0
VERTEX
  8
PLAN_1
 62
     5
  6
CONTINUOUS
 10
-1.910953
 20
1.159264
  0
VERTEX
  8
PLAN_1
 62
     5
  6
CONTINUOUS
 10
-1.902882
 20
1.159264
  0
SEQEND
  8
0
  0
POLYLINE
  8
PLAN_1
 62
     5
  6
CONTINUOUS
 66
     1
 40
0.003000
 41
0.003000
  0
VERTEX
  8
PLAN_1
 62
     5
  6
CONTINUOUS
 10
-1.894362
 20
1.159264
  0
VERTEX
  8
PLAN_1
 62
     5
  6
CONTINUOUS
 10
-1.888531
 20
1.159264
  0
VERTEX
  8
PLAN_1
 62
     5
  6
CONTINUOUS
 10
-1.886291
 20
1.159264
  0
SEQEND
  8
0
  0
POLYLINE
  8
PLAN_1
 62
     5
  6
CONTINUOUS
 66
     1
 40
0.003000
 41
0.003000
  0
VERTEX
  8
PLAN_1
 62
     5
  6
CONTINUOUS
 10
-1.877772
 20
1.159264
  0
VERTEX
  8
PLAN_1
 62
     5
  6
CONTINUOUS
 10
-1.869697
 20
1.159264
  0
SEQEND
  8
0
  0
POLYLINE
  8
PLAN_1
 62
     5
  6
CONTINUOUS
 66
     1
 40
0.003000
 41
0.003000
  0
VERTEX
  8
PLAN_1
 62
     5
  6
CONTINUOUS
 10
-1.861177
 20
1.159264
  0
VERTEX
  8
PLAN_1
 62
     5
  6
CONTINUOUS
 10
-1.852657
 20
1.159264
  0
SEQEND
  8
0
  0
POLYLINE
  8
PLAN_1
 62
     5
  6
CONTINUOUS
 66
     1
 40
0.003000
 41
0.003000
  0
VERTEX
  8
PLAN_1
 62
     5
  6
CONTINUOUS
 10
-1.844587
 20
1.159264
  0
VERTEX
  8
PLAN_1
 62
     5
  6
CONTINUOUS
 10
-1.836067
 20
1.159264
  0
SEQEND
  8
0
  0
POLYLINE
  8
PLAN_1
 62
     5
  6
CONTINUOUS
 66
     1
 40
0.003000
 41
0.003000
  0
VERTEX
  8
PLAN_1
 62
     5
  6
CONTINUOUS
 10
-1.827996
 20
1.159264
  0
VERTEX
  8
PLAN_1
 62
     5
  6
CONTINUOUS
 10
-1.819476
 20
1.159264
  0
SEQEND
  8
0
  0
POLYLINE
  8
PLAN_1
 62
     5
  6
CONTINUOUS
 66
     1
 40
0.003000
 41
0.003000
  0
VERTEX
  8
PLAN_1
 62
     5
  6
CONTINUOUS
 10
-1.811406
 20
1.159264
  0
VERTEX
  8
PLAN_1
 62
     5
  6
CONTINUOUS
 10
-1.802886
 20
1.159264
  0
SEQEND
  8
0
  0
POLYLINE
  8
PLAN_1
 62
     5
  6
CONTINUOUS
 66
     1
 40
0.003000
 41
0.003000
  0
VERTEX
  8
PLAN_1
 62
     5
  6
CONTINUOUS
 10
-1.794366
 20
1.159264
  0
VERTEX
  8
PLAN_1
 62
     5
  6
CONTINUOUS
 10
-1.786291
 20
1.159264
  0
SEQEND
  8
0
  0
POLYLINE
  8
PLAN_1
 62
     5
  6
CONTINUOUS
 66
     1
 40
0.003000
 41
0.003000
  0
VERTEX
  8
PLAN_1
 62
     5
  6
CONTINUOUS
 10
-1.777772
 20
1.159264
  0
VERTEX
  8
PLAN_1
 62
     5
  6
CONTINUOUS
 10
-1.769701
 20
1.159264
  0
SEQEND
  8
0
  0
POLYLINE
  8
PLAN_1
 62
     5
  6
CONTINUOUS
 66
     1
 40
0.003000
 41
0.003000
  0
VERTEX
  8
PLAN_1
 62
     5
  6
CONTINUOUS
 10
-1.761181
 20
1.159264
  0
VERTEX
  8
PLAN_1
 62
     5
  6
CONTINUOUS
 10
-1.753110
 20
1.159264
  0
SEQEND
  8
0
  0
POLYLINE
  8
PLAN_1
 62
     5
  6
CONTINUOUS
 66
     1
 40
0.003000
 41
0.003000
  0
VERTEX
  8
PLAN_1
 62
     5
  6
CONTINUOUS
 10
-1.744591
 20
1.159264
  0
VERTEX
  8
PLAN_1
 62
     5
  6
CONTINUOUS
 10
-1.736071
 20
1.159264
  0
SEQEND
  8
0
  0
POLYLINE
  8
PLAN_1
 62
     5
  6
CONTINUOUS
 66
     1
 40
0.003000
 41
0.003000
  0
VERTEX
  8
PLAN_1
 62
     5
  6
CONTINUOUS
 10
-1.728000
 20
1.159264
  0
VERTEX
  8
PLAN_1
 62
     5
  6
CONTINUOUS
 10
-1.724409
 20
1.159264
  0
VERTEX
  8
PLAN_1
 62
     5
  6
CONTINUOUS
 10
-1.719480
 20
1.159264
  0
SEQEND
  8
0
  0
POLYLINE
  8
PLAN_1
 62
     5
  6
CONTINUOUS
 66
     1
 40
0.003000
 41
0.003000
  0
VERTEX
  8
PLAN_1
 62
     5
  6
CONTINUOUS
 10
-1.711406
 20
1.159264
  0
VERTEX
  8
PLAN_1
 62
     5
  6
CONTINUOUS
 10
-1.702886
 20
1.159264
  0
SEQEND
  8
0
  0
POLYLINE
  8
PLAN_1
 62
     5
  6
CONTINUOUS
 66
     1
 40
0.003000
 41
0.003000
  0
VERTEX
  8
PLAN_1
 62
     5
  6
CONTINUOUS
 10
-1.694815
 20
1.159264
  0
VERTEX
  8
PLAN_1
 62
     5
  6
CONTINUOUS
 10
-1.686295
 20
1.159264
  0
SEQEND
  8
0
  0
POLYLINE
  8
PLAN_1
 62
     5
  6
CONTINUOUS
 66
     1
 40
0.003000
 41
0.003000
  0
VERTEX
  8
PLAN_1
 62
     5
  6
CONTINUOUS
 10
-1.677776
 20
1.159264
  0
VERTEX
  8
PLAN_1
 62
     5
  6
CONTINUOUS
 10
-1.669705
 20
1.159264
  0
SEQEND
  8
0
  0
POLYLINE
  8
PLAN_1
 62
     5
  6
CONTINUOUS
 66
     1
 40
0.003000
 41
0.003000
  0
VERTEX
  8
PLAN_1
 62
     5
  6
CONTINUOUS
 10
-1.661185
 20
1.159264
  0
VERTEX
  8
PLAN_1
 62
     5
  6
CONTINUOUS
 10
-1.653114
 20
1.159264
  0
SEQEND
  8
0
  0
POLYLINE
  8
PLAN_1
 62
     5
  6
CONTINUOUS
 66
     1
 40
0.003000
 41
0.003000
  0
VERTEX
  8
PLAN_1
 62
     5
  6
CONTINUOUS
 10
-1.644591
 20
1.159264
  0
VERTEX
  8
PLAN_1
 62
     5
  6
CONTINUOUS
 10
-1.636520
 20
1.159264
  0
SEQEND
  8
0
  0
POLYLINE
  8
PLAN_1
 62
     5
  6
CONTINUOUS
 66
     1
 40
0.003000
 41
0.003000
  0
VERTEX
  8
PLAN_1
 62
     5
  6
CONTINUOUS
 10
-1.628000
 20
1.159264
  0
VERTEX
  8
PLAN_1
 62
     5
  6
CONTINUOUS
 10
-1.619480
 20
1.159264
  0
SEQEND
  8
0
  0
POLYLINE
  8
PLAN_1
 62
     5
  6
CONTINUOUS
 66
     1
 40
0.003000
 41
0.003000
  0
VERTEX
  8
PLAN_1
 62
     5
  6
CONTINUOUS
 10
-1.611409
 20
1.159264
  0
VERTEX
  8
PLAN_1
 62
     5
  6
CONTINUOUS
 10
-1.602890
 20
1.159264
  0
SEQEND
  8
0
  0
POLYLINE
  8
PLAN_1
 62
     5
  6
CONTINUOUS
 66
     1
 40
0.003000
 41
0.003000
  0
VERTEX
  8
PLAN_1
 62
     5
  6
CONTINUOUS
 10
-1.594819
 20
1.159264
  0
VERTEX
  8
PLAN_1
 62
     5
  6
CONTINUOUS
 10
-1.586299
 20
1.159264
  0
SEQEND
  8
0
  0
POLYLINE
  8
PLAN_1
 62
     5
  6
CONTINUOUS
 66
     1
 40
0.003000
 41
0.003000
  0
VERTEX
  8
PLAN_1
 62
     5
  6
CONTINUOUS
 10
-1.578228
 20
1.159264
  0
VERTEX
  8
PLAN_1
 62
     5
  6
CONTINUOUS
 10
-1.569705
 20
1.159264
  0
SEQEND
  8
0
  0
POLYLINE
  8
PLAN_1
 62
     5
  6
CONTINUOUS
 66
     1
 40
0.003000
 41
0.003000
  0
VERTEX
  8
PLAN_1
 62
     5
  6
CONTINUOUS
 10
-1.561185
 20
1.159264
  0
VERTEX
  8
PLAN_1
 62
     5
  6
CONTINUOUS
 10
-1.553114
 20
1.159264
  0
SEQEND
  8
0
  0
POLYLINE
  8
PLAN_1
 62
     5
  6
CONTINUOUS
 66
     1
 40
0.003000
 41
0.003000
  0
VERTEX
  8
PLAN_1
 62
     5
  6
CONTINUOUS
 10
-1.544594
 20
1.159264
  0
VERTEX
  8
PLAN_1
 62
     5
  6
CONTINUOUS
 10
-1.536524
 20
1.159264
  0
SEQEND
  8
0
  0
POLYLINE
  8
PLAN_1
 62
     5
  6
CONTINUOUS
 66
     1
 40
0.003000
 41
0.003000
  0
VERTEX
  8
PLAN_1
 62
     5
  6
CONTINUOUS
 10
-1.528004
 20
1.159264
  0
VERTEX
  8
PLAN_1
 62
     5
  6
CONTINUOUS
 10
-1.520831
 20
1.159264
  0
VERTEX
  8
PLAN_1
 62
     5
  6
CONTINUOUS
 10
-1.519933
 20
1.159264
  0
SEQEND
  8
0
  0
POLYLINE
  8
PLAN_1
 62
     5
  6
CONTINUOUS
 66
     1
 40
0.003000
 41
0.003000
  0
VERTEX
  8
PLAN_1
 62
     5
  6
CONTINUOUS
 10
-1.511413
 20
1.159264
  0
VERTEX
  8
PLAN_1
 62
     5
  6
CONTINUOUS
 10
-1.502894
 20
1.159264
  0
SEQEND
  8
0
  0
POLYLINE
  8
PLAN_1
 62
     5
  6
CONTINUOUS
 66
     1
 40
0.003000
 41
0.003000
  0
VERTEX
  8
PLAN_1
 62
     5
  6
CONTINUOUS
 10
-1.494819
 20
1.159264
  0
VERTEX
  8
PLAN_1
 62
     5
  6
CONTINUOUS
 10
-1.486299
 20
1.159264
  0
SEQEND
  8
0
  0
POLYLINE
  8
PLAN_1
 62
     5
  6
CONTINUOUS
 66
     1
 40
0.003000
 41
0.003000
  0
VERTEX
  8
PLAN_1
 62
     5
  6
CONTINUOUS
 10
-1.478228
 20
1.159264
  0
VERTEX
  8
PLAN_1
 62
     5
  6
CONTINUOUS
 10
-1.469709
 20
1.159264
  0
SEQEND
  8
0
  0
POLYLINE
  8
PLAN_1
 62
     5
  6
CONTINUOUS
 66
     1
 40
0.003000
 41
0.003000
  0
VERTEX
  8
PLAN_1
 62
     5
  6
CONTINUOUS
 10
-1.461638
 20
1.159264
  0
VERTEX
  8
PLAN_1
 62
     5
  6
CONTINUOUS
 10
-1.453118
 20
1.159264
  0
SEQEND
  8
0
  0
POLYLINE
  8
PLAN_1
 62
     5
  6
CONTINUOUS
 66
     1
 40
0.003000
 41
0.003000
  0
VERTEX
  8
PLAN_1
 62
     5
  6
CONTINUOUS
 10
-1.444598
 20
1.159264
  0
VERTEX
  8
PLAN_1
 62
     5
  6
CONTINUOUS
 10
-1.436528
 20
1.159264
  0
SEQEND
  8
0
  0
POLYLINE
  8
PLAN_1
 62
     5
  6
CONTINUOUS
 66
     1
 40
0.003000
 41
0.003000
  0
VERTEX
  8
PLAN_1
 62
     5
  6
CONTINUOUS
 10
-1.428008
 20
1.159264
  0
VERTEX
  8
PLAN_1
 62
     5
  6
CONTINUOUS
 10
-1.419933
 20
1.159264
  0
SEQEND
  8
0
  0
POLYLINE
  8
PLAN_1
 62
     5
  6
CONTINUOUS
 66
     1
 40
0.003000
 41
0.003000
  0
VERTEX
  8
PLAN_1
 62
     5
  6
CONTINUOUS
 10
-1.411413
 20
1.159264
  0
VERTEX
  8
PLAN_1
 62
     5
  6
CONTINUOUS
 10
-1.403343
 20
1.159264
  0
SEQEND
  8
0
  0
POLYLINE
  8
PLAN_1
 62
     5
  6
CONTINUOUS
 66
     1
 40
0.003000
 41
0.003000
  0
VERTEX
  8
PLAN_1
 62
     5
  6
CONTINUOUS
 10
-1.394823
 20
1.159264
  0
VERTEX
  8
PLAN_1
 62
     5
  6
CONTINUOUS
 10
-1.386303
 20
1.159264
  0
SEQEND
  8
0
  0
POLYLINE
  8
PLAN_1
 62
     5
  6
CONTINUOUS
 66
     1
 40
0.003000
 41
0.003000
  0
VERTEX
  8
PLAN_1
 62
     5
  6
CONTINUOUS
 10
-1.378232
 20
1.159264
  0
VERTEX
  8
PLAN_1
 62
     5
  6
CONTINUOUS
 10
-1.369713
 20
1.159264
  0
SEQEND
  8
0
  0
POLYLINE
  8
PLAN_1
 62
     5
  6
CONTINUOUS
 66
     1
 40
0.003000
 41
0.003000
  0
VERTEX
  8
PLAN_1
 62
     5
  6
CONTINUOUS
 10
-1.361642
 20
1.159264
  0
VERTEX
  8
PLAN_1
 62
     5
  6
CONTINUOUS
 10
-1.353122
 20
1.159264
  0
SEQEND
  8
0
  0
POLYLINE
  8
PLAN_1
 62
     5
  6
CONTINUOUS
 66
     1
 40
0.003000
 41
0.003000
  0
VERTEX
  8
PLAN_1
 62
     5
  6
CONTINUOUS
 10
-1.345047
 20
1.159264
  0
VERTEX
  8
PLAN_1
 62
     5
  6
CONTINUOUS
 10
-1.336528
 20
1.159264
  0
SEQEND
  8
0
  0
POLYLINE
  8
PLAN_1
 62
     5
  6
CONTINUOUS
 66
     1
 40
0.003000
 41
0.003000
  0
VERTEX
  8
PLAN_1
 62
     5
  6
CONTINUOUS
 10
-1.328008
 20
1.159264
  0
VERTEX
  8
PLAN_1
 62
     5
  6
CONTINUOUS
 10
-1.319937
 20
1.159264
  0
SEQEND
  8
0
  0
POLYLINE
  8
PLAN_1
 62
     5
  6
CONTINUOUS
 66
     1
 40
0.003000
 41
0.003000
  0
VERTEX
  8
PLAN_1
 62
     5
  6
CONTINUOUS
 10
-1.311417
 20
1.159264
  0
VERTEX
  8
PLAN_1
 62
     5
  6
CONTINUOUS
 10
-1.303346
 20
1.159264
  0
SEQEND
  8
0
  0
POLYLINE
  8
PLAN_1
 62
     5
  6
CONTINUOUS
 66
     1
 40
0.003000
 41
0.003000
  0
VERTEX
  8
PLAN_1
 62
     5
  6
CONTINUOUS
 10
-1.294827
 20
1.159264
  0
VERTEX
  8
PLAN_1
 62
     5
  6
CONTINUOUS
 10
-1.286756
 20
1.159264
  0
SEQEND
  8
0
  0
POLYLINE
  8
PLAN_1
 62
     5
  6
CONTINUOUS
 66
     1
 40
0.003000
 41
0.003000
  0
VERTEX
  8
PLAN_1
 62
     5
  6
CONTINUOUS
 10
-1.278236
 20
1.159264
  0
VERTEX
  8
PLAN_1
 62
     5
  6
CONTINUOUS
 10
-1.269717
 20
1.159264
  0
SEQEND
  8
0
  0
POLYLINE
  8
PLAN_1
 62
     5
  6
CONTINUOUS
 66
     1
 40
0.003000
 41
0.003000
  0
VERTEX
  8
PLAN_1
 62
     5
  6
CONTINUOUS
 10
-1.261642
 20
1.159264
  0
VERTEX
  8
PLAN_1
 62
     5
  6
CONTINUOUS
 10
-1.253122
 20
1.159264
  0
SEQEND
  8
0
  0
POLYLINE
  8
PLAN_1
 62
     5
  6
CONTINUOUS
 66
     1
 40
0.003000
 41
0.003000
  0
VERTEX
  8
PLAN_1
 62
     5
  6
CONTINUOUS
 10
-1.245051
 20
1.159264
  0
VERTEX
  8
PLAN_1
 62
     5
  6
CONTINUOUS
 10
-1.236531
 20
1.159264
  0
SEQEND
  8
0
  0
POLYLINE
  8
PLAN_1
 62
     5
  6
CONTINUOUS
 66
     1
 40
0.003000
 41
0.003000
  0
VERTEX
  8
PLAN_1
 62
     5
  6
CONTINUOUS
 10
-1.228461
 20
1.159264
  0
VERTEX
  8
PLAN_1
 62
     5
  6
CONTINUOUS
 10
-1.219941
 20
1.159264
  0
SEQEND
  8
0
  0
POLYLINE
  8
PLAN_1
 62
     5
  6
CONTINUOUS
 66
     1
 40
0.003000
 41
0.003000
  0
VERTEX
  8
PLAN_1
 62
     5
  6
CONTINUOUS
 10
-1.211421
 20
1.159264
  0
VERTEX
  8
PLAN_1
 62
     5
  6
CONTINUOUS
 10
-1.203350
 20
1.159264
  0
SEQEND
  8
0
  0
POLYLINE
  8
PLAN_1
 62
     5
  6
CONTINUOUS
 66
     1
 40
0.003000
 41
0.003000
  0
VERTEX
  8
PLAN_1
 62
     5
  6
CONTINUOUS
 10
-1.194831
 20
1.159264
  0
VERTEX
  8
PLAN_1
 62
     5
  6
CONTINUOUS
 10
-1.186756
 20
1.159264
  0
SEQEND
  8
0
  0
POLYLINE
  8
PLAN_1
 62
     5
  6
CONTINUOUS
 66
     1
 40
0.003000
 41
0.003000
  0
VERTEX
  8
PLAN_1
 62
     5
  6
CONTINUOUS
 10
-1.178236
 20
1.159264
  0
VERTEX
  8
PLAN_1
 62
     5
  6
CONTINUOUS
 10
-1.170165
 20
1.159264
  0
SEQEND
  8
0
  0
POLYLINE
  8
PLAN_1
 62
     5
  6
CONTINUOUS
 66
     1
 40
0.003000
 41
0.003000
  0
VERTEX
  8
PLAN_1
 62
     5
  6
CONTINUOUS
 10
-1.161646
 20
1.159264
  0
VERTEX
  8
PLAN_1
 62
     5
  6
CONTINUOUS
 10
-1.153126
 20
1.159264
  0
SEQEND
  8
0
  0
POLYLINE
  8
PLAN_1
 62
     5
  6
CONTINUOUS
 66
     1
 40
0.003000
 41
0.003000
  0
VERTEX
  8
PLAN_1
 62
     5
  6
CONTINUOUS
 10
-1.145055
 20
1.159264
  0
VERTEX
  8
PLAN_1
 62
     5
  6
CONTINUOUS
 10
-1.136535
 20
1.159264
  0
SEQEND
  8
0
  0
POLYLINE
  8
PLAN_1
 62
     5
  6
CONTINUOUS
 66
     1
 40
0.003000
 41
0.003000
  0
VERTEX
  8
PLAN_1
 62
     5
  6
CONTINUOUS
 10
-1.128465
 20
1.159264
  0
VERTEX
  8
PLAN_1
 62
     5
  6
CONTINUOUS
 10
-1.119945
 20
1.159264
  0
SEQEND
  8
0
  0
POLYLINE
  8
PLAN_1
 62
     5
  6
CONTINUOUS
 66
     1
 40
0.003000
 41
0.003000
  0
VERTEX
  8
PLAN_1
 62
     5
  6
CONTINUOUS
 10
-1.111870
 20
1.159264
  0
VERTEX
  8
PLAN_1
 62
     5
  6
CONTINUOUS
 10
-1.103350
 20
1.159264
  0
SEQEND
  8
0
  0
POLYLINE
  8
PLAN_1
 62
     5
  6
CONTINUOUS
 66
     1
 40
0.003000
 41
0.003000
  0
VERTEX
  8
PLAN_1
 62
     5
  6
CONTINUOUS
 10
-1.094831
 20
1.159264
  0
VERTEX
  8
PLAN_1
 62
     5
  6
CONTINUOUS
 10
-1.091693
 20
1.159264
  0
VERTEX
  8
PLAN_1
 62
     5
  6
CONTINUOUS
 10
-1.086760
 20
1.159264
  0
SEQEND
  8
0
  0
POLYLINE
  8
PLAN_1
 62
     5
  6
CONTINUOUS
 66
     1
 40
0.003000
 41
0.003000
  0
VERTEX
  8
PLAN_1
 62
     5
  6
CONTINUOUS
 10
-1.078240
 20
1.159264
  0
VERTEX
  8
PLAN_1
 62
     5
  6
CONTINUOUS
 10
-1.070169
 20
1.159264
  0
SEQEND
  8
0
  0
POLYLINE
  8
PLAN_1
 62
     5
  6
CONTINUOUS
 66
     1
 40
0.003000
 41
0.003000
  0
VERTEX
  8
PLAN_1
 62
     5
  6
CONTINUOUS
 10
-1.061650
 20
1.159264
  0
VERTEX
  8
PLAN_1
 62
     5
  6
CONTINUOUS
 10
-1.053579
 20
1.159264
  0
SEQEND
  8
0
  0
POLYLINE
  8
PLAN_1
 62
     5
  6
CONTINUOUS
 66
     1
 40
0.003000
 41
0.003000
  0
VERTEX
  8
PLAN_1
 62
     5
  6
CONTINUOUS
 10
-1.045055
 20
1.159264
  0
VERTEX
  8
PLAN_1
 62
     5
  6
CONTINUOUS
 10
-1.036535
 20
1.159264
  0
SEQEND
  8
0
  0
POLYLINE
  8
PLAN_1
 62
     5
  6
CONTINUOUS
 66
     1
 40
0.003000
 41
0.003000
  0
VERTEX
  8
PLAN_1
 62
     5
  6
CONTINUOUS
 10
-1.028465
 20
1.159264
  0
VERTEX
  8
PLAN_1
 62
     5
  6
CONTINUOUS
 10
-1.019945
 20
1.159264
  0
SEQEND
  8
0
  0
POLYLINE
  8
PLAN_1
 62
     5
  6
CONTINUOUS
 66
     1
 40
0.003000
 41
0.003000
  0
VERTEX
  8
PLAN_1
 62
     5
  6
CONTINUOUS
 10
-1.011874
 20
1.159264
  0
VERTEX
  8
PLAN_1
 62
     5
  6
CONTINUOUS
 10
-1.003354
 20
1.159264
  0
SEQEND
  8
0
  0
POLYLINE
  8
PLAN_1
 62
     5
  6
CONTINUOUS
 66
     1
 40
0.003000
 41
0.003000
  0
VERTEX
  8
PLAN_1
 62
     5
  6
CONTINUOUS
 10
-0.995283
 20
1.159264
  0
VERTEX
  8
PLAN_1
 62
     5
  6
CONTINUOUS
 10
-0.986764
 20
1.159264
  0
SEQEND
  8
0
  0
POLYLINE
  8
PLAN_1
 62
     5
  6
CONTINUOUS
 66
     1
 40
0.003000
 41
0.003000
  0
VERTEX
  8
PLAN_1
 62
     5
  6
CONTINUOUS
 10
-0.978244
 20
1.159264
  0
VERTEX
  8
PLAN_1
 62
     5
  6
CONTINUOUS
 10
-0.970169
 20
1.159264
  0
SEQEND
  8
0
  0
POLYLINE
  8
PLAN_1
 62
     5
  6
CONTINUOUS
 66
     1
 40
0.003000
 41
0.003000
  0
VERTEX
  8
PLAN_1
 62
     5
  6
CONTINUOUS
 10
-0.961650
 20
1.159264
  0
VERTEX
  8
PLAN_1
 62
     5
  6
CONTINUOUS
 10
-0.953579
 20
1.159264
  0
SEQEND
  8
0
  0
POLYLINE
  8
PLAN_1
 62
     5
  6
CONTINUOUS
 66
     1
 40
0.003000
 41
0.003000
  0
VERTEX
  8
PLAN_1
 62
     5
  6
CONTINUOUS
 10
-0.945059
 20
1.159264
  0
VERTEX
  8
PLAN_1
 62
     5
  6
CONTINUOUS
 10
-0.936988
 20
1.159264
  0
SEQEND
  8
0
  0
POLYLINE
  8
PLAN_1
 62
     5
  6
CONTINUOUS
 66
     1
 40
0.003000
 41
0.003000
  0
VERTEX
  8
PLAN_1
 62
     5
  6
CONTINUOUS
 10
-0.928469
 20
1.159264
  0
VERTEX
  8
PLAN_1
 62
     5
  6
CONTINUOUS
 10
-0.919949
 20
1.159264
  0
SEQEND
  8
0
  0
POLYLINE
  8
PLAN_1
 62
     5
  6
CONTINUOUS
 66
     1
 40
0.003000
 41
0.003000
  0
VERTEX
  8
PLAN_1
 62
     5
  6
CONTINUOUS
 10
-0.911878
 20
1.159264
  0
VERTEX
  8
PLAN_1
 62
     5
  6
CONTINUOUS
 10
-0.903358
 20
1.159264
  0
SEQEND
  8
0
  0
POLYLINE
  8
PLAN_1
 62
     5
  6
CONTINUOUS
 66
     1
 40
0.003000
 41
0.003000
  0
VERTEX
  8
PLAN_1
 62
     5
  6
CONTINUOUS
 10
-0.895283
 20
1.159264
  0
VERTEX
  8
PLAN_1
 62
     5
  6
CONTINUOUS
 10
-0.886764
 20
1.159264
  0
SEQEND
  8
0
  0
POLYLINE
  8
PLAN_1
 62
     5
  6
CONTINUOUS
 66
     1
 40
0.003000
 41
0.003000
  0
VERTEX
  8
PLAN_1
 62
     5
  6
CONTINUOUS
 10
-0.878693
 20
1.159264
  0
VERTEX
  8
PLAN_1
 62
     5
  6
CONTINUOUS
 10
-0.870173
 20
1.159264
  0
SEQEND
  8
0
  0
POLYLINE
  8
PLAN_1
 62
     5
  6
CONTINUOUS
 66
     1
 40
0.003000
 41
0.003000
  0
VERTEX
  8
PLAN_1
 62
     5
  6
CONTINUOUS
 10
-0.861654
 20
1.159264
  0
VERTEX
  8
PLAN_1
 62
     5
  6
CONTINUOUS
 10
-0.853583
 20
1.159264
  0
SEQEND
  8
0
  0
POLYLINE
  8
PLAN_1
 62
     5
  6
CONTINUOUS
 66
     1
 40
0.003000
 41
0.003000
  0
VERTEX
  8
PLAN_1
 62
     5
  6
CONTINUOUS
 10
-0.845063
 20
1.159264
  0
VERTEX
  8
PLAN_1
 62
     5
  6
CONTINUOUS
 10
-0.836992
 20
1.159264
  0
SEQEND
  8
0
  0
POLYLINE
  8
PLAN_1
 62
     5
  6
CONTINUOUS
 66
     1
 40
0.003000
 41
0.003000
  0
VERTEX
  8
PLAN_1
 62
     5
  6
CONTINUOUS
 10
-0.828472
 20
1.159264
  0
VERTEX
  8
PLAN_1
 62
     5
  6
CONTINUOUS
 10
-0.820398
 20
1.159264
  0
SEQEND
  8
0
  0
POLYLINE
  8
PLAN_1
 62
     5
  6
CONTINUOUS
 66
     1
 40
0.003000
 41
0.003000
  0
VERTEX
  8
PLAN_1
 62
     5
  6
CONTINUOUS
 10
-0.811878
 20
1.159264
  0
VERTEX
  8
PLAN_1
 62
     5
  6
CONTINUOUS
 10
-0.803358
 20
1.159264
  0
SEQEND
  8
0
  0
POLYLINE
  8
PLAN_1
 62
     5
  6
CONTINUOUS
 66
     1
 40
0.003000
 41
0.003000
  0
VERTEX
  8
PLAN_1
 62
     5
  6
CONTINUOUS
 10
-0.795287
 20
1.159264
  0
VERTEX
  8
PLAN_1
 62
     5
  6
CONTINUOUS
 10
-0.788114
 20
1.159264
  0
VERTEX
  8
PLAN_1
 62
     5
  6
CONTINUOUS
 10
-0.786768
 20
1.159264
  0
SEQEND
  8
0
  0
POLYLINE
  8
PLAN_1
 62
     5
  6
CONTINUOUS
 66
     1
 40
0.003000
 41
0.003000
  0
VERTEX
  8
PLAN_1
 62
     5
  6
CONTINUOUS
 10
-0.778697
 20
1.159264
  0
VERTEX
  8
PLAN_1
 62
     5
  6
CONTINUOUS
 10
-0.770177
 20
1.159264
  0
SEQEND
  8
0
  0
POLYLINE
  8
PLAN_1
 62
     5
  6
CONTINUOUS
 66
     1
 40
0.003000
 41
0.003000
  0
VERTEX
  8
PLAN_1
 62
     5
  6
CONTINUOUS
 10
-0.762106
 20
1.159264
  0
VERTEX
  8
PLAN_1
 62
     5
  6
CONTINUOUS
 10
-0.753587
 20
1.159264
  0
SEQEND
  8
0
  0
POLYLINE
  8
PLAN_1
 62
     5
  6
CONTINUOUS
 66
     1
 40
0.003000
 41
0.003000
  0
VERTEX
  8
PLAN_1
 62
     5
  6
CONTINUOUS
 10
-0.745067
 20
1.159264
  0
VERTEX
  8
PLAN_1
 62
     5
  6
CONTINUOUS
 10
-0.741028
 20
1.159264
  0
VERTEX
  8
PLAN_1
 62
     5
  6
CONTINUOUS
 10
-0.739685
 20
1.159264
  0
VERTEX
  8
PLAN_1
 62
     5
  6
CONTINUOUS
 10
-0.736992
 20
1.159264
  0
SEQEND
  8
0
  0
POLYLINE
  8
PLAN_1
 62
     5
  6
CONTINUOUS
 66
     1
 40
0.003000
 41
0.003000
  0
VERTEX
  8
PLAN_1
 62
     5
  6
CONTINUOUS
 10
-0.728472
 20
1.158815
  0
VERTEX
  8
PLAN_1
 62
     5
  6
CONTINUOUS
 10
-0.727130
 20
1.158815
  0
VERTEX
  8
PLAN_1
 62
     5
  6
CONTINUOUS
 10
-0.720402
 20
1.157917
  0
SEQEND
  8
0
  0
POLYLINE
  8
PLAN_1
 62
     5
  6
CONTINUOUS
 66
     1
 40
0.003000
 41
0.003000
  0
VERTEX
  8
PLAN_1
 62
     5
  6
CONTINUOUS
 10
-0.711882
 20
1.156571
  0
VERTEX
  8
PLAN_1
 62
     5
  6
CONTINUOUS
 10
-0.705602
 20
1.155228
  0
VERTEX
  8
PLAN_1
 62
     5
  6
CONTINUOUS
 10
-0.703811
 20
1.154780
  0
SEQEND
  8
0
  0
POLYLINE
  8
PLAN_1
 62
     5
  6
CONTINUOUS
 66
     1
 40
0.003000
 41
0.003000
  0
VERTEX
  8
PLAN_1
 62
     5
  6
CONTINUOUS
 10
-0.695740
 20
1.152535
  0
VERTEX
  8
PLAN_1
 62
     5
  6
CONTINUOUS
 10
-0.693047
 20
1.151638
  0
VERTEX
  8
PLAN_1
 62
     5
  6
CONTINUOUS
 10
-0.688114
 20
1.149846
  0
SEQEND
  8
0
  0
POLYLINE
  8
PLAN_1
 62
     5
  6
CONTINUOUS
 66
     1
 40
0.003000
 41
0.003000
  0
VERTEX
  8
PLAN_1
 62
     5
  6
CONTINUOUS
 10
-0.680492
 20
1.146709
  0
VERTEX
  8
PLAN_1
 62
     5
  6
CONTINUOUS
 10
-0.679146
 20
1.146260
  0
VERTEX
  8
PLAN_1
 62
     5
  6
CONTINUOUS
 10
-0.672870
 20
1.143567
  0
SEQEND
  8
0
  0
POLYLINE
  8
PLAN_1
 62
     5
  6
CONTINUOUS
 66
     1
 40
0.003000
 41
0.003000
  0
VERTEX
  8
PLAN_1
 62
     5
  6
CONTINUOUS
 10
-0.665248
 20
1.139531
  0
VERTEX
  8
PLAN_1
 62
     5
  6
CONTINUOUS
 10
-0.664799
 20
1.139083
  0
VERTEX
  8
PLAN_1
 62
     5
  6
CONTINUOUS
 10
-0.658520
 20
1.135047
  0
SEQEND
  8
0
  0
POLYLINE
  8
PLAN_1
 62
     5
  6
CONTINUOUS
 66
     1
 40
0.003000
 41
0.003000
  0
VERTEX
  8
PLAN_1
 62
     5
  6
CONTINUOUS
 10
-0.651795
 20
1.130114
  0
VERTEX
  8
PLAN_1
 62
     5
  6
CONTINUOUS
 10
-0.650449
 20
1.129220
  0
VERTEX
  8
PLAN_1
 62
     5
  6
CONTINUOUS
 10
-0.645067
 20
1.124736
  0
SEQEND
  8
0
  0
POLYLINE
  8
PLAN_1
 62
     5
  6
CONTINUOUS
 66
     1
 40
0.003000
 41
0.003000
  0
VERTEX
  8
PLAN_1
 62
     5
  6
CONTINUOUS
 10
-0.639240
 20
1.118906
  0
VERTEX
  8
PLAN_1
 62
     5
  6
CONTINUOUS
 10
-0.636547
 20
1.116661
  0
VERTEX
  8
PLAN_1
 62
     5
  6
CONTINUOUS
 10
-0.633409
 20
1.113075
  0
SEQEND
  8
0
  0
POLYLINE
  8
PLAN_1
 62
     5
  6
CONTINUOUS
 66
     1
 40
0.003000
 41
0.003000
  0
VERTEX
  8
PLAN_1
 62
     5
  6
CONTINUOUS
 10
-0.628028
 20
1.106799
  0
VERTEX
  8
PLAN_1
 62
     5
  6
CONTINUOUS
 10
-0.623992
 20
1.101417
  0
VERTEX
  8
PLAN_1
 62
     5
  6
CONTINUOUS
 10
-0.623094
 20
1.100071
  0
SEQEND
  8
0
  0
POLYLINE
  8
PLAN_1
 62
     5
  6
CONTINUOUS
 66
     1
 40
0.003000
 41
0.003000
  0
VERTEX
  8
PLAN_1
 62
     5
  6
CONTINUOUS
 10
-0.618161
 20
1.093346
  0
VERTEX
  8
PLAN_1
 62
     5
  6
CONTINUOUS
 10
-0.617713
 20
1.092449
  0
VERTEX
  8
PLAN_1
 62
     5
  6
CONTINUOUS
 10
-0.614126
 20
1.086169
  0
SEQEND
  8
0
  0
POLYLINE
  8
PLAN_1
 62
     5
  6
CONTINUOUS
 66
     1
 40
0.003000
 41
0.003000
  0
VERTEX
  8
PLAN_1
 62
     5
  6
CONTINUOUS
 10
-0.610539
 20
1.078547
  0
VERTEX
  8
PLAN_1
 62
     5
  6
CONTINUOUS
 10
-0.606953
 20
1.071823
  0
VERTEX
  8
PLAN_1
 62
     5
  6
CONTINUOUS
 10
-0.606953
 20
1.070925
  0
SEQEND
  8
0
  0
POLYLINE
  8
PLAN_1
 62
     5
  6
CONTINUOUS
 66
     1
 40
0.003000
 41
0.003000
  0
VERTEX
  8
PLAN_1
 62
     5
  6
CONTINUOUS
 10
-0.603815
 20
1.063299
  0
VERTEX
  8
PLAN_1
 62
     5
  6
CONTINUOUS
 10
-0.602469
 20
1.060161
  0
VERTEX
  8
PLAN_1
 62
     5
  6
CONTINUOUS
 10
-0.601122
 20
1.055228
  0
SEQEND
  8
0
  0
POLYLINE
  8
PLAN_1
 62
     5
  6
CONTINUOUS
 66
     1
 40
0.003000
 41
0.003000
  0
VERTEX
  8
PLAN_1
 62
     5
  6
CONTINUOUS
 10
-0.598433
 20
1.047606
  0
VERTEX
  8
PLAN_1
 62
     5
  6
CONTINUOUS
 10
-0.596189
 20
1.039535
  0
SEQEND
  8
0
  0
POLYLINE
  8
PLAN_1
 62
     5
  6
CONTINUOUS
 66
     1
 40
0.003000
 41
0.003000
  0
VERTEX
  8
PLAN_1
 62
     5
  6
CONTINUOUS
 10
-0.594398
 20
1.031465
  0
VERTEX
  8
PLAN_1
 62
     5
  6
CONTINUOUS
 10
-0.593051
 20
1.022945
  0
SEQEND
  8
0
  0
POLYLINE
  8
PLAN_1
 62
     5
  6
CONTINUOUS
 66
     1
 40
0.003000
 41
0.003000
  0
VERTEX
  8
PLAN_1
 62
     5
  6
CONTINUOUS
 10
-0.591705
 20
1.014870
  0
VERTEX
  8
PLAN_1
 62
     5
  6
CONTINUOUS
 10
-0.590811
 20
1.006799
  0
SEQEND
  8
0
  0
POLYLINE
  8
PLAN_1
 62
     5
  6
CONTINUOUS
 66
     1
 40
0.003000
 41
0.003000
  0
VERTEX
  8
PLAN_1
 62
     5
  6
CONTINUOUS
 10
-0.589913
 20
0.998280
  0
VERTEX
  8
PLAN_1
 62
     5
  6
CONTINUOUS
 10
-0.589016
 20
0.990209
  0
SEQEND
  8
0
  0
POLYLINE
  8
PLAN_1
 62
     5
  6
CONTINUOUS
 66
     1
 40
0.003000
 41
0.003000
  0
VERTEX
  8
PLAN_1
 62
     5
  6
CONTINUOUS
 10
-0.588567
 20
0.981689
  0
VERTEX
  8
PLAN_1
 62
     5
  6
CONTINUOUS
 10
-0.588567
 20
0.973618
  0
SEQEND
  8
0
  0
POLYLINE
  8
PLAN_1
 62
     5
  6
CONTINUOUS
 66
     1
 40
0.003000
 41
0.003000
  0
VERTEX
  8
PLAN_1
 62
     5
  6
CONTINUOUS
 10
-0.588567
 20
0.965098
  0
VERTEX
  8
PLAN_1
 62
     5
  6
CONTINUOUS
 10
-0.588567
 20
0.956579
  0
SEQEND
  8
0
  0
POLYLINE
  8
PLAN_1
 62
     5
  6
CONTINUOUS
 66
     1
 40
0.003000
 41
0.003000
  0
VERTEX
  8
PLAN_1
 62
     5
  6
CONTINUOUS
 10
-0.588567
 20
0.948504
  0
VERTEX
  8
PLAN_1
 62
     5
  6
CONTINUOUS
 10
-0.588567
 20
0.939984
  0
SEQEND
  8
0
  0
POLYLINE
  8
PLAN_1
 62
     5
  6
CONTINUOUS
 66
     1
 40
0.003000
 41
0.003000
  0
VERTEX
  8
PLAN_1
 62
     5
  6
CONTINUOUS
 10
-0.588567
 20
0.931913
  0
VERTEX
  8
PLAN_1
 62
     5
  6
CONTINUOUS
 10
-0.588567
 20
0.923394
  0
SEQEND
  8
0
  0
POLYLINE
  8
PLAN_1
 62
     5
  6
CONTINUOUS
 66
     1
 40
0.003000
 41
0.003000
  0
VERTEX
  8
PLAN_1
 62
     5
  6
CONTINUOUS
 10
-0.588567
 20
0.915323
  0
VERTEX
  8
PLAN_1
 62
     5
  6
CONTINUOUS
 10
-0.588567
 20
0.906803
  0
SEQEND
  8
0
  0
POLYLINE
  8
PLAN_1
 62
     5
  6
CONTINUOUS
 66
     1
 40
0.003000
 41
0.003000
  0
VERTEX
  8
PLAN_1
 62
     5
  6
CONTINUOUS
 10
-0.588567
 20
0.898283
  0
VERTEX
  8
PLAN_1
 62
     5
  6
CONTINUOUS
 10
-0.588567
 20
0.890213
  0
SEQEND
  8
0
  0
POLYLINE
  8
PLAN_1
 62
     5
  6
CONTINUOUS
 66
     1
 40
0.003000
 41
0.003000
  0
VERTEX
  8
PLAN_1
 62
     5
  6
CONTINUOUS
 10
-0.588567
 20
0.881693
  0
VERTEX
  8
PLAN_1
 62
     5
  6
CONTINUOUS
 10
-0.588567
 20
0.873618
  0
SEQEND
  8
0
  0
POLYLINE
  8
PLAN_1
 62
     5
  6
CONTINUOUS
 66
     1
 40
0.003000
 41
0.003000
  0
VERTEX
  8
PLAN_1
 62
     5
  6
CONTINUOUS
 10
-0.588567
 20
0.865098
  0
VERTEX
  8
PLAN_1
 62
     5
  6
CONTINUOUS
 10
-0.588567
 20
0.857028
  0
SEQEND
  8
0
  0
POLYLINE
  8
PLAN_1
 62
     5
  6
CONTINUOUS
 66
     1
 40
0.003000
 41
0.003000
  0
VERTEX
  8
PLAN_1
 62
     5
  6
CONTINUOUS
 10
-0.588567
 20
0.848508
  0
VERTEX
  8
PLAN_1
 62
     5
  6
CONTINUOUS
 10
-0.588567
 20
0.839988
  0
SEQEND
  8
0
  0
POLYLINE
  8
PLAN_1
 62
     5
  6
CONTINUOUS
 66
     1
 40
0.003000
 41
0.003000
  0
VERTEX
  8
PLAN_1
 62
     5
  6
CONTINUOUS
 10
-0.588567
 20
0.831917
  0
VERTEX
  8
PLAN_1
 62
     5
  6
CONTINUOUS
 10
-0.588567
 20
0.823398
  0
SEQEND
  8
0
  0
POLYLINE
  8
PLAN_1
 62
     5
  6
CONTINUOUS
 66
     1
 40
0.003000
 41
0.003000
  0
VERTEX
  8
PLAN_1
 62
     5
  6
CONTINUOUS
 10
-0.588567
 20
0.815327
  0
VERTEX
  8
PLAN_1
 62
     5
  6
CONTINUOUS
 10
-0.588567
 20
0.809047
  0
VERTEX
  8
PLAN_1
 62
     5
  6
CONTINUOUS
 10
-0.588567
 20
0.806807
  0
SEQEND
  8
0
  0
POLYLINE
  8
PLAN_1
 62
     5
  6
CONTINUOUS
 66
     1
 40
0.003000
 41
0.003000
  0
VERTEX
  8
PLAN_1
 62
     5
  6
CONTINUOUS
 10
-0.588567
 20
0.798732
  0
VERTEX
  8
PLAN_1
 62
     5
  6
CONTINUOUS
 10
-0.588567
 20
0.790213
  0
SEQEND
  8
0
  0
POLYLINE
  8
PLAN_1
 62
     5
  6
CONTINUOUS
 66
     1
 40
0.003000
 41
0.003000
  0
VERTEX
  8
PLAN_1
 62
     5
  6
CONTINUOUS
 10
-0.588567
 20
0.781693
  0
VERTEX
  8
PLAN_1
 62
     5
  6
CONTINUOUS
 10
-0.588567
 20
0.773622
  0
SEQEND
  8
0
  0
POLYLINE
  8
PLAN_1
 62
     5
  6
CONTINUOUS
 66
     1
 40
0.003000
 41
0.003000
  0
VERTEX
  8
PLAN_1
 62
     5
  6
CONTINUOUS
 10
-0.588567
 20
0.765102
  0
VERTEX
  8
PLAN_1
 62
     5
  6
CONTINUOUS
 10
-0.588567
 20
0.757031
  0
SEQEND
  8
0
  0
POLYLINE
  8
PLAN_1
 62
     5
  6
CONTINUOUS
 66
     1
 40
0.003000
 41
0.003000
  0
VERTEX
  8
PLAN_1
 62
     5
  6
CONTINUOUS
 10
-0.588567
 20
0.748512
  0
VERTEX
  8
PLAN_1
 62
     5
  6
CONTINUOUS
 10
-0.588567
 20
0.740441
  0
SEQEND
  8
0
  0
POLYLINE
  8
PLAN_1
 62
     5
  6
CONTINUOUS
 66
     1
 40
0.003000
 41
0.003000
  0
VERTEX
  8
PLAN_1
 62
     5
  6
CONTINUOUS
 10
-0.588567
 20
0.731921
  0
VERTEX
  8
PLAN_1
 62
     5
  6
CONTINUOUS
 10
-0.588567
 20
0.729677
  0
VERTEX
  8
PLAN_1
 62
     5
  6
CONTINUOUS
 10
-0.588567
 20
0.723402
  0
SEQEND
  8
0
  0
POLYLINE
  8
PLAN_1
 62
     5
  6
CONTINUOUS
 66
     1
 40
0.003000
 41
0.003000
  0
VERTEX
  8
PLAN_1
 62
     5
  6
CONTINUOUS
 10
-0.588567
 20
0.715327
  0
VERTEX
  8
PLAN_1
 62
     5
  6
CONTINUOUS
 10
-0.588567
 20
0.706807
  0
SEQEND
  8
0
  0
POLYLINE
  8
PLAN_1
 62
     5
  6
CONTINUOUS
 66
     1
 40
0.003000
 41
0.003000
  0
VERTEX
  8
PLAN_1
 62
     5
  6
CONTINUOUS
 10
-0.588567
 20
0.698736
  0
VERTEX
  8
PLAN_1
 62
     5
  6
CONTINUOUS
 10
-0.588567
 20
0.690217
  0
SEQEND
  8
0
  0
POLYLINE
  8
PLAN_1
 62
     5
  6
CONTINUOUS
 66
     1
 40
0.003000
 41
0.003000
  0
VERTEX
  8
PLAN_1
 62
     5
  6
CONTINUOUS
 10
-0.588567
 20
0.682146
  0
VERTEX
  8
PLAN_1
 62
     5
  6
CONTINUOUS
 10
-0.588567
 20
0.673626
  0
SEQEND
  8
0
  0
POLYLINE
  8
PLAN_1
 62
     5
  6
CONTINUOUS
 66
     1
 40
0.003000
 41
0.003000
  0
VERTEX
  8
PLAN_1
 62
     5
  6
CONTINUOUS
 10
-0.588567
 20
0.665106
  0
VERTEX
  8
PLAN_1
 62
     5
  6
CONTINUOUS
 10
-0.588567
 20
0.657035
  0
SEQEND
  8
0
  0
POLYLINE
  8
PLAN_1
 62
     5
  6
CONTINUOUS
 66
     1
 40
0.003000
 41
0.003000
  0
VERTEX
  8
PLAN_1
 62
     5
  6
CONTINUOUS
 10
-0.588567
 20
0.648516
  0
VERTEX
  8
PLAN_1
 62
     5
  6
CONTINUOUS
 10
-0.588567
 20
0.640441
  0
SEQEND
  8
0
  0
POLYLINE
  8
PLAN_1
 62
     5
  6
CONTINUOUS
 66
     1
 40
0.003000
 41
0.003000
  0
VERTEX
  8
PLAN_1
 62
     5
  6
CONTINUOUS
 10
-0.588567
 20
0.631921
  0
VERTEX
  8
PLAN_1
 62
     5
  6
CONTINUOUS
 10
-0.588567
 20
0.623850
  0
SEQEND
  8
0
  0
POLYLINE
  8
PLAN_1
 62
     5
  6
CONTINUOUS
 66
     1
 40
0.003000
 41
0.003000
  0
VERTEX
  8
PLAN_1
 62
     5
  6
CONTINUOUS
 10
-0.588567
 20
0.615331
  0
VERTEX
  8
PLAN_1
 62
     5
  6
CONTINUOUS
 10
-0.588567
 20
0.606811
  0
SEQEND
  8
0
  0
POLYLINE
  8
PLAN_1
 62
     5
  6
CONTINUOUS
 66
     1
 40
0.003000
 41
0.003000
  0
VERTEX
  8
PLAN_1
 62
     5
  6
CONTINUOUS
 10
-0.588567
 20
0.598740
  0
VERTEX
  8
PLAN_1
 62
     5
  6
CONTINUOUS
 10
-0.588567
 20
0.591563
  0
VERTEX
  8
PLAN_1
 62
     5
  6
CONTINUOUS
 10
-0.588567
 20
0.590220
  0
SEQEND
  8
0
  0
POLYLINE
  8
PLAN_1
 62
     5
  6
CONTINUOUS
 66
     1
 40
0.003000
 41
0.003000
  0
VERTEX
  8
PLAN_1
 62
     5
  6
CONTINUOUS
 10
-0.588567
 20
0.582150
  0
VERTEX
  8
PLAN_1
 62
     5
  6
CONTINUOUS
 10
-0.588567
 20
0.573630
  0
SEQEND
  8
0
  0
POLYLINE
  8
PLAN_1
 62
     5
  6
CONTINUOUS
 66
     1
 40
0.003000
 41
0.003000
  0
VERTEX
  8
PLAN_1
 62
     5
  6
CONTINUOUS
 10
-0.588567
 20
0.565555
  0
VERTEX
  8
PLAN_1
 62
     5
  6
CONTINUOUS
 10
-0.588567
 20
0.557035
  0
SEQEND
  8
0
  0
POLYLINE
  8
PLAN_1
 62
     5
  6
CONTINUOUS
 66
     1
 40
0.003000
 41
0.003000
  0
VERTEX
  8
PLAN_1
 62
     5
  6
CONTINUOUS
 10
-0.588567
 20
0.548516
  0
VERTEX
  8
PLAN_1
 62
     5
  6
CONTINUOUS
 10
-0.588567
 20
0.540894
  0
VERTEX
  8
PLAN_1
 62
     5
  6
CONTINUOUS
 10
-0.588567
 20
0.540445
  0
SEQEND
  8
0
  0
POLYLINE
  8
PLAN_1
 62
     5
  6
CONTINUOUS
 66
     1
 40
0.003000
 41
0.003000
  0
VERTEX
  8
PLAN_1
 62
     5
  6
CONTINUOUS
 10
-0.588567
 20
0.531925
  0
VERTEX
  8
PLAN_1
 62
     5
  6
CONTINUOUS
 10
-0.588567
 20
0.523854
  0
SEQEND
  8
0
  0
POLYLINE
  8
PLAN_1
 62
     5
  6
CONTINUOUS
 66
     1
 40
0.003000
 41
0.003000
  0
VERTEX
  8
PLAN_1
 62
     5
  6
CONTINUOUS
 10
-0.588567
 20
0.515335
  0
VERTEX
  8
PLAN_1
 62
     5
  6
CONTINUOUS
 10
-0.588567
 20
0.507709
  0
VERTEX
  8
PLAN_1
 62
     5
  6
CONTINUOUS
 10
-0.588567
 20
0.507264
  0
SEQEND
  8
0
  0
POLYLINE
  8
PLAN_1
 62
     5
  6
CONTINUOUS
 66
     1
 40
0.003000
 41
0.003000
  0
VERTEX
  8
PLAN_1
 62
     5
  6
CONTINUOUS
 10
-0.588567
 20
0.498744
  0
VERTEX
  8
PLAN_1
 62
     5
  6
CONTINUOUS
 10
-0.588567
 20
0.495602
  0
SEQEND
  8
0
  0
POLYLINE
  8
PLAN_1
 62
     5
  6
CONTINUOUS
 66
     1
 40
0.003000
 41
0.003000
  0
VERTEX
  8
PLAN_1
 62
     5
  6
CONTINUOUS
 10
-0.588567
 20
0.498744
  0
VERTEX
  8
PLAN_1
 62
     5
  6
CONTINUOUS
 10
-0.588567
 20
0.495602
  0
SEQEND
  8
0
  0
POLYLINE
  8
PLAN_1
  6
CONTINUOUS
 66
     1
 40
0.003000
 41
0.003000
  0
VERTEX
  8
PLAN_1
  6
CONTINUOUS
 10
-1.969697
 20
0.909492
  0
VERTEX
  8
PLAN_1
  6
CONTINUOUS
 10
-1.964315
 20
0.909492
  0
VERTEX
  8
PLAN_1
  6
CONTINUOUS
 10
-1.958484
 20
0.910390
  0
VERTEX
  8
PLAN_1
  6
CONTINUOUS
 10
-1.953106
 20
0.911736
  0
VERTEX
  8
PLAN_1
  6
CONTINUOUS
 10
-1.947724
 20
0.913976
  0
VERTEX
  8
PLAN_1
  6
CONTINUOUS
 10
-1.942791
 20
0.916220
  0
VERTEX
  8
PLAN_1
  6
CONTINUOUS
 10
-1.938307
 20
0.918909
  0
VERTEX
  8
PLAN_1
  6
CONTINUOUS
 10
-1.933823
 20
0.922496
  0
VERTEX
  8
PLAN_1
  6
CONTINUOUS
 10
-1.929787
 20
0.926087
  0
VERTEX
  8
PLAN_1
  6
CONTINUOUS
 10
-1.926201
 20
0.930122
  0
VERTEX
  8
PLAN_1
  6
CONTINUOUS
 10
-1.922610
 20
0.934606
  0
VERTEX
  8
PLAN_1
  6
CONTINUOUS
 10
-1.919921
 20
0.939091
  0
VERTEX
  8
PLAN_1
  6
CONTINUOUS
 10
-1.917681
 20
0.944024
  0
VERTEX
  8
PLAN_1
  6
CONTINUOUS
 10
-1.915886
 20
0.949402
  0
VERTEX
  8
PLAN_1
  6
CONTINUOUS
 10
-1.914091
 20
0.954783
  0
VERTEX
  8
PLAN_1
  6
CONTINUOUS
 10
-1.913642
 20
0.960165
  0
VERTEX
  8
PLAN_1
  6
CONTINUOUS
 10
-1.913197
 20
0.965996
  0
VERTEX
  8
PLAN_1
  6
CONTINUOUS
 10
-1.913642
 20
0.971823
  0
VERTEX
  8
PLAN_1
  6
CONTINUOUS
 10
-1.914091
 20
0.977654
  0
VERTEX
  8
PLAN_1
  6
CONTINUOUS
 10
-1.915886
 20
0.983035
  0
VERTEX
  8
PLAN_1
  6
CONTINUOUS
 10
-1.917681
 20
0.988413
  0
VERTEX
  8
PLAN_1
  6
CONTINUOUS
 10
-1.919921
 20
0.993346
  0
VERTEX
  8
PLAN_1
  6
CONTINUOUS
 10
-1.922610
 20
0.997831
  0
VERTEX
  8
PLAN_1
  6
CONTINUOUS
 10
-1.926201
 20
1.002315
  0
VERTEX
  8
PLAN_1
  6
CONTINUOUS
 10
-1.929787
 20
1.006350
  0
VERTEX
  8
PLAN_1
  6
CONTINUOUS
 10
-1.933823
 20
1.009941
  0
VERTEX
  8
PLAN_1
  6
CONTINUOUS
 10
-1.938307
 20
1.013079
  0
VERTEX
  8
PLAN_1
  6
CONTINUOUS
 10
-1.942791
 20
1.016217
  0
VERTEX
  8
PLAN_1
  6
CONTINUOUS
 10
-1.947724
 20
1.018461
  0
VERTEX
  8
PLAN_1
  6
CONTINUOUS
 10
-1.953106
 20
1.020252
  0
VERTEX
  8
PLAN_1
  6
CONTINUOUS
 10
-1.958484
 20
1.021598
  0
VERTEX
  8
PLAN_1
  6
CONTINUOUS
 10
-1.964315
 20
1.022496
  0
VERTEX
  8
PLAN_1
  6
CONTINUOUS
 10
-1.969697
 20
1.022945
  0
VERTEX
  8
PLAN_1
  6
CONTINUOUS
 10
-1.975524
 20
1.022496
  0
VERTEX
  8
PLAN_1
  6
CONTINUOUS
 10
-1.981354
 20
1.021598
  0
VERTEX
  8
PLAN_1
  6
CONTINUOUS
 10
-1.986736
 20
1.020252
  0
VERTEX
  8
PLAN_1
  6
CONTINUOUS
 10
-1.992118
 20
1.018461
  0
VERTEX
  8
PLAN_1
  6
CONTINUOUS
 10
-1.997051
 20
1.016217
  0
VERTEX
  8
PLAN_1
  6
CONTINUOUS
 10
-2.001535
 20
1.013079
  0
VERTEX
  8
PLAN_1
  6
CONTINUOUS
 10
-2.006020
 20
1.009941
  0
VERTEX
  8
PLAN_1
  6
CONTINUOUS
 10
-2.010055
 20
1.006350
  0
VERTEX
  8
PLAN_1
  6
CONTINUOUS
 10
-2.013642
 20
1.002315
  0
VERTEX
  8
PLAN_1
  6
CONTINUOUS
 10
-2.016780
 20
0.997831
  0
VERTEX
  8
PLAN_1
  6
CONTINUOUS
 10
-2.019917
 20
0.993346
  0
VERTEX
  8
PLAN_1
  6
CONTINUOUS
 10
-2.022161
 20
0.988413
  0
VERTEX
  8
PLAN_1
  6
CONTINUOUS
 10
-2.023953
 20
0.983035
  0
VERTEX
  8
PLAN_1
  6
CONTINUOUS
 10
-2.025299
 20
0.977654
  0
VERTEX
  8
PLAN_1
  6
CONTINUOUS
 10
-2.026197
 20
0.971823
  0
VERTEX
  8
PLAN_1
  6
CONTINUOUS
 10
-2.026646
 20
0.965996
  0
VERTEX
  8
PLAN_1
  6
CONTINUOUS
 10
-2.026197
 20
0.960165
  0
VERTEX
  8
PLAN_1
  6
CONTINUOUS
 10
-2.025299
 20
0.954783
  0
VERTEX
  8
PLAN_1
  6
CONTINUOUS
 10
-2.023953
 20
0.949402
  0
VERTEX
  8
PLAN_1
  6
CONTINUOUS
 10
-2.022161
 20
0.944024
  0
VERTEX
  8
PLAN_1
  6
CONTINUOUS
 10
-2.019917
 20
0.939091
  0
VERTEX
  8
PLAN_1
  6
CONTINUOUS
 10
-2.016780
 20
0.934606
  0
VERTEX
  8
PLAN_1
  6
CONTINUOUS
 10
-2.013642
 20
0.930122
  0
VERTEX
  8
PLAN_1
  6
CONTINUOUS
 10
-2.010055
 20
0.926087
  0
VERTEX
  8
PLAN_1
  6
CONTINUOUS
 10
-2.006020
 20
0.922496
  0
VERTEX
  8
PLAN_1
  6
CONTINUOUS
 10
-2.001535
 20
0.918909
  0
VERTEX
  8
PLAN_1
  6
CONTINUOUS
 10
-1.997051
 20
0.916220
  0
VERTEX
  8
PLAN_1
  6
CONTINUOUS
 10
-1.992118
 20
0.913976
  0
VERTEX
  8
PLAN_1
  6
CONTINUOUS
 10
-1.986736
 20
0.911736
  0
VERTEX
  8
PLAN_1
  6
CONTINUOUS
 10
-1.981354
 20
0.910390
  0
VERTEX
  8
PLAN_1
  6
CONTINUOUS
 10
-1.975524
 20
0.909492
  0
VERTEX
  8
PLAN_1
  6
CONTINUOUS
 10
-1.969697
 20
0.909492
  0
SEQEND
  8
0
  0
POLYLINE
  8
PLAN_1
  6
CONTINUOUS
 66
     1
 40
0.004035
 41
0.004035
  0
VERTEX
  8
PLAN_1
  6
CONTINUOUS
 10
-1.970594
 20
1.092000
  0
VERTEX
  8
PLAN_1
  6
CONTINUOUS
 10
-1.970594
 20
0.825189
  0
SEQEND
  8
0
  0
POLYLINE
  8
PLAN_1
  6
CONTINUOUS
 66
     1
 40
0.004035
 41
0.004035
  0
VERTEX
  8
PLAN_1
  6
CONTINUOUS
 10
-2.103323
 20
0.967787
  0
VERTEX
  8
PLAN_1
  6
CONTINUOUS
 10
-1.836516
 20
0.967787
  0
SEQEND
  8
0
  0
POLYLINE
  8
PLAN_1
  6
CONTINUOUS
 66
     1
 40
0.003000
 41
0.003000
  0
VERTEX
  8
PLAN_1
  6
CONTINUOUS
 10
-0.781835
 20
0.909492
  0
VERTEX
  8
PLAN_1
  6
CONTINUOUS
 10
-0.776008
 20
0.909492
  0
VERTEX
  8
PLAN_1
  6
CONTINUOUS
 10
-0.770177
 20
0.910390
  0
VERTEX
  8
PLAN_1
  6
CONTINUOUS
 10
-0.764795
 20
0.911736
  0
VERTEX
  8
PLAN_1
  6
CONTINUOUS
 10
-0.759413
 20
0.913976
  0
VERTEX
  8
PLAN_1
  6
CONTINUOUS
 10
-0.754480
 20
0.916220
  0
VERTEX
  8
PLAN_1
  6
CONTINUOUS
 10
-0.749996
 20
0.918909
  0
VERTEX
  8
PLAN_1
  6
CONTINUOUS
 10
-0.745512
 20
0.922496
  0
VERTEX
  8
PLAN_1
  6
CONTINUOUS
 10
-0.741476
 20
0.926087
  0
VERTEX
  8
PLAN_1
  6
CONTINUOUS
 10
-0.737890
 20
0.930122
  0
VERTEX
  8
PLAN_1
  6
CONTINUOUS
 10
-0.734752
 20
0.934606
  0
VERTEX
  8
PLAN_1
  6
CONTINUOUS
 10
-0.731614
 20
0.939091
  0
VERTEX
  8
PLAN_1
  6
CONTINUOUS
 10
-0.729370
 20
0.944024
  0
VERTEX
  8
PLAN_1
  6
CONTINUOUS
 10
-0.727579
 20
0.949402
  0
VERTEX
  8
PLAN_1
  6
CONTINUOUS
 10
-0.726232
 20
0.954783
  0
VERTEX
  8
PLAN_1
  6
CONTINUOUS
 10
-0.725335
 20
0.960165
  0
VERTEX
  8
PLAN_1
  6
CONTINUOUS
 10
-0.724886
 20
0.965996
  0
VERTEX
  8
PLAN_1
  6
CONTINUOUS
 10
-0.725335
 20
0.971823
  0
VERTEX
  8
PLAN_1
  6
CONTINUOUS
 10
-0.726232
 20
0.977654
  0
VERTEX
  8
PLAN_1
  6
CONTINUOUS
 10
-0.727579
 20
0.983035
  0
VERTEX
  8
PLAN_1
  6
CONTINUOUS
 10
-0.729370
 20
0.988413
  0
VERTEX
  8
PLAN_1
  6
CONTINUOUS
 10
-0.731614
 20
0.993346
  0
VERTEX
  8
PLAN_1
  6
CONTINUOUS
 10
-0.734752
 20
0.997831
  0
VERTEX
  8
PLAN_1
  6
CONTINUOUS
 10
-0.737890
 20
1.002315
  0
VERTEX
  8
PLAN_1
  6
CONTINUOUS
 10
-0.741476
 20
1.006350
  0
VERTEX
  8
PLAN_1
  6
CONTINUOUS
 10
-0.745512
 20
1.009941
  0
VERTEX
  8
PLAN_1
  6
CONTINUOUS
 10
-0.749996
 20
1.013079
  0
VERTEX
  8
PLAN_1
  6
CONTINUOUS
 10
-0.754480
 20
1.016217
  0
VERTEX
  8
PLAN_1
  6
CONTINUOUS
 10
-0.759413
 20
1.018461
  0
VERTEX
  8
PLAN_1
  6
CONTINUOUS
 10
-0.764795
 20
1.020252
  0
VERTEX
  8
PLAN_1
  6
CONTINUOUS
 10
-0.770177
 20
1.021598
  0
VERTEX
  8
PLAN_1
  6
CONTINUOUS
 10
-0.776008
 20
1.022496
  0
VERTEX
  8
PLAN_1
  6
CONTINUOUS
 10
-0.781835
 20
1.022945
  0
VERTEX
  8
PLAN_1
  6
CONTINUOUS
 10
-0.787665
 20
1.022496
  0
VERTEX
  8
PLAN_1
  6
CONTINUOUS
 10
-0.793047
 20
1.021598
  0
VERTEX
  8
PLAN_1
  6
CONTINUOUS
 10
-0.798425
 20
1.020252
  0
VERTEX
  8
PLAN_1
  6
CONTINUOUS
 10
-0.803807
 20
1.018461
  0
VERTEX
  8
PLAN_1
  6
CONTINUOUS
 10
-0.808740
 20
1.016217
  0
VERTEX
  8
PLAN_1
  6
CONTINUOUS
 10
-0.813224
 20
1.013079
  0
VERTEX
  8
PLAN_1
  6
CONTINUOUS
 10
-0.817709
 20
1.009941
  0
VERTEX
  8
PLAN_1
  6
CONTINUOUS
 10
-0.821744
 20
1.006350
  0
VERTEX
  8
PLAN_1
  6
CONTINUOUS
 10
-0.825331
 20
1.002315
  0
VERTEX
  8
PLAN_1
  6
CONTINUOUS
 10
-0.828921
 20
0.997831
  0
VERTEX
  8
PLAN_1
  6
CONTINUOUS
 10
-0.831610
 20
0.993346
  0
VERTEX
  8
PLAN_1
  6
CONTINUOUS
 10
-0.833850
 20
0.988413
  0
VERTEX
  8
PLAN_1
  6
CONTINUOUS
 10
-0.836094
 20
0.983035
  0
VERTEX
  8
PLAN_1
  6
CONTINUOUS
 10
-0.837441
 20
0.977654
  0
VERTEX
  8
PLAN_1
  6
CONTINUOUS
 10
-0.838335
 20
0.971823
  0
VERTEX
  8
PLAN_1
  6
CONTINUOUS
 10
-0.838335
 20
0.965996
  0
VERTEX
  8
PLAN_1
  6
CONTINUOUS
 10
-0.838335
 20
0.960165
  0
VERTEX
  8
PLAN_1
  6
CONTINUOUS
 10
-0.837441
 20
0.954783
  0
VERTEX
  8
PLAN_1
  6
CONTINUOUS
 10
-0.836094
 20
0.949402
  0
VERTEX
  8
PLAN_1
  6
CONTINUOUS
 10
-0.833850
 20
0.944024
  0
VERTEX
  8
PLAN_1
  6
CONTINUOUS
 10
-0.831610
 20
0.939091
  0
VERTEX
  8
PLAN_1
  6
CONTINUOUS
 10
-0.828921
 20
0.934606
  0
VERTEX
  8
PLAN_1
  6
CONTINUOUS
 10
-0.825331
 20
0.930122
  0
VERTEX
  8
PLAN_1
  6
CONTINUOUS
 10
-0.821744
 20
0.926087
  0
VERTEX
  8
PLAN_1
  6
CONTINUOUS
 10
-0.817709
 20
0.922496
  0
VERTEX
  8
PLAN_1
  6
CONTINUOUS
 10
-0.813224
 20
0.918909
  0
VERTEX
  8
PLAN_1
  6
CONTINUOUS
 10
-0.808740
 20
0.916220
  0
VERTEX
  8
PLAN_1
  6
CONTINUOUS
 10
-0.803807
 20
0.913976
  0
VERTEX
  8
PLAN_1
  6
CONTINUOUS
 10
-0.798425
 20
0.911736
  0
VERTEX
  8
PLAN_1
  6
CONTINUOUS
 10
-0.793047
 20
0.910390
  0
VERTEX
  8
PLAN_1
  6
CONTINUOUS
 10
-0.787665
 20
0.909492
  0
VERTEX
  8
PLAN_1
  6
CONTINUOUS
 10
-0.781835
 20
0.909492
  0
SEQEND
  8
0
  0
POLYLINE
  8
PLAN_1
  6
CONTINUOUS
 66
     1
 40
0.004035
 41
0.004035
  0
VERTEX
  8
PLAN_1
  6
CONTINUOUS
 10
-0.782732
 20
1.092000
  0
VERTEX
  8
PLAN_1
  6
CONTINUOUS
 10
-0.782732
 20
0.825189
  0
SEQEND
  8
0
  0
POLYLINE
  8
PLAN_1
  6
CONTINUOUS
 66
     1
 40
0.004035
 41
0.004035
  0
VERTEX
  8
PLAN_1
  6
CONTINUOUS
 10
-0.915016
 20
0.967787
  0
VERTEX
  8
PLAN_1
  6
CONTINUOUS
 10
-0.648209
 20
0.967787
  0
SEQEND
  8
0
  0
POLYLINE
  8
PLAN_1
  6
CONTINUOUS
 66
     1
 40
0.005378
 41
0.005378
  0
VERTEX
  8
PLAN_1
  6
CONTINUOUS
 10
-1.502894
 20
0.787075
  0
VERTEX
  8
PLAN_1
  6
CONTINUOUS
 10
-1.624862
 20
0.765551
  0
VERTEX
  8
PLAN_1
  6
CONTINUOUS
 10
-1.632933
 20
0.763756
  0
SEQEND
  8
0
  0
POLYLINE
  8
PLAN_1
  6
CONTINUOUS
 66
     1
 40
0.005378
 41
0.005378
  0
VERTEX
  8
PLAN_1
  6
CONTINUOUS
 10
-1.632933
 20
0.763756
  0
VERTEX
  8
PLAN_1
  6
CONTINUOUS
 10
-1.636969
 20
0.762862
  0
VERTEX
  8
PLAN_1
  6
CONTINUOUS
 10
-1.640110
 20
0.761067
  0
VERTEX
  8
PLAN_1
  6
CONTINUOUS
 10
-1.643248
 20
0.758827
  0
VERTEX
  8
PLAN_1
  6
CONTINUOUS
 10
-1.645488
 20
0.755685
  0
VERTEX
  8
PLAN_1
  6
CONTINUOUS
 10
-1.647283
 20
0.752547
  0
VERTEX
  8
PLAN_1
  6
CONTINUOUS
 10
-1.648630
 20
0.748961
  0
VERTEX
  8
PLAN_1
  6
CONTINUOUS
 10
-1.649075
 20
0.744925
  0
VERTEX
  8
PLAN_1
  6
CONTINUOUS
 10
-1.649075
 20
0.741335
  0
VERTEX
  8
PLAN_1
  6
CONTINUOUS
 10
-1.647732
 20
0.737299
  0
VERTEX
  8
PLAN_1
  6
CONTINUOUS
 10
-1.645937
 20
0.733713
  0
VERTEX
  8
PLAN_1
  6
CONTINUOUS
 10
-1.643697
 20
0.731024
  0
VERTEX
  8
PLAN_1
  6
CONTINUOUS
 10
-1.641004
 20
0.728331
  0
VERTEX
  8
PLAN_1
  6
CONTINUOUS
 10
-1.637417
 20
0.726539
  0
VERTEX
  8
PLAN_1
  6
CONTINUOUS
 10
-1.633831
 20
0.725193
  0
VERTEX
  8
PLAN_1
  6
CONTINUOUS
 10
-1.630244
 20
0.724744
  0
VERTEX
  8
PLAN_1
  6
CONTINUOUS
 10
-1.626209
 20
0.725193
  0
SEQEND
  8
0
  0
POLYLINE
  8
PLAN_1
  6
CONTINUOUS
 66
     1
 40
0.005378
 41
0.005378
  0
VERTEX
  8
PLAN_1
  6
CONTINUOUS
 10
-1.626209
 20
0.725193
  0
VERTEX
  8
PLAN_1
  6
CONTINUOUS
 10
-1.618138
 20
0.726539
  0
VERTEX
  8
PLAN_1
  6
CONTINUOUS
 10
-1.276890
 20
0.786626
  0
VERTEX
  8
PLAN_1
  6
CONTINUOUS
 10
-1.502894
 20
0.787075
  0
SEQEND
  8
0
  0
POLYLINE
  8
PLAN_1
  6
CONTINUOUS
 66
     1
 40
0.005378
 41
0.005378
  0
VERTEX
  8
PLAN_1
  6
CONTINUOUS
 10
-1.142811
 20
0.639098
  0
VERTEX
  8
PLAN_1
  6
CONTINUOUS
 10
-1.138776
 20
0.639992
  0
VERTEX
  8
PLAN_1
  6
CONTINUOUS
 10
-1.135638
 20
0.641787
  0
VERTEX
  8
PLAN_1
  6
CONTINUOUS
 10
-1.132500
 20
0.644476
  0
VERTEX
  8
PLAN_1
  6
CONTINUOUS
 10
-1.130256
 20
0.647169
  0
VERTEX
  8
PLAN_1
  6
CONTINUOUS
 10
-1.128465
 20
0.650307
  0
VERTEX
  8
PLAN_1
  6
CONTINUOUS
 10
-1.127118
 20
0.653894
  0
VERTEX
  8
PLAN_1
  6
CONTINUOUS
 10
-1.126669
 20
0.657929
  0
VERTEX
  8
PLAN_1
  6
CONTINUOUS
 10
-1.126669
 20
0.661965
  0
VERTEX
  8
PLAN_1
  6
CONTINUOUS
 10
-1.128016
 20
0.665555
  0
VERTEX
  8
PLAN_1
  6
CONTINUOUS
 10
-1.129807
 20
0.669142
  0
VERTEX
  8
PLAN_1
  6
CONTINUOUS
 10
-1.132051
 20
0.672280
  0
VERTEX
  8
PLAN_1
  6
CONTINUOUS
 10
-1.134740
 20
0.674524
  0
VERTEX
  8
PLAN_1
  6
CONTINUOUS
 10
-1.138327
 20
0.676315
  0
VERTEX
  8
PLAN_1
  6
CONTINUOUS
 10
-1.141917
 20
0.677661
  0
VERTEX
  8
PLAN_1
  6
CONTINUOUS
 10
-1.145504
 20
0.678110
  0
VERTEX
  8
PLAN_1
  6
CONTINUOUS
 10
-1.149539
 20
0.678110
  0
SEQEND
  8
0
  0
POLYLINE
  8
PLAN_1
  6
CONTINUOUS
 66
     1
 40
0.005378
 41
0.005378
  0
VERTEX
  8
PLAN_1
  6
CONTINUOUS
 10
-1.149539
 20
0.678110
  0
VERTEX
  8
PLAN_1
  6
CONTINUOUS
 10
-1.161646
 20
0.675866
  0
VERTEX
  8
PLAN_1
  6
CONTINUOUS
 10
-1.624862
 20
0.593807
  0
VERTEX
  8
PLAN_1
  6
CONTINUOUS
 10
-1.632933
 20
0.592461
  0
SEQEND
  8
0
  0
POLYLINE
  8
PLAN_1
  6
CONTINUOUS
 66
     1
 40
0.005378
 41
0.005378
  0
VERTEX
  8
PLAN_1
  6
CONTINUOUS
 10
-1.632933
 20
0.592461
  0
VERTEX
  8
PLAN_1
  6
CONTINUOUS
 10
-1.636520
 20
0.591563
  0
VERTEX
  8
PLAN_1
  6
CONTINUOUS
 10
-1.640110
 20
0.589772
  0
VERTEX
  8
PLAN_1
  6
CONTINUOUS
 10
-1.642799
 20
0.587079
  0
VERTEX
  8
PLAN_1
  6
CONTINUOUS
 10
-1.645488
 20
0.584390
  0
VERTEX
  8
PLAN_1
  6
CONTINUOUS
 10
-1.647283
 20
0.581252
  0
VERTEX
  8
PLAN_1
  6
CONTINUOUS
 10
-1.648630
 20
0.577665
  0
VERTEX
  8
PLAN_1
  6
CONTINUOUS
 10
-1.649075
 20
0.573630
  0
VERTEX
  8
PLAN_1
  6
CONTINUOUS
 10
-1.648630
 20
0.569591
  0
VERTEX
  8
PLAN_1
  6
CONTINUOUS
 10
-1.647732
 20
0.566004
  0
VERTEX
  8
PLAN_1
  6
CONTINUOUS
 10
-1.645937
 20
0.562417
  0
VERTEX
  8
PLAN_1
  6
CONTINUOUS
 10
-1.643697
 20
0.559280
  0
VERTEX
  8
PLAN_1
  6
CONTINUOUS
 10
-1.640555
 20
0.557035
  0
VERTEX
  8
PLAN_1
  6
CONTINUOUS
 10
-1.637417
 20
0.555244
  0
VERTEX
  8
PLAN_1
  6
CONTINUOUS
 10
-1.633831
 20
0.553898
  0
VERTEX
  8
PLAN_1
  6
CONTINUOUS
 10
-1.629795
 20
0.553449
  0
VERTEX
  8
PLAN_1
  6
CONTINUOUS
 10
-1.625760
 20
0.553898
  0
SEQEND
  8
0
  0
POLYLINE
  8
PLAN_1
  6
CONTINUOUS
 66
     1
 40
0.005378
 41
0.005378
  0
VERTEX
  8
PLAN_1
  6
CONTINUOUS
 10
-1.625760
 20
0.553898
  0
VERTEX
  8
PLAN_1
  6
CONTINUOUS
 10
-1.618138
 20
0.555244
  0
VERTEX
  8
PLAN_1
  6
CONTINUOUS
 10
-1.154921
 20
0.636854
  0
VERTEX
  8
PLAN_1
  6
CONTINUOUS
 10
-1.142811
 20
0.639098
  0
SEQEND
  8
0
  0
POLYLINE
  8
PLAN_1
  6
CONTINUOUS
 66
     1
 40
0.005378
 41
0.005378
  0
VERTEX
  8
PLAN_1
  6
CONTINUOUS
 10
-1.138327
 20
0.382602
  0
VERTEX
  8
PLAN_1
  6
CONTINUOUS
 10
-1.134291
 20
0.383051
  0
VERTEX
  8
PLAN_1
  6
CONTINUOUS
 10
-1.130705
 20
0.383949
  0
VERTEX
  8
PLAN_1
  6
CONTINUOUS
 10
-1.127567
 20
0.385740
  0
VERTEX
  8
PLAN_1
  6
CONTINUOUS
 10
-1.124425
 20
0.387984
  0
VERTEX
  8
PLAN_1
  6
CONTINUOUS
 10
-1.122185
 20
0.391122
  0
VERTEX
  8
PLAN_1
  6
CONTINUOUS
 10
-1.120390
 20
0.394260
  0
VERTEX
  8
PLAN_1
  6
CONTINUOUS
 10
-1.119047
 20
0.398295
  0
VERTEX
  8
PLAN_1
  6
CONTINUOUS
 10
-1.118598
 20
0.402331
  0
VERTEX
  8
PLAN_1
  6
CONTINUOUS
 10
-1.119047
 20
0.405921
  0
VERTEX
  8
PLAN_1
  6
CONTINUOUS
 10
-1.120390
 20
0.409957
  0
VERTEX
  8
PLAN_1
  6
CONTINUOUS
 10
-1.122185
 20
0.413094
  0
VERTEX
  8
PLAN_1
  6
CONTINUOUS
 10
-1.124425
 20
0.416232
  0
VERTEX
  8
PLAN_1
  6
CONTINUOUS
 10
-1.127567
 20
0.418476
  0
VERTEX
  8
PLAN_1
  6
CONTINUOUS
 10
-1.130705
 20
0.420268
  0
VERTEX
  8
PLAN_1
  6
CONTINUOUS
 10
-1.134291
 20
0.421614
  0
VERTEX
  8
PLAN_1
  6
CONTINUOUS
 10
-1.138327
 20
0.421614
  0
SEQEND
  8
0
  0
POLYLINE
  8
PLAN_1
  6
CONTINUOUS
 66
     1
 40
0.005378
 41
0.005378
  0
VERTEX
  8
PLAN_1
  6
CONTINUOUS
 10
-1.138327
 20
0.421614
  0
VERTEX
  8
PLAN_1
  6
CONTINUOUS
 10
-1.150882
 20
0.421614
  0
VERTEX
  8
PLAN_1
  6
CONTINUOUS
 10
-1.620827
 20
0.421614
  0
VERTEX
  8
PLAN_1
  6
CONTINUOUS
 10
-1.628898
 20
0.421614
  0
SEQEND
  8
0
  0
POLYLINE
  8
PLAN_1
  6
CONTINUOUS
 66
     1
 40
0.005378
 41
0.005378
  0
VERTEX
  8
PLAN_1
  6
CONTINUOUS
 10
-1.628898
 20
0.421614
  0
VERTEX
  8
PLAN_1
  6
CONTINUOUS
 10
-1.632933
 20
0.421165
  0
VERTEX
  8
PLAN_1
  6
CONTINUOUS
 10
-1.636520
 20
0.420268
  0
VERTEX
  8
PLAN_1
  6
CONTINUOUS
 10
-1.640110
 20
0.418476
  0
VERTEX
  8
PLAN_1
  6
CONTINUOUS
 10
-1.642799
 20
0.415783
  0
VERTEX
  8
PLAN_1
  6
CONTINUOUS
 10
-1.645488
 20
0.413094
  0
VERTEX
  8
PLAN_1
  6
CONTINUOUS
 10
-1.647283
 20
0.409508
  0
VERTEX
  8
PLAN_1
  6
CONTINUOUS
 10
-1.648181
 20
0.405921
  0
VERTEX
  8
PLAN_1
  6
CONTINUOUS
 10
-1.648630
 20
0.401882
  0
VERTEX
  8
PLAN_1
  6
CONTINUOUS
 10
-1.648181
 20
0.397846
  0
VERTEX
  8
PLAN_1
  6
CONTINUOUS
 10
-1.647283
 20
0.394260
  0
VERTEX
  8
PLAN_1
  6
CONTINUOUS
 10
-1.645488
 20
0.391122
  0
VERTEX
  8
PLAN_1
  6
CONTINUOUS
 10
-1.642799
 20
0.387984
  0
VERTEX
  8
PLAN_1
  6
CONTINUOUS
 10
-1.640110
 20
0.385740
  0
VERTEX
  8
PLAN_1
  6
CONTINUOUS
 10
-1.636520
 20
0.383949
  0
VERTEX
  8
PLAN_1
  6
CONTINUOUS
 10
-1.632933
 20
0.382602
  0
VERTEX
  8
PLAN_1
  6
CONTINUOUS
 10
-1.628898
 20
0.382154
  0
SEQEND
  8
0
  0
POLYLINE
  8
PLAN_1
  6
CONTINUOUS
 66
     1
 40
0.005378
 41
0.005378
  0
VERTEX
  8
PLAN_1
  6
CONTINUOUS
 10
-1.628898
 20
0.382154
  0
VERTEX
  8
PLAN_1
  6
CONTINUOUS
 10
-1.620827
 20
0.382154
  0
VERTEX
  8
PLAN_1
  6
CONTINUOUS
 10
-1.150882
 20
0.382602
  0
VERTEX
  8
PLAN_1
  6
CONTINUOUS
 10
-1.138327
 20
0.382602
  0
SEQEND
  8
0
  0
POLYLINE
  8
PLAN_1
  6
CONTINUOUS
 66
     1
 40
0.005378
 41
0.005378
  0
VERTEX
  8
PLAN_1
  6
CONTINUOUS
 10
-1.400205
 20
0.422512
  0
VERTEX
  8
PLAN_1
  6
CONTINUOUS
 10
-1.154921
 20
0.465559
  0
VERTEX
  8
PLAN_1
  6
CONTINUOUS
 10
-1.142811
 20
0.467803
  0
SEQEND
  8
0
  0
POLYLINE
  8
PLAN_1
  6
CONTINUOUS
 66
     1
 40
0.005378
 41
0.005378
  0
VERTEX
  8
PLAN_1
  6
CONTINUOUS
 10
-1.142811
 20
0.467803
  0
VERTEX
  8
PLAN_1
  6
CONTINUOUS
 10
-1.138776
 20
0.469146
  0
VERTEX
  8
PLAN_1
  6
CONTINUOUS
 10
-1.135638
 20
0.470941
  0
VERTEX
  8
PLAN_1
  6
CONTINUOUS
 10
-1.132500
 20
0.473181
  0
VERTEX
  8
PLAN_1
  6
CONTINUOUS
 10
-1.130256
 20
0.475874
  0
VERTEX
  8
PLAN_1
  6
CONTINUOUS
 10
-1.128016
 20
0.479461
  0
VERTEX
  8
PLAN_1
  6
CONTINUOUS
 10
-1.127118
 20
0.483047
  0
VERTEX
  8
PLAN_1
  6
CONTINUOUS
 10
-1.126669
 20
0.486634
  0
VERTEX
  8
PLAN_1
  6
CONTINUOUS
 10
-1.126669
 20
0.490669
  0
VERTEX
  8
PLAN_1
  6
CONTINUOUS
 10
-1.128016
 20
0.494705
  0
VERTEX
  8
PLAN_1
  6
CONTINUOUS
 10
-1.129807
 20
0.497846
  0
VERTEX
  8
PLAN_1
  6
CONTINUOUS
 10
-1.132051
 20
0.500984
  0
VERTEX
  8
PLAN_1
  6
CONTINUOUS
 10
-1.134740
 20
0.503228
  0
VERTEX
  8
PLAN_1
  6
CONTINUOUS
 10
-1.138327
 20
0.505020
  0
VERTEX
  8
PLAN_1
  6
CONTINUOUS
 10
-1.141917
 20
0.506366
  0
VERTEX
  8
PLAN_1
  6
CONTINUOUS
 10
-1.145504
 20
0.506815
  0
VERTEX
  8
PLAN_1
  6
CONTINUOUS
 10
-1.149539
 20
0.506815
  0
SEQEND
  8
0
  0
POLYLINE
  8
PLAN_1
  6
CONTINUOUS
 66
     1
 40
0.005378
 41
0.005378
  0
VERTEX
  8
PLAN_1
  6
CONTINUOUS
 10
-1.149539
 20
0.506815
  0
VERTEX
  8
PLAN_1
  6
CONTINUOUS
 10
-1.161646
 20
0.504571
  0
VERTEX
  8
PLAN_1
  6
CONTINUOUS
 10
-1.624862
 20
0.422512
  0
VERTEX
  8
PLAN_1
  6
CONTINUOUS
 10
-1.632484
 20
0.421165
  0
SEQEND
  8
0
  0
POLYLINE
  8
PLAN_1
  6
CONTINUOUS
 66
     1
 40
0.005378
 41
0.005378
  0
VERTEX
  8
PLAN_1
  6
CONTINUOUS
 10
-1.632484
 20
0.421165
  0
VERTEX
  8
PLAN_1
  6
CONTINUOUS
 10
-1.636520
 20
0.420268
  0
VERTEX
  8
PLAN_1
  6
CONTINUOUS
 10
-1.640110
 20
0.418476
  0
VERTEX
  8
PLAN_1
  6
CONTINUOUS
 10
-1.642799
 20
0.416232
  0
VERTEX
  8
PLAN_1
  6
CONTINUOUS
 10
-1.645488
 20
0.413094
  0
VERTEX
  8
PLAN_1
  6
CONTINUOUS
 10
-1.647283
 20
0.409957
  0
VERTEX
  8
PLAN_1
  6
CONTINUOUS
 10
-1.648630
 20
0.406366
  0
VERTEX
  8
PLAN_1
  6
CONTINUOUS
 10
-1.649075
 20
0.402331
  0
VERTEX
  8
PLAN_1
  6
CONTINUOUS
 10
-1.648630
 20
0.398295
  0
VERTEX
  8
PLAN_1
  6
CONTINUOUS
 10
-1.647732
 20
0.394709
  0
VERTEX
  8
PLAN_1
  6
CONTINUOUS
 10
-1.645937
 20
0.391122
  0
VERTEX
  8
PLAN_1
  6
CONTINUOUS
 10
-1.643248
 20
0.388433
  0
VERTEX
  8
PLAN_1
  6
CONTINUOUS
 10
-1.640555
 20
0.385740
  0
VERTEX
  8
PLAN_1
  6
CONTINUOUS
 10
-1.637417
 20
0.383949
  0
VERTEX
  8
PLAN_1
  6
CONTINUOUS
 10
-1.633831
 20
0.382602
  0
VERTEX
  8
PLAN_1
  6
CONTINUOUS
 10
-1.629795
 20
0.382154
  0
VERTEX
  8
PLAN_1
  6
CONTINUOUS
 10
-1.625760
 20
0.382602
  0
SEQEND
  8
0
  0
POLYLINE
  8
PLAN_1
  6
CONTINUOUS
 66
     1
 40
0.005378
 41
0.005378
  0
VERTEX
  8
PLAN_1
  6
CONTINUOUS
 10
-1.262091
 20
0.487980
  0
VERTEX
  8
PLAN_1
  6
CONTINUOUS
 10
-1.624413
 20
0.552102
  0
VERTEX
  8
PLAN_1
  6
CONTINUOUS
 10
-1.632484
 20
0.553449
  0
SEQEND
  8
0
  0
POLYLINE
  8
PLAN_1
  6
CONTINUOUS
 66
     1
 40
0.005378
 41
0.005378
  0
VERTEX
  8
PLAN_1
  6
CONTINUOUS
 10
-1.632484
 20
0.553449
  0
VERTEX
  8
PLAN_1
  6
CONTINUOUS
 10
-1.636520
 20
0.554346
  0
VERTEX
  8
PLAN_1
  6
CONTINUOUS
 10
-1.639661
 20
0.556138
  0
VERTEX
  8
PLAN_1
  6
CONTINUOUS
 10
-1.642799
 20
0.558382
  0
VERTEX
  8
PLAN_1
  6
CONTINUOUS
 10
-1.645039
 20
0.561520
  0
VERTEX
  8
PLAN_1
  6
CONTINUOUS
 10
-1.647283
 20
0.564661
  0
VERTEX
  8
PLAN_1
  6
CONTINUOUS
 10
-1.648181
 20
0.568248
  0
VERTEX
  8
PLAN_1
  6
CONTINUOUS
 10
-1.648630
 20
0.572283
  0
VERTEX
  8
PLAN_1
  6
CONTINUOUS
 10
-1.648630
 20
0.575870
  0
VERTEX
  8
PLAN_1
  6
CONTINUOUS
 10
-1.647283
 20
0.579906
  0
VERTEX
  8
PLAN_1
  6
CONTINUOUS
 10
-1.645488
 20
0.583492
  0
VERTEX
  8
PLAN_1
  6
CONTINUOUS
 10
-1.643248
 20
0.586185
  0
VERTEX
  8
PLAN_1
  6
CONTINUOUS
 10
-1.640555
 20
0.588874
  0
VERTEX
  8
PLAN_1
  6
CONTINUOUS
 10
-1.636969
 20
0.590669
  0
VERTEX
  8
PLAN_1
  6
CONTINUOUS
 10
-1.633382
 20
0.592012
  0
VERTEX
  8
PLAN_1
  6
CONTINUOUS
 10
-1.629795
 20
0.592461
  0
VERTEX
  8
PLAN_1
  6
CONTINUOUS
 10
-1.625760
 20
0.592012
  0
SEQEND
  8
0
  0
POLYLINE
  8
PLAN_1
  6
CONTINUOUS
 66
     1
 40
0.005378
 41
0.005378
  0
VERTEX
  8
PLAN_1
  6
CONTINUOUS
 10
-1.517240
 20
0.572732
  0
VERTEX
  8
PLAN_1
  6
CONTINUOUS
 10
-1.154921
 20
0.509055
  0
VERTEX
  8
PLAN_1
  6
CONTINUOUS
 10
-1.142811
 20
0.506815
  0
SEQEND
  8
0
  0
POLYLINE
  8
PLAN_1
  6
CONTINUOUS
 66
     1
 40
0.005378
 41
0.005378
  0
VERTEX
  8
PLAN_1
  6
CONTINUOUS
 10
-1.142811
 20
0.506815
  0
VERTEX
  8
PLAN_1
  6
CONTINUOUS
 10
-1.138776
 20
0.505469
  0
VERTEX
  8
PLAN_1
  6
CONTINUOUS
 10
-1.135189
 20
0.503673
  0
VERTEX
  8
PLAN_1
  6
CONTINUOUS
 10
-1.132500
 20
0.501433
  0
VERTEX
  8
PLAN_1
  6
CONTINUOUS
 10
-1.129807
 20
0.498744
  0
VERTEX
  8
PLAN_1
  6
CONTINUOUS
 10
-1.128016
 20
0.495154
  0
VERTEX
  8
PLAN_1
  6
CONTINUOUS
 10
-1.126669
 20
0.491567
  0
VERTEX
  8
PLAN_1
  6
CONTINUOUS
 10
-1.126220
 20
0.487980
  0
VERTEX
  8
PLAN_1
  6
CONTINUOUS
 10
-1.126669
 20
0.483945
  0
VERTEX
  8
PLAN_1
  6
CONTINUOUS
 10
-1.127567
 20
0.479909
  0
VERTEX
  8
PLAN_1
  6
CONTINUOUS
 10
-1.129358
 20
0.476772
  0
VERTEX
  8
PLAN_1
  6
CONTINUOUS
 10
-1.132051
 20
0.473630
  0
VERTEX
  8
PLAN_1
  6
CONTINUOUS
 10
-1.134740
 20
0.471390
  0
VERTEX
  8
PLAN_1
  6
CONTINUOUS
 10
-1.137878
 20
0.469146
  0
VERTEX
  8
PLAN_1
  6
CONTINUOUS
 10
-1.141469
 20
0.468248
  0
VERTEX
  8
PLAN_1
  6
CONTINUOUS
 10
-1.145504
 20
0.467803
  0
VERTEX
  8
PLAN_1
  6
CONTINUOUS
 10
-1.149539
 20
0.467803
  0
SEQEND
  8
0
  0
POLYLINE
  8
PLAN_1
  6
CONTINUOUS
 66
     1
 40
0.005378
 41
0.005378
  0
VERTEX
  8
PLAN_1
  6
CONTINUOUS
 10
-1.258953
 20
0.658827
  0
VERTEX
  8
PLAN_1
  6
CONTINUOUS
 10
-1.624413
 20
0.723402
  0
VERTEX
  8
PLAN_1
  6
CONTINUOUS
 10
-1.632484
 20
0.724744
  0
SEQEND
  8
0
  0
POLYLINE
  8
PLAN_1
  6
CONTINUOUS
 66
     1
 40
0.005378
 41
0.005378
  0
VERTEX
  8
PLAN_1
  6
CONTINUOUS
 10
-1.632484
 20
0.724744
  0
VERTEX
  8
PLAN_1
  6
CONTINUOUS
 10
-1.636520
 20
0.726091
  0
VERTEX
  8
PLAN_1
  6
CONTINUOUS
 10
-1.639661
 20
0.727886
  0
VERTEX
  8
PLAN_1
  6
CONTINUOUS
 10
-1.642799
 20
0.730126
  0
VERTEX
  8
PLAN_1
  6
CONTINUOUS
 10
-1.645039
 20
0.732815
  0
VERTEX
  8
PLAN_1
  6
CONTINUOUS
 10
-1.647283
 20
0.736406
  0
VERTEX
  8
PLAN_1
  6
CONTINUOUS
 10
-1.648181
 20
0.739992
  0
VERTEX
  8
PLAN_1
  6
CONTINUOUS
 10
-1.648630
 20
0.743579
  0
VERTEX
  8
PLAN_1
  6
CONTINUOUS
 10
-1.648630
 20
0.747614
  0
VERTEX
  8
PLAN_1
  6
CONTINUOUS
 10
-1.647283
 20
0.751650
  0
VERTEX
  8
PLAN_1
  6
CONTINUOUS
 10
-1.645488
 20
0.754787
  0
VERTEX
  8
PLAN_1
  6
CONTINUOUS
 10
-1.643248
 20
0.757929
  0
VERTEX
  8
PLAN_1
  6
CONTINUOUS
 10
-1.640555
 20
0.760169
  0
VERTEX
  8
PLAN_1
  6
CONTINUOUS
 10
-1.636969
 20
0.762413
  0
VERTEX
  8
PLAN_1
  6
CONTINUOUS
 10
-1.633382
 20
0.763311
  0
VERTEX
  8
PLAN_1
  6
CONTINUOUS
 10
-1.629795
 20
0.763756
  0
VERTEX
  8
PLAN_1
  6
CONTINUOUS
 10
-1.625760
 20
0.763756
  0
SEQEND
  8
0
  0
POLYLINE
  8
PLAN_1
  6
CONTINUOUS
 66
     1
 40
0.005378
 41
0.005378
  0
VERTEX
  8
PLAN_1
  6
CONTINUOUS
 10
-1.516346
 20
0.744476
  0
VERTEX
  8
PLAN_1
  6
CONTINUOUS
 10
-1.154921
 20
0.680350
  0
VERTEX
  8
PLAN_1
  6
CONTINUOUS
 10
-1.142811
 20
0.678110
  0
SEQEND
  8
0
  0
POLYLINE
  8
PLAN_1
  6
CONTINUOUS
 66
     1
 40
0.005378
 41
0.005378
  0
VERTEX
  8
PLAN_1
  6
CONTINUOUS
 10
-1.142811
 20
0.678110
  0
VERTEX
  8
PLAN_1
  6
CONTINUOUS
 10
-1.138776
 20
0.677213
  0
VERTEX
  8
PLAN_1
  6
CONTINUOUS
 10
-1.135189
 20
0.675417
  0
VERTEX
  8
PLAN_1
  6
CONTINUOUS
 10
-1.132500
 20
0.673177
  0
VERTEX
  8
PLAN_1
  6
CONTINUOUS
 10
-1.129807
 20
0.670039
  0
VERTEX
  8
PLAN_1
  6
CONTINUOUS
 10
-1.128016
 20
0.666898
  0
VERTEX
  8
PLAN_1
  6
CONTINUOUS
 10
-1.126669
 20
0.663311
  0
VERTEX
  8
PLAN_1
  6
CONTINUOUS
 10
-1.126220
 20
0.659276
  0
VERTEX
  8
PLAN_1
  6
CONTINUOUS
 10
-1.126669
 20
0.655689
  0
VERTEX
  8
PLAN_1
  6
CONTINUOUS
 10
-1.127567
 20
0.651654
  0
VERTEX
  8
PLAN_1
  6
CONTINUOUS
 10
-1.129358
 20
0.648067
  0
VERTEX
  8
PLAN_1
  6
CONTINUOUS
 10
-1.132051
 20
0.645374
  0
VERTEX
  8
PLAN_1
  6
CONTINUOUS
 10
-1.134740
 20
0.642685
  0
VERTEX
  8
PLAN_1
  6
CONTINUOUS
 10
-1.137878
 20
0.640890
  0
VERTEX
  8
PLAN_1
  6
CONTINUOUS
 10
-1.141469
 20
0.639547
  0
VERTEX
  8
PLAN_1
  6
CONTINUOUS
 10
-1.145504
 20
0.639098
  0
VERTEX
  8
PLAN_1
  6
CONTINUOUS
 10
-1.149539
 20
0.639547
  0
SEQEND
  8
0
  0
SOLID
  8
PLAN_1
 62
     2
 10
-1.369264
 20
3.335886
 11
-1.338772
 21
3.388799
 12
-1.369264
 22
3.335886
 13
-1.316350
 23
3.366378
  0
POLYLINE
  8
PLAN_1
 62
     2
  6
CONTINUOUS
 66
     1
 40
0.003000
 41
0.003000
  0
VERTEX
  8
PLAN_1
 62
     2
  6
CONTINUOUS
 10
-1.369264
 20
3.335886
  0
VERTEX
  8
PLAN_1
 62
     2
  6
CONTINUOUS
 10
-1.338772
 20
3.388799
  0
VERTEX
  8
PLAN_1
 62
     2
  6
CONTINUOUS
 10
-1.316350
 20
3.366378
  0
VERTEX
  8
PLAN_1
 62
     2
  6
CONTINUOUS
 10
-1.369264
 20
3.335886
  0
SEQEND
  8
0
  0
POLYLINE
  8
PLAN_1
 62
     2
  6
CONTINUOUS
 66
     1
 40
0.004035
 41
0.004035
  0
VERTEX
  8
PLAN_1
 62
     2
  6
CONTINUOUS
 10
-1.342807
 20
3.362343
  0
VERTEX
  8
PLAN_1
 62
     2
  6
CONTINUOUS
 10
-1.213213
 20
3.486555
  0
VERTEX
  8
PLAN_1
 62
     2
  6
CONTINUOUS
 10
-0.924882
 20
3.486555
  0
SEQEND
  8
0
  0
POLYLINE
  8
PLAN_1
 62
     2
  6
CONTINUOUS
 66
     1
 40
0.003000
 41
0.003000
  0
VERTEX
  8
PLAN_1
 62
     2
  6
CONTINUOUS
 10
-1.110976
 20
3.574445
  0
VERTEX
  8
PLAN_1
 62
     2
  6
CONTINUOUS
 10
-1.109181
 20
3.571307
  0
VERTEX
  8
PLAN_1
 62
     2
  6
CONTINUOUS
 10
-1.107386
 20
3.568165
  0
VERTEX
  8
PLAN_1
 62
     2
  6
CONTINUOUS
 10
-1.105594
 20
3.564579
  0
VERTEX
  8
PLAN_1
 62
     2
  6
CONTINUOUS
 10
-1.104697
 20
3.560992
  0
VERTEX
  8
PLAN_1
 62
     2
  6
CONTINUOUS
 10
-1.103799
 20
3.557854
  0
VERTEX
  8
PLAN_1
 62
     2
  6
CONTINUOUS
 10
-1.102902
 20
3.554264
  0
VERTEX
  8
PLAN_1
 62
     2
  6
CONTINUOUS
 10
-1.102902
 20
3.551126
  0
VERTEX
  8
PLAN_1
 62
     2
  6
CONTINUOUS
 10
-1.102453
 20
3.547539
  0
VERTEX
  8
PLAN_1
 62
     2
  6
CONTINUOUS
 10
-1.102902
 20
3.541260
  0
VERTEX
  8
PLAN_1
 62
     2
  6
CONTINUOUS
 10
-1.104248
 20
3.534535
  0
VERTEX
  8
PLAN_1
 62
     2
  6
CONTINUOUS
 10
-1.105594
 20
3.531398
  0
VERTEX
  8
PLAN_1
 62
     2
  6
CONTINUOUS
 10
-1.106937
 20
3.528256
  0
VERTEX
  8
PLAN_1
 62
     2
  6
CONTINUOUS
 10
-1.108283
 20
3.525118
  0
VERTEX
  8
PLAN_1
 62
     2
  6
CONTINUOUS
 10
-1.110528
 20
3.521980
  0
VERTEX
  8
PLAN_1
 62
     2
  6
CONTINUOUS
 10
-1.112768
 20
3.519287
  0
VERTEX
  8
PLAN_1
 62
     2
  6
CONTINUOUS
 10
-1.115461
 20
3.516598
  0
VERTEX
  8
PLAN_1
 62
     2
  6
CONTINUOUS
 10
-1.118150
 20
3.514354
  0
VERTEX
  8
PLAN_1
 62
     2
  6
CONTINUOUS
 10
-1.121736
 20
3.512114
  0
VERTEX
  8
PLAN_1
 62
     2
  6
CONTINUOUS
 10
-1.125323
 20
3.510768
  0
VERTEX
  8
PLAN_1
 62
     2
  6
CONTINUOUS
 10
-1.129358
 20
3.509425
  0
VERTEX
  8
PLAN_1
 62
     2
  6
CONTINUOUS
 10
-1.134291
 20
3.508528
  0
VERTEX
  8
PLAN_1
 62
     2
  6
CONTINUOUS
 10
-1.139224
 20
3.508528
  0
VERTEX
  8
PLAN_1
 62
     2
  6
CONTINUOUS
 10
-1.142811
 20
3.508528
  0
VERTEX
  8
PLAN_1
 62
     2
  6
CONTINUOUS
 10
-1.146846
 20
3.508976
  0
VERTEX
  8
PLAN_1
 62
     2
  6
CONTINUOUS
 10
-1.149988
 20
3.509870
  0
VERTEX
  8
PLAN_1
 62
     2
  6
CONTINUOUS
 10
-1.153126
 20
3.510768
  0
VERTEX
  8
PLAN_1
 62
     2
  6
CONTINUOUS
 10
-1.156264
 20
3.512114
  0
VERTEX
  8
PLAN_1
 62
     2
  6
CONTINUOUS
 10
-1.158957
 20
3.513909
  0
VERTEX
  8
PLAN_1
 62
     2
  6
CONTINUOUS
 10
-1.161197
 20
3.515252
  0
VERTEX
  8
PLAN_1
 62
     2
  6
CONTINUOUS
 10
-1.163441
 20
3.517496
  0
VERTEX
  8
PLAN_1
 62
     2
  6
CONTINUOUS
 10
-1.171961
 20
3.508528
  0
VERTEX
  8
PLAN_1
 62
     2
  6
CONTINUOUS
 10
-1.175098
 20
3.511217
  0
VERTEX
  8
PLAN_1
 62
     2
  6
CONTINUOUS
 10
-1.166579
 20
3.520634
  0
VERTEX
  8
PLAN_1
 62
     2
  6
CONTINUOUS
 10
-1.168819
 20
3.523772
  0
VERTEX
  8
PLAN_1
 62
     2
  6
CONTINUOUS
 10
-1.170614
 20
3.526913
  0
VERTEX
  8
PLAN_1
 62
     2
  6
CONTINUOUS
 10
-1.172409
 20
3.530500
  0
VERTEX
  8
PLAN_1
 62
     2
  6
CONTINUOUS
 10
-1.173303
 20
3.534087
  0
VERTEX
  8
PLAN_1
 62
     2
  6
CONTINUOUS
 10
-1.174201
 20
3.537673
  0
VERTEX
  8
PLAN_1
 62
     2
  6
CONTINUOUS
 10
-1.175098
 20
3.540811
  0
VERTEX
  8
PLAN_1
 62
     2
  6
CONTINUOUS
 10
-1.175547
 20
3.544402
  0
VERTEX
  8
PLAN_1
 62
     2
  6
CONTINUOUS
 10
-1.175547
 20
3.547539
  0
VERTEX
  8
PLAN_1
 62
     2
  6
CONTINUOUS
 10
-1.175098
 20
3.553819
  0
VERTEX
  8
PLAN_1
 62
     2
  6
CONTINUOUS
 10
-1.173752
 20
3.560543
  0
VERTEX
  8
PLAN_1
 62
     2
  6
CONTINUOUS
 10
-1.172858
 20
3.564130
  0
VERTEX
  8
PLAN_1
 62
     2
  6
CONTINUOUS
 10
-1.171512
 20
3.567268
  0
VERTEX
  8
PLAN_1
 62
     2
  6
CONTINUOUS
 10
-1.169717
 20
3.570409
  0
VERTEX
  8
PLAN_1
 62
     2
  6
CONTINUOUS
 10
-1.167925
 20
3.573547
  0
VERTEX
  8
PLAN_1
 62
     2
  6
CONTINUOUS
 10
-1.165681
 20
3.576236
  0
VERTEX
  8
PLAN_1
 62
     2
  6
CONTINUOUS
 10
-1.162992
 20
3.578929
  0
VERTEX
  8
PLAN_1
 62
     2
  6
CONTINUOUS
 10
-1.159850
 20
3.581169
  0
VERTEX
  8
PLAN_1
 62
     2
  6
CONTINUOUS
 10
-1.156713
 20
3.582965
  0
VERTEX
  8
PLAN_1
 62
     2
  6
CONTINUOUS
 10
-1.152677
 20
3.584760
  0
VERTEX
  8
PLAN_1
 62
     2
  6
CONTINUOUS
 10
-1.148642
 20
3.586102
  0
VERTEX
  8
PLAN_1
 62
     2
  6
CONTINUOUS
 10
-1.144157
 20
3.586551
  0
VERTEX
  8
PLAN_1
 62
     2
  6
CONTINUOUS
 10
-1.139224
 20
3.587000
  0
VERTEX
  8
PLAN_1
 62
     2
  6
CONTINUOUS
 10
-1.135189
 20
3.587000
  0
VERTEX
  8
PLAN_1
 62
     2
  6
CONTINUOUS
 10
-1.131154
 20
3.586102
  0
VERTEX
  8
PLAN_1
 62
     2
  6
CONTINUOUS
 10
-1.127567
 20
3.585654
  0
VERTEX
  8
PLAN_1
 62
     2
  6
CONTINUOUS
 10
-1.124425
 20
3.584311
  0
VERTEX
  8
PLAN_1
 62
     2
  6
CONTINUOUS
 10
-1.121736
 20
3.582965
  0
VERTEX
  8
PLAN_1
 62
     2
  6
CONTINUOUS
 10
-1.119047
 20
3.581618
  0
VERTEX
  8
PLAN_1
 62
     2
  6
CONTINUOUS
 10
-1.116354
 20
3.579827
  0
VERTEX
  8
PLAN_1
 62
     2
  6
CONTINUOUS
 10
-1.114114
 20
3.577583
  0
VERTEX
  8
PLAN_1
 62
     2
  6
CONTINUOUS
 10
-1.105594
 20
3.587000
  0
VERTEX
  8
PLAN_1
 62
     2
  6
CONTINUOUS
 10
-1.102453
 20
3.583862
  0
VERTEX
  8
PLAN_1
 62
     2
  6
CONTINUOUS
 10
-1.110976
 20
3.574445
  0
SEQEND
  8
0
  0
POLYLINE
  8
PLAN_1
 62
     2
  6
CONTINUOUS
 66
     1
 40
0.003000
 41
0.003000
  0
VERTEX
  8
PLAN_1
 62
     2
  6
CONTINUOUS
 10
-1.157161
 20
3.524669
  0
VERTEX
  8
PLAN_1
 62
     2
  6
CONTINUOUS
 10
-1.155366
 20
3.522878
  0
VERTEX
  8
PLAN_1
 62
     2
  6
CONTINUOUS
 10
-1.153575
 20
3.521531
  0
VERTEX
  8
PLAN_1
 62
     2
  6
CONTINUOUS
 10
-1.151331
 20
3.520185
  0
VERTEX
  8
PLAN_1
 62
     2
  6
CONTINUOUS
 10
-1.149091
 20
3.519287
  0
VERTEX
  8
PLAN_1
 62
     2
  6
CONTINUOUS
 10
-1.146846
 20
3.518394
  0
VERTEX
  8
PLAN_1
 62
     2
  6
CONTINUOUS
 10
-1.144606
 20
3.517945
  0
VERTEX
  8
PLAN_1
 62
     2
  6
CONTINUOUS
 10
-1.141917
 20
3.517496
  0
VERTEX
  8
PLAN_1
 62
     2
  6
CONTINUOUS
 10
-1.139224
 20
3.517496
  0
VERTEX
  8
PLAN_1
 62
     2
  6
CONTINUOUS
 10
-1.136087
 20
3.517496
  0
VERTEX
  8
PLAN_1
 62
     2
  6
CONTINUOUS
 10
-1.133394
 20
3.517945
  0
VERTEX
  8
PLAN_1
 62
     2
  6
CONTINUOUS
 10
-1.130705
 20
3.518394
  0
VERTEX
  8
PLAN_1
 62
     2
  6
CONTINUOUS
 10
-1.128016
 20
3.519736
  0
VERTEX
  8
PLAN_1
 62
     2
  6
CONTINUOUS
 10
-1.125772
 20
3.520634
  0
VERTEX
  8
PLAN_1
 62
     2
  6
CONTINUOUS
 10
-1.123531
 20
3.522429
  0
VERTEX
  8
PLAN_1
 62
     2
  6
CONTINUOUS
 10
-1.121736
 20
3.523772
  0
VERTEX
  8
PLAN_1
 62
     2
  6
CONTINUOUS
 10
-1.119945
 20
3.526016
  0
VERTEX
  8
PLAN_1
 62
     2
  6
CONTINUOUS
 10
-1.118598
 20
3.527807
  0
VERTEX
  8
PLAN_1
 62
     2
  6
CONTINUOUS
 10
-1.116803
 20
3.530500
  0
VERTEX
  8
PLAN_1
 62
     2
  6
CONTINUOUS
 10
-1.115906
 20
3.532740
  0
VERTEX
  8
PLAN_1
 62
     2
  6
CONTINUOUS
 10
-1.115012
 20
3.535433
  0
VERTEX
  8
PLAN_1
 62
     2
  6
CONTINUOUS
 10
-1.114114
 20
3.538122
  0
VERTEX
  8
PLAN_1
 62
     2
  6
CONTINUOUS
 10
-1.113665
 20
3.541260
  0
VERTEX
  8
PLAN_1
 62
     2
  6
CONTINUOUS
 10
-1.113217
 20
3.544402
  0
VERTEX
  8
PLAN_1
 62
     2
  6
CONTINUOUS
 10
-1.113217
 20
3.547539
  0
VERTEX
  8
PLAN_1
 62
     2
  6
CONTINUOUS
 10
-1.113217
 20
3.550228
  0
VERTEX
  8
PLAN_1
 62
     2
  6
CONTINUOUS
 10
-1.113217
 20
3.552921
  0
VERTEX
  8
PLAN_1
 62
     2
  6
CONTINUOUS
 10
-1.113665
 20
3.555610
  0
VERTEX
  8
PLAN_1
 62
     2
  6
CONTINUOUS
 10
-1.114563
 20
3.558303
  0
VERTEX
  8
PLAN_1
 62
     2
  6
CONTINUOUS
 10
-1.115012
 20
3.560543
  0
VERTEX
  8
PLAN_1
 62
     2
  6
CONTINUOUS
 10
-1.115906
 20
3.562783
  0
VERTEX
  8
PLAN_1
 62
     2
  6
CONTINUOUS
 10
-1.116803
 20
3.565028
  0
VERTEX
  8
PLAN_1
 62
     2
  6
CONTINUOUS
 10
-1.118150
 20
3.566823
  0
VERTEX
  8
PLAN_1
 62
     2
  6
CONTINUOUS
 10
-1.157161
 20
3.524669
  0
SEQEND
  8
0
  0
POLYLINE
  8
PLAN_1
 62
     2
  6
CONTINUOUS
 66
     1
 40
0.003000
 41
0.003000
  0
VERTEX
  8
PLAN_1
 62
     2
  6
CONTINUOUS
 10
-1.120839
 20
3.570409
  0
VERTEX
  8
PLAN_1
 62
     2
  6
CONTINUOUS
 10
-1.122634
 20
3.572201
  0
VERTEX
  8
PLAN_1
 62
     2
  6
CONTINUOUS
 10
-1.124425
 20
3.573547
  0
VERTEX
  8
PLAN_1
 62
     2
  6
CONTINUOUS
 10
-1.126669
 20
3.574894
  0
VERTEX
  8
PLAN_1
 62
     2
  6
CONTINUOUS
 10
-1.128909
 20
3.576236
  0
VERTEX
  8
PLAN_1
 62
     2
  6
CONTINUOUS
 10
-1.131154
 20
3.576685
  0
VERTEX
  8
PLAN_1
 62
     2
  6
CONTINUOUS
 10
-1.133843
 20
3.577583
  0
VERTEX
  8
PLAN_1
 62
     2
  6
CONTINUOUS
 10
-1.136087
 20
3.578031
  0
VERTEX
  8
PLAN_1
 62
     2
  6
CONTINUOUS
 10
-1.139224
 20
3.578031
  0
VERTEX
  8
PLAN_1
 62
     2
  6
CONTINUOUS
 10
-1.141917
 20
3.578031
  0
VERTEX
  8
PLAN_1
 62
     2
  6
CONTINUOUS
 10
-1.145055
 20
3.577583
  0
VERTEX
  8
PLAN_1
 62
     2
  6
CONTINUOUS
 10
-1.147295
 20
3.576685
  0
VERTEX
  8
PLAN_1
 62
     2
  6
CONTINUOUS
 10
-1.149988
 20
3.575791
  0
VERTEX
  8
PLAN_1
 62
     2
  6
CONTINUOUS
 10
-1.152228
 20
3.574445
  0
VERTEX
  8
PLAN_1
 62
     2
  6
CONTINUOUS
 10
-1.154472
 20
3.573098
  0
VERTEX
  8
PLAN_1
 62
     2
  6
CONTINUOUS
 10
-1.156264
 20
3.571307
  0
VERTEX
  8
PLAN_1
 62
     2
  6
CONTINUOUS
 10
-1.158059
 20
3.569512
  0
VERTEX
  8
PLAN_1
 62
     2
  6
CONTINUOUS
 10
-1.159850
 20
3.567268
  0
VERTEX
  8
PLAN_1
 62
     2
  6
CONTINUOUS
 10
-1.161197
 20
3.565028
  0
VERTEX
  8
PLAN_1
 62
     2
  6
CONTINUOUS
 10
-1.162543
 20
3.562339
  0
VERTEX
  8
PLAN_1
 62
     2
  6
CONTINUOUS
 10
-1.163441
 20
3.559646
  0
VERTEX
  8
PLAN_1
 62
     2
  6
CONTINUOUS
 10
-1.163890
 20
3.556957
  0
VERTEX
  8
PLAN_1
 62
     2
  6
CONTINUOUS
 10
-1.164783
 20
3.553819
  0
VERTEX
  8
PLAN_1
 62
     2
  6
CONTINUOUS
 10
-1.164783
 20
3.551126
  0
VERTEX
  8
PLAN_1
 62
     2
  6
CONTINUOUS
 10
-1.165232
 20
3.547539
  0
VERTEX
  8
PLAN_1
 62
     2
  6
CONTINUOUS
 10
-1.164783
 20
3.544850
  0
VERTEX
  8
PLAN_1
 62
     2
  6
CONTINUOUS
 10
-1.164783
 20
3.542157
  0
VERTEX
  8
PLAN_1
 62
     2
  6
CONTINUOUS
 10
-1.164335
 20
3.539469
  0
VERTEX
  8
PLAN_1
 62
     2
  6
CONTINUOUS
 10
-1.163890
 20
3.537224
  0
VERTEX
  8
PLAN_1
 62
     2
  6
CONTINUOUS
 10
-1.162992
 20
3.534535
  0
VERTEX
  8
PLAN_1
 62
     2
  6
CONTINUOUS
 10
-1.162094
 20
3.532291
  0
VERTEX
  8
PLAN_1
 62
     2
  6
CONTINUOUS
 10
-1.161197
 20
3.530051
  0
VERTEX
  8
PLAN_1
 62
     2
  6
CONTINUOUS
 10
-1.159850
 20
3.528256
  0
VERTEX
  8
PLAN_1
 62
     2
  6
CONTINUOUS
 10
-1.120839
 20
3.570409
  0
SEQEND
  8
0
  0
POLYLINE
  8
PLAN_1
 62
     2
  6
CONTINUOUS
 66
     1
 40
0.003000
 41
0.003000
  0
VERTEX
  8
PLAN_1
 62
     2
  6
CONTINUOUS
 10
-1.093933
 20
3.557406
  0
VERTEX
  8
PLAN_1
 62
     2
  6
CONTINUOUS
 10
-1.093933
 20
3.561441
  0
VERTEX
  8
PLAN_1
 62
     2
  6
CONTINUOUS
 10
-1.093039
 20
3.565028
  0
VERTEX
  8
PLAN_1
 62
     2
  6
CONTINUOUS
 10
-1.092142
 20
3.568614
  0
VERTEX
  8
PLAN_1
 62
     2
  6
CONTINUOUS
 10
-1.091244
 20
3.571307
  0
VERTEX
  8
PLAN_1
 62
     2
  6
CONTINUOUS
 10
-1.089898
 20
3.573996
  0
VERTEX
  8
PLAN_1
 62
     2
  6
CONTINUOUS
 10
-1.088106
 20
3.575791
  0
VERTEX
  8
PLAN_1
 62
     2
  6
CONTINUOUS
 10
-1.086311
 20
3.577583
  0
VERTEX
  8
PLAN_1
 62
     2
  6
CONTINUOUS
 10
-1.084071
 20
3.579378
  0
VERTEX
  8
PLAN_1
 62
     2
  6
CONTINUOUS
 10
-1.080035
 20
3.581618
  0
VERTEX
  8
PLAN_1
 62
     2
  6
CONTINUOUS
 10
-1.075996
 20
3.582516
  0
VERTEX
  8
PLAN_1
 62
     2
  6
CONTINUOUS
 10
-1.071961
 20
3.583413
  0
VERTEX
  8
PLAN_1
 62
     2
  6
CONTINUOUS
 10
-1.068823
 20
3.583413
  0
VERTEX
  8
PLAN_1
 62
     2
  6
CONTINUOUS
 10
-1.063890
 20
3.582965
  0
VERTEX
  8
PLAN_1
 62
     2
  6
CONTINUOUS
 10
-1.059854
 20
3.582067
  0
VERTEX
  8
PLAN_1
 62
     2
  6
CONTINUOUS
 10
-1.055819
 20
3.580276
  0
VERTEX
  8
PLAN_1
 62
     2
  6
CONTINUOUS
 10
-1.052681
 20
3.577583
  0
VERTEX
  8
PLAN_1
 62
     2
  6
CONTINUOUS
 10
-1.050886
 20
3.576236
  0
VERTEX
  8
PLAN_1
 62
     2
  6
CONTINUOUS
 10
-1.049539
 20
3.574445
  0
VERTEX
  8
PLAN_1
 62
     2
  6
CONTINUOUS
 10
-1.048646
 20
3.572650
  0
VERTEX
  8
PLAN_1
 62
     2
  6
CONTINUOUS
 10
-1.047748
 20
3.570858
  0
VERTEX
  8
PLAN_1
 62
     2
  6
CONTINUOUS
 10
-1.046850
 20
3.568614
  0
VERTEX
  8
PLAN_1
 62
     2
  6
CONTINUOUS
 10
-1.046402
 20
3.566374
  0
VERTEX
  8
PLAN_1
 62
     2
  6
CONTINUOUS
 10
-1.045953
 20
3.564130
  0
VERTEX
  8
PLAN_1
 62
     2
  6
CONTINUOUS
 10
-1.045953
 20
3.561441
  0
VERTEX
  8
PLAN_1
 62
     2
  6
CONTINUOUS
 10
-1.046402
 20
3.556957
  0
VERTEX
  8
PLAN_1
 62
     2
  6
CONTINUOUS
 10
-1.047299
 20
3.552921
  0
VERTEX
  8
PLAN_1
 62
     2
  6
CONTINUOUS
 10
-1.049094
 20
3.549780
  0
VERTEX
  8
PLAN_1
 62
     2
  6
CONTINUOUS
 10
-1.051335
 20
3.546642
  0
VERTEX
  8
PLAN_1
 62
     2
  6
CONTINUOUS
 10
-1.054472
 20
3.543953
  0
VERTEX
  8
PLAN_1
 62
     2
  6
CONTINUOUS
 10
-1.057614
 20
3.541709
  0
VERTEX
  8
PLAN_1
 62
     2
  6
CONTINUOUS
 10
-1.061201
 20
3.539469
  0
VERTEX
  8
PLAN_1
 62
     2
  6
CONTINUOUS
 10
-1.065236
 20
3.537224
  0
VERTEX
  8
PLAN_1
 62
     2
  6
CONTINUOUS
 10
-1.072858
 20
3.533189
  0
VERTEX
  8
PLAN_1
 62
     2
  6
CONTINUOUS
 10
-1.076445
 20
3.530949
  0
VERTEX
  8
PLAN_1
 62
     2
  6
CONTINUOUS
 10
-1.079138
 20
3.528705
  0
VERTEX
  8
PLAN_1
 62
     2
  6
CONTINUOUS
 10
-1.081378
 20
3.526913
  0
VERTEX
  8
PLAN_1
 62
     2
  6
CONTINUOUS
 10
-1.082724
 20
3.525118
  0
VERTEX
  8
PLAN_1
 62
     2
  6
CONTINUOUS
 10
-1.084071
 20
3.523323
  0
VERTEX
  8
PLAN_1
 62
     2
  6
CONTINUOUS
 10
-1.084965
 20
3.521531
  0
VERTEX
  8
PLAN_1
 62
     2
  6
CONTINUOUS
 10
-1.085413
 20
3.520185
  0
VERTEX
  8
PLAN_1
 62
     2
  6
CONTINUOUS
 10
-1.085413
 20
3.518839
  0
VERTEX
  8
PLAN_1
 62
     2
  6
CONTINUOUS
 10
-1.045953
 20
3.518839
  0
VERTEX
  8
PLAN_1
 62
     2
  6
CONTINUOUS
 10
-1.045953
 20
3.510319
  0
VERTEX
  8
PLAN_1
 62
     2
  6
CONTINUOUS
 10
-1.095728
 20
3.510319
  0
VERTEX
  8
PLAN_1
 62
     2
  6
CONTINUOUS
 10
-1.095280
 20
3.515701
  0
VERTEX
  8
PLAN_1
 62
     2
  6
CONTINUOUS
 10
-1.094382
 20
3.520634
  0
VERTEX
  8
PLAN_1
 62
     2
  6
CONTINUOUS
 10
-1.092591
 20
3.524669
  0
VERTEX
  8
PLAN_1
 62
     2
  6
CONTINUOUS
 10
-1.090795
 20
3.528256
  0
VERTEX
  8
PLAN_1
 62
     2
  6
CONTINUOUS
 10
-1.088106
 20
3.531846
  0
VERTEX
  8
PLAN_1
 62
     2
  6
CONTINUOUS
 10
-1.085413
 20
3.534535
  0
VERTEX
  8
PLAN_1
 62
     2
  6
CONTINUOUS
 10
-1.082276
 20
3.537224
  0
VERTEX
  8
PLAN_1
 62
     2
  6
CONTINUOUS
 10
-1.078689
 20
3.539469
  0
VERTEX
  8
PLAN_1
 62
     2
  6
CONTINUOUS
 10
-1.068823
 20
3.544850
  0
VERTEX
  8
PLAN_1
 62
     2
  6
CONTINUOUS
 10
-1.066134
 20
3.546642
  0
VERTEX
  8
PLAN_1
 62
     2
  6
CONTINUOUS
 10
-1.063441
 20
3.547988
  0
VERTEX
  8
PLAN_1
 62
     2
  6
CONTINUOUS
 10
-1.061201
 20
3.549780
  0
VERTEX
  8
PLAN_1
 62
     2
  6
CONTINUOUS
 10
-1.059406
 20
3.551575
  0
VERTEX
  8
PLAN_1
 62
     2
  6
CONTINUOUS
 10
-1.057614
 20
3.553819
  0
VERTEX
  8
PLAN_1
 62
     2
  6
CONTINUOUS
 10
-1.056717
 20
3.556059
  0
VERTEX
  8
PLAN_1
 62
     2
  6
CONTINUOUS
 10
-1.055819
 20
3.558748
  0
VERTEX
  8
PLAN_1
 62
     2
  6
CONTINUOUS
 10
-1.055370
 20
3.561890
  0
VERTEX
  8
PLAN_1
 62
     2
  6
CONTINUOUS
 10
-1.055819
 20
3.564130
  0
VERTEX
  8
PLAN_1
 62
     2
  6
CONTINUOUS
 10
-1.056268
 20
3.566374
  0
VERTEX
  8
PLAN_1
 62
     2
  6
CONTINUOUS
 10
-1.057165
 20
3.568614
  0
VERTEX
  8
PLAN_1
 62
     2
  6
CONTINUOUS
 10
-1.058957
 20
3.570858
  0
VERTEX
  8
PLAN_1
 62
     2
  6
CONTINUOUS
 10
-1.060752
 20
3.572650
  0
VERTEX
  8
PLAN_1
 62
     2
  6
CONTINUOUS
 10
-1.063441
 20
3.573996
  0
VERTEX
  8
PLAN_1
 62
     2
  6
CONTINUOUS
 10
-1.066134
 20
3.574894
  0
VERTEX
  8
PLAN_1
 62
     2
  6
CONTINUOUS
 10
-1.070169
 20
3.575343
  0
VERTEX
  8
PLAN_1
 62
     2
  6
CONTINUOUS
 10
-1.072409
 20
3.574894
  0
VERTEX
  8
PLAN_1
 62
     2
  6
CONTINUOUS
 10
-1.074654
 20
3.574894
  0
VERTEX
  8
PLAN_1
 62
     2
  6
CONTINUOUS
 10
-1.076445
 20
3.573996
  0
VERTEX
  8
PLAN_1
 62
     2
  6
CONTINUOUS
 10
-1.078240
 20
3.573098
  0
VERTEX
  8
PLAN_1
 62
     2
  6
CONTINUOUS
 10
-1.079587
 20
3.572201
  0
VERTEX
  8
PLAN_1
 62
     2
  6
CONTINUOUS
 10
-1.080929
 20
3.570858
  0
VERTEX
  8
PLAN_1
 62
     2
  6
CONTINUOUS
 10
-1.081827
 20
3.569512
  0
VERTEX
  8
PLAN_1
 62
     2
  6
CONTINUOUS
 10
-1.082276
 20
3.568165
  0
VERTEX
  8
PLAN_1
 62
     2
  6
CONTINUOUS
 10
-1.083622
 20
3.565028
  0
VERTEX
  8
PLAN_1
 62
     2
  6
CONTINUOUS
 10
-1.084520
 20
3.562339
  0
VERTEX
  8
PLAN_1
 62
     2
  6
CONTINUOUS
 10
-1.084520
 20
3.559646
  0
VERTEX
  8
PLAN_1
 62
     2
  6
CONTINUOUS
 10
-1.084965
 20
3.557406
  0
VERTEX
  8
PLAN_1
 62
     2
  6
CONTINUOUS
 10
-1.093933
 20
3.557406
  0
SEQEND
  8
0
  0
POLYLINE
  8
PLAN_1
 62
     2
  6
CONTINUOUS
 66
     1
 40
0.003000
 41
0.003000
  0
VERTEX
  8
PLAN_1
 62
     2
  6
CONTINUOUS
 10
-1.036091
 20
3.557406
  0
VERTEX
  8
PLAN_1
 62
     2
  6
CONTINUOUS
 10
-1.036091
 20
3.561441
  0
VERTEX
  8
PLAN_1
 62
     2
  6
CONTINUOUS
 10
-1.035193
 20
3.565028
  0
VERTEX
  8
PLAN_1
 62
     2
  6
CONTINUOUS
 10
-1.034295
 20
3.568614
  0
VERTEX
  8
PLAN_1
 62
     2
  6
CONTINUOUS
 10
-1.033398
 20
3.571307
  0
VERTEX
  8
PLAN_1
 62
     2
  6
CONTINUOUS
 10
-1.031606
 20
3.573996
  0
VERTEX
  8
PLAN_1
 62
     2
  6
CONTINUOUS
 10
-1.030260
 20
3.575791
  0
VERTEX
  8
PLAN_1
 62
     2
  6
CONTINUOUS
 10
-1.028465
 20
3.577583
  0
VERTEX
  8
PLAN_1
 62
     2
  6
CONTINUOUS
 10
-1.026224
 20
3.579378
  0
VERTEX
  8
PLAN_1
 62
     2
  6
CONTINUOUS
 10
-1.022189
 20
3.581618
  0
VERTEX
  8
PLAN_1
 62
     2
  6
CONTINUOUS
 10
-1.018154
 20
3.582516
  0
VERTEX
  8
PLAN_1
 62
     2
  6
CONTINUOUS
 10
-1.014118
 20
3.583413
  0
VERTEX
  8
PLAN_1
 62
     2
  6
CONTINUOUS
 10
-1.010976
 20
3.583413
  0
VERTEX
  8
PLAN_1
 62
     2
  6
CONTINUOUS
 10
-1.006043
 20
3.582965
  0
VERTEX
  8
PLAN_1
 62
     2
  6
CONTINUOUS
 10
-1.002008
 20
3.582067
  0
VERTEX
  8
PLAN_1
 62
     2
  6
CONTINUOUS
 10
-0.997972
 20
3.580276
  0
VERTEX
  8
PLAN_1
 62
     2
  6
CONTINUOUS
 10
-0.994386
 20
3.577583
  0
VERTEX
  8
PLAN_1
 62
     2
  6
CONTINUOUS
 10
-0.993039
 20
3.576236
  0
VERTEX
  8
PLAN_1
 62
     2
  6
CONTINUOUS
 10
-0.991697
 20
3.574445
  0
VERTEX
  8
PLAN_1
 62
     2
  6
CONTINUOUS
 10
-0.990799
 20
3.572650
  0
VERTEX
  8
PLAN_1
 62
     2
  6
CONTINUOUS
 10
-0.989902
 20
3.570858
  0
VERTEX
  8
PLAN_1
 62
     2
  6
CONTINUOUS
 10
-0.989004
 20
3.568614
  0
VERTEX
  8
PLAN_1
 62
     2
  6
CONTINUOUS
 10
-0.988555
 20
3.566374
  0
VERTEX
  8
PLAN_1
 62
     2
  6
CONTINUOUS
 10
-0.988106
 20
3.564130
  0
VERTEX
  8
PLAN_1
 62
     2
  6
CONTINUOUS
 10
-0.988106
 20
3.561441
  0
VERTEX
  8
PLAN_1
 62
     2
  6
CONTINUOUS
 10
-0.988106
 20
3.556957
  0
VERTEX
  8
PLAN_1
 62
     2
  6
CONTINUOUS
 10
-0.989453
 20
3.552921
  0
VERTEX
  8
PLAN_1
 62
     2
  6
CONTINUOUS
 10
-0.991248
 20
3.549780
  0
VERTEX
  8
PLAN_1
 62
     2
  6
CONTINUOUS
 10
-0.993488
 20
3.546642
  0
VERTEX
  8
PLAN_1
 62
     2
  6
CONTINUOUS
 10
-0.996626
 20
3.543953
  0
VERTEX
  8
PLAN_1
 62
     2
  6
CONTINUOUS
 10
-0.999768
 20
3.541709
  0
VERTEX
  8
PLAN_1
 62
     2
  6
CONTINUOUS
 10
-1.003354
 20
3.539469
  0
VERTEX
  8
PLAN_1
 62
     2
  6
CONTINUOUS
 10
-1.007390
 20
3.537224
  0
VERTEX
  8
PLAN_1
 62
     2
  6
CONTINUOUS
 10
-1.015012
 20
3.533189
  0
VERTEX
  8
PLAN_1
 62
     2
  6
CONTINUOUS
 10
-1.018598
 20
3.530949
  0
VERTEX
  8
PLAN_1
 62
     2
  6
CONTINUOUS
 10
-1.021291
 20
3.528705
  0
VERTEX
  8
PLAN_1
 62
     2
  6
CONTINUOUS
 10
-1.023531
 20
3.526913
  0
VERTEX
  8
PLAN_1
 62
     2
  6
CONTINUOUS
 10
-1.024878
 20
3.525118
  0
VERTEX
  8
PLAN_1
 62
     2
  6
CONTINUOUS
 10
-1.026224
 20
3.523323
  0
VERTEX
  8
PLAN_1
 62
     2
  6
CONTINUOUS
 10
-1.027122
 20
3.521531
  0
VERTEX
  8
PLAN_1
 62
     2
  6
CONTINUOUS
 10
-1.027567
 20
3.520185
  0
VERTEX
  8
PLAN_1
 62
     2
  6
CONTINUOUS
 10
-1.027567
 20
3.518839
  0
VERTEX
  8
PLAN_1
 62
     2
  6
CONTINUOUS
 10
-0.988106
 20
3.518839
  0
VERTEX
  8
PLAN_1
 62
     2
  6
CONTINUOUS
 10
-0.988106
 20
3.510319
  0
VERTEX
  8
PLAN_1
 62
     2
  6
CONTINUOUS
 10
-1.037882
 20
3.510319
  0
VERTEX
  8
PLAN_1
 62
     2
  6
CONTINUOUS
 10
-1.037433
 20
3.515701
  0
VERTEX
  8
PLAN_1
 62
     2
  6
CONTINUOUS
 10
-1.036535
 20
3.520634
  0
VERTEX
  8
PLAN_1
 62
     2
  6
CONTINUOUS
 10
-1.034744
 20
3.524669
  0
VERTEX
  8
PLAN_1
 62
     2
  6
CONTINUOUS
 10
-1.032949
 20
3.528256
  0
VERTEX
  8
PLAN_1
 62
     2
  6
CONTINUOUS
 10
-1.030260
 20
3.531846
  0
VERTEX
  8
PLAN_1
 62
     2
  6
CONTINUOUS
 10
-1.027567
 20
3.534535
  0
VERTEX
  8
PLAN_1
 62
     2
  6
CONTINUOUS
 10
-1.024429
 20
3.537224
  0
VERTEX
  8
PLAN_1
 62
     2
  6
CONTINUOUS
 10
-1.020843
 20
3.539469
  0
VERTEX
  8
PLAN_1
 62
     2
  6
CONTINUOUS
 10
-1.010976
 20
3.544850
  0
VERTEX
  8
PLAN_1
 62
     2
  6
CONTINUOUS
 10
-1.008287
 20
3.546642
  0
VERTEX
  8
PLAN_1
 62
     2
  6
CONTINUOUS
 10
-1.005594
 20
3.547988
  0
VERTEX
  8
PLAN_1
 62
     2
  6
CONTINUOUS
 10
-1.003354
 20
3.549780
  0
VERTEX
  8
PLAN_1
 62
     2
  6
CONTINUOUS
 10
-1.001559
 20
3.551575
  0
VERTEX
  8
PLAN_1
 62
     2
  6
CONTINUOUS
 10
-0.999768
 20
3.553819
  0
VERTEX
  8
PLAN_1
 62
     2
  6
CONTINUOUS
 10
-0.998870
 20
3.556059
  0
VERTEX
  8
PLAN_1
 62
     2
  6
CONTINUOUS
 10
-0.997972
 20
3.558748
  0
VERTEX
  8
PLAN_1
 62
     2
  6
CONTINUOUS
 10
-0.997524
 20
3.561890
  0
VERTEX
  8
PLAN_1
 62
     2
  6
CONTINUOUS
 10
-0.997972
 20
3.564130
  0
VERTEX
  8
PLAN_1
 62
     2
  6
CONTINUOUS
 10
-0.998421
 20
3.566374
  0
VERTEX
  8
PLAN_1
 62
     2
  6
CONTINUOUS
 10
-0.999319
 20
3.568614
  0
VERTEX
  8
PLAN_1
 62
     2
  6
CONTINUOUS
 10
-1.001110
 20
3.570858
  0
VERTEX
  8
PLAN_1
 62
     2
  6
CONTINUOUS
 10
-1.002906
 20
3.572650
  0
VERTEX
  8
PLAN_1
 62
     2
  6
CONTINUOUS
 10
-1.005150
 20
3.573996
  0
VERTEX
  8
PLAN_1
 62
     2
  6
CONTINUOUS
 10
-1.008287
 20
3.574894
  0
VERTEX
  8
PLAN_1
 62
     2
  6
CONTINUOUS
 10
-1.012323
 20
3.575343
  0
VERTEX
  8
PLAN_1
 62
     2
  6
CONTINUOUS
 10
-1.014563
 20
3.574894
  0
VERTEX
  8
PLAN_1
 62
     2
  6
CONTINUOUS
 10
-1.016807
 20
3.574894
  0
VERTEX
  8
PLAN_1
 62
     2
  6
CONTINUOUS
 10
-1.018598
 20
3.573996
  0
VERTEX
  8
PLAN_1
 62
     2
  6
CONTINUOUS
 10
-1.020394
 20
3.573098
  0
VERTEX
  8
PLAN_1
 62
     2
  6
CONTINUOUS
 10
-1.021740
 20
3.572201
  0
VERTEX
  8
PLAN_1
 62
     2
  6
CONTINUOUS
 10
-1.022638
 20
3.570858
  0
VERTEX
  8
PLAN_1
 62
     2
  6
CONTINUOUS
 10
-1.023980
 20
3.569512
  0
VERTEX
  8
PLAN_1
 62
     2
  6
CONTINUOUS
 10
-1.024429
 20
3.568165
  0
VERTEX
  8
PLAN_1
 62
     2
  6
CONTINUOUS
 10
-1.025776
 20
3.565028
  0
VERTEX
  8
PLAN_1
 62
     2
  6
CONTINUOUS
 10
-1.026224
 20
3.562339
  0
VERTEX
  8
PLAN_1
 62
     2
  6
CONTINUOUS
 10
-1.026673
 20
3.559646
  0
VERTEX
  8
PLAN_1
 62
     2
  6
CONTINUOUS
 10
-1.027122
 20
3.557406
  0
VERTEX
  8
PLAN_1
 62
     2
  6
CONTINUOUS
 10
-1.036091
 20
3.557406
  0
SEQEND
  8
0
  0
POLYLINE
  8
PLAN_1
 62
     2
  6
CONTINUOUS
 66
     1
 40
0.004035
 41
0.004035
  0
VERTEX
  8
PLAN_1
 62
     2
  6
CONTINUOUS
 10
-0.431622
 20
1.728756
  0
VERTEX
  8
PLAN_1
 62
     2
  6
CONTINUOUS
 10
-0.431622
 20
3.295079
  0
SEQEND
  8
0
  0
SOLID
  8
PLAN_1
 62
     2
 10
-0.431622
 20
3.324677
 11
-0.447315
 21
3.265484
 12
-0.431622
 22
3.324677
 13
-0.415925
 23
3.265484
  0
POLYLINE
  8
PLAN_1
 62
     2
  6
CONTINUOUS
 66
     1
 40
0.003000
 41
0.003000
  0
VERTEX
  8
PLAN_1
 62
     2
  6
CONTINUOUS
 10
-0.431622
 20
3.324677
  0
VERTEX
  8
PLAN_1
 62
     2
  6
CONTINUOUS
 10
-0.447315
 20
3.265484
  0
VERTEX
  8
PLAN_1
 62
     2
  6
CONTINUOUS
 10
-0.415925
 20
3.265484
  0
VERTEX
  8
PLAN_1
 62
     2
  6
CONTINUOUS
 10
-0.431622
 20
3.324677
  0
SEQEND
  8
0
  0
SOLID
  8
PLAN_1
 62
     2
 10
-0.431622
 20
1.699157
 11
-0.447315
 21
1.758350
 12
-0.431622
 22
1.699157
 13
-0.415925
 23
1.758350
  0
POLYLINE
  8
PLAN_1
 62
     2
  6
CONTINUOUS
 66
     1
 40
0.003000
 41
0.003000
  0
VERTEX
  8
PLAN_1
 62
     2
  6
CONTINUOUS
 10
-0.431622
 20
1.699157
  0
VERTEX
  8
PLAN_1
 62
     2
  6
CONTINUOUS
 10
-0.447315
 20
1.758350
  0
VERTEX
  8
PLAN_1
 62
     2
  6
CONTINUOUS
 10
-0.415925
 20
1.758350
  0
VERTEX
  8
PLAN_1
 62
     2
  6
CONTINUOUS
 10
-0.431622
 20
1.699157
  0
SEQEND
  8
0
  0
POLYLINE
  8
PLAN_1
 62
     2
  6
CONTINUOUS
 66
     1
 40
0.003000
 41
0.003000
  0
VERTEX
  8
PLAN_1
 62
     2
  6
CONTINUOUS
 10
-0.472874
 20
2.497791
  0
VERTEX
  8
PLAN_1
 62
     2
  6
CONTINUOUS
 10
-0.454937
 20
2.497791
  0
VERTEX
  8
PLAN_1
 62
     2
  6
CONTINUOUS
 10
-0.454937
 20
2.488374
  0
VERTEX
  8
PLAN_1
 62
     2
  6
CONTINUOUS
 10
-0.472874
 20
2.488374
  0
VERTEX
  8
PLAN_1
 62
     2
  6
CONTINUOUS
 10
-0.472874
 20
2.456535
  0
VERTEX
  8
PLAN_1
 62
     2
  6
CONTINUOUS
 10
-0.481843
 20
2.456535
  0
VERTEX
  8
PLAN_1
 62
     2
  6
CONTINUOUS
 10
-0.528480
 20
2.490169
  0
VERTEX
  8
PLAN_1
 62
     2
  6
CONTINUOUS
 10
-0.528480
 20
2.497791
  0
VERTEX
  8
PLAN_1
 62
     2
  6
CONTINUOUS
 10
-0.480945
 20
2.497791
  0
VERTEX
  8
PLAN_1
 62
     2
  6
CONTINUOUS
 10
-0.480945
 20
2.508555
  0
VERTEX
  8
PLAN_1
 62
     2
  6
CONTINUOUS
 10
-0.472874
 20
2.508555
  0
VERTEX
  8
PLAN_1
 62
     2
  6
CONTINUOUS
 10
-0.472874
 20
2.497791
  0
SEQEND
  8
0
  0
SOLID
  8
PLAN_1
 62
     2
 10
-0.480945
 20
2.465055
 11
-0.480945
 21
2.488374
 12
-0.480945
 22
2.465055
 13
-0.514130
 23
2.488374
  0
POLYLINE
  8
PLAN_1
 62
     2
  6
CONTINUOUS
 66
     1
 40
0.003000
 41
0.003000
  0
VERTEX
  8
PLAN_1
 62
     2
  6
CONTINUOUS
 10
-0.480945
 20
2.465055
  0
VERTEX
  8
PLAN_1
 62
     2
  6
CONTINUOUS
 10
-0.480945
 20
2.488374
  0
VERTEX
  8
PLAN_1
 62
     2
  6
CONTINUOUS
 10
-0.514130
 20
2.488374
  0
VERTEX
  8
PLAN_1
 62
     2
  6
CONTINUOUS
 10
-0.480945
 20
2.465055
  0
SEQEND
  8
0
  0
POLYLINE
  8
PLAN_1
 62
     2
  6
CONTINUOUS
 66
     1
 40
0.003000
 41
0.003000
  0
VERTEX
  8
PLAN_1
 62
     2
  6
CONTINUOUS
 10
-0.454937
 20
2.549358
  0
VERTEX
  8
PLAN_1
 62
     2
  6
CONTINUOUS
 10
-0.454937
 20
2.539496
  0
VERTEX
  8
PLAN_1
 62
     2
  6
CONTINUOUS
 10
-0.506957
 20
2.539496
  0
VERTEX
  8
PLAN_1
 62
     2
  6
CONTINUOUS
 10
-0.506957
 20
2.522453
  0
VERTEX
  8
PLAN_1
 62
     2
  6
CONTINUOUS
 10
-0.514130
 20
2.522453
  0
VERTEX
  8
PLAN_1
 62
     2
  6
CONTINUOUS
 10
-0.514579
 20
2.526492
  0
VERTEX
  8
PLAN_1
 62
     2
  6
CONTINUOUS
 10
-0.515028
 20
2.530079
  0
VERTEX
  8
PLAN_1
 62
     2
  6
CONTINUOUS
 10
-0.515925
 20
2.533217
  0
VERTEX
  8
PLAN_1
 62
     2
  6
CONTINUOUS
 10
-0.517268
 20
2.535461
  0
VERTEX
  8
PLAN_1
 62
     2
  6
CONTINUOUS
 10
-0.518614
 20
2.537701
  0
VERTEX
  8
PLAN_1
 62
     2
  6
CONTINUOUS
 10
-0.521303
 20
2.539496
  0
VERTEX
  8
PLAN_1
 62
     2
  6
CONTINUOUS
 10
-0.524445
 20
2.540839
  0
VERTEX
  8
PLAN_1
 62
     2
  6
CONTINUOUS
 10
-0.528480
 20
2.542185
  0
VERTEX
  8
PLAN_1
 62
     2
  6
CONTINUOUS
 10
-0.528480
 20
2.549358
  0
VERTEX
  8
PLAN_1
 62
     2
  6
CONTINUOUS
 10
-0.454937
 20
2.549358
  0
SEQEND
  8
0
  0
POLYLINE
  8
PLAN_1
 62
     2
  6
CONTINUOUS
 66
     1
 40
0.004035
 41
0.004035
  0
VERTEX
  8
PLAN_1
 62
     2
  6
CONTINUOUS
 10
-0.274224
 20
0.998728
  0
VERTEX
  8
PLAN_1
 62
     2
  6
CONTINUOUS
 10
-0.274224
 20
3.295079
  0
SEQEND
  8
0
  0
SOLID
  8
PLAN_1
 62
     2
 10
-0.274224
 20
3.324677
 11
-0.289921
 21
3.265484
 12
-0.274224
 22
3.324677
 13
-0.258531
 23
3.265484
  0
POLYLINE
  8
PLAN_1
 62
     2
  6
CONTINUOUS
 66
     1
 40
0.003000
 41
0.003000
  0
VERTEX
  8
PLAN_1
 62
     2
  6
CONTINUOUS
 10
-0.274224
 20
3.324677
  0
VERTEX
  8
PLAN_1
 62
     2
  6
CONTINUOUS
 10
-0.289921
 20
3.265484
  0
VERTEX
  8
PLAN_1
 62
     2
  6
CONTINUOUS
 10
-0.258531
 20
3.265484
  0
VERTEX
  8
PLAN_1
 62
     2
  6
CONTINUOUS
 10
-0.274224
 20
3.324677
  0
SEQEND
  8
0
  0
SOLID
  8
PLAN_1
 62
     2
 10
-0.274224
 20
0.969134
 11
-0.289921
 21
1.028323
 12
-0.274224
 22
0.969134
 13
-0.258531
 23
1.028323
  0
POLYLINE
  8
PLAN_1
 62
     2
  6
CONTINUOUS
 66
     1
 40
0.003000
 41
0.003000
  0
VERTEX
  8
PLAN_1
 62
     2
  6
CONTINUOUS
 10
-0.274224
 20
0.969134
  0
VERTEX
  8
PLAN_1
 62
     2
  6
CONTINUOUS
 10
-0.289921
 20
1.028323
  0
VERTEX
  8
PLAN_1
 62
     2
  6
CONTINUOUS
 10
-0.258531
 20
1.028323
  0
VERTEX
  8
PLAN_1
 62
     2
  6
CONTINUOUS
 10
-0.274224
 20
0.969134
  0
SEQEND
  8
0
  0
POLYLINE
  8
PLAN_1
 62
     2
  6
CONTINUOUS
 66
     1
 40
0.003000
 41
0.003000
  0
VERTEX
  8
PLAN_1
 62
     2
  6
CONTINUOUS
 10
-0.351354
 20
2.132331
  0
VERTEX
  8
PLAN_1
 62
     2
  6
CONTINUOUS
 10
-0.353594
 20
2.131882
  0
VERTEX
  8
PLAN_1
 62
     2
  6
CONTINUOUS
 10
-0.355839
 20
2.130984
  0
VERTEX
  8
PLAN_1
 62
     2
  6
CONTINUOUS
 10
-0.357630
 20
2.130087
  0
VERTEX
  8
PLAN_1
 62
     2
  6
CONTINUOUS
 10
-0.359425
 20
2.128744
  0
VERTEX
  8
PLAN_1
 62
     2
  6
CONTINUOUS
 10
-0.360772
 20
2.126949
  0
VERTEX
  8
PLAN_1
 62
     2
  6
CONTINUOUS
 10
-0.361669
 20
2.125157
  0
VERTEX
  8
PLAN_1
 62
     2
  6
CONTINUOUS
 10
-0.362563
 20
2.122465
  0
VERTEX
  8
PLAN_1
 62
     2
  6
CONTINUOUS
 10
-0.362563
 20
2.119776
  0
VERTEX
  8
PLAN_1
 62
     2
  6
CONTINUOUS
 10
-0.362563
 20
2.117083
  0
VERTEX
  8
PLAN_1
 62
     2
  6
CONTINUOUS
 10
-0.361669
 20
2.114843
  0
VERTEX
  8
PLAN_1
 62
     2
  6
CONTINUOUS
 10
-0.360772
 20
2.113047
  0
VERTEX
  8
PLAN_1
 62
     2
  6
CONTINUOUS
 10
-0.359425
 20
2.111256
  0
VERTEX
  8
PLAN_1
 62
     2
  6
CONTINUOUS
 10
-0.358079
 20
2.109461
  0
VERTEX
  8
PLAN_1
 62
     2
  6
CONTINUOUS
 10
-0.356287
 20
2.108114
  0
VERTEX
  8
PLAN_1
 62
     2
  6
CONTINUOUS
 10
-0.354043
 20
2.106772
  0
VERTEX
  8
PLAN_1
 62
     2
  6
CONTINUOUS
 10
-0.351803
 20
2.105874
  0
VERTEX
  8
PLAN_1
 62
     2
  6
CONTINUOUS
 10
-0.347319
 20
2.104079
  0
VERTEX
  8
PLAN_1
 62
     2
  6
CONTINUOUS
 10
-0.342835
 20
2.103185
  0
VERTEX
  8
PLAN_1
 62
     2
  6
CONTINUOUS
 10
-0.338799
 20
2.102736
  0
VERTEX
  8
PLAN_1
 62
     2
  6
CONTINUOUS
 10
-0.335657
 20
2.102287
  0
VERTEX
  8
PLAN_1
 62
     2
  6
CONTINUOUS
 10
-0.335213
 20
2.102736
  0
VERTEX
  8
PLAN_1
 62
     2
  6
CONTINUOUS
 10
-0.337004
 20
2.103630
  0
VERTEX
  8
PLAN_1
 62
     2
  6
CONTINUOUS
 10
-0.338350
 20
2.104976
  0
VERTEX
  8
PLAN_1
 62
     2
  6
CONTINUOUS
 10
-0.340142
 20
2.106323
  0
VERTEX
  8
PLAN_1
 62
     2
  6
CONTINUOUS
 10
-0.341488
 20
2.108563
  0
VERTEX
  8
PLAN_1
 62
     2
  6
CONTINUOUS
 10
-0.342386
 20
2.110807
  0
VERTEX
  8
PLAN_1
 62
     2
  6
CONTINUOUS
 10
-0.343283
 20
2.113496
  0
VERTEX
  8
PLAN_1
 62
     2
  6
CONTINUOUS
 10
-0.344177
 20
2.116638
  0
VERTEX
  8
PLAN_1
 62
     2
  6
CONTINUOUS
 10
-0.344177
 20
2.120224
  0
VERTEX
  8
PLAN_1
 62
     2
  6
CONTINUOUS
 10
-0.344177
 20
2.123362
  0
VERTEX
  8
PLAN_1
 62
     2
  6
CONTINUOUS
 10
-0.343283
 20
2.127398
  0
VERTEX
  8
PLAN_1
 62
     2
  6
CONTINUOUS
 10
-0.341488
 20
2.130984
  0
VERTEX
  8
PLAN_1
 62
     2
  6
CONTINUOUS
 10
-0.339248
 20
2.135020
  0
VERTEX
  8
PLAN_1
 62
     2
  6
CONTINUOUS
 10
-0.337902
 20
2.136366
  0
VERTEX
  8
PLAN_1
 62
     2
  6
CONTINUOUS
 10
-0.336106
 20
2.138161
  0
VERTEX
  8
PLAN_1
 62
     2
  6
CONTINUOUS
 10
-0.334315
 20
2.139504
  0
VERTEX
  8
PLAN_1
 62
     2
  6
CONTINUOUS
 10
-0.332071
 20
2.140402
  0
VERTEX
  8
PLAN_1
 62
     2
  6
CONTINUOUS
 10
-0.329831
 20
2.141748
  0
VERTEX
  8
PLAN_1
 62
     2
  6
CONTINUOUS
 10
-0.327138
 20
2.142197
  0
VERTEX
  8
PLAN_1
 62
     2
  6
CONTINUOUS
 10
-0.324449
 20
2.142646
  0
VERTEX
  8
PLAN_1
 62
     2
  6
CONTINUOUS
 10
-0.321311
 20
2.143094
  0
VERTEX
  8
PLAN_1
 62
     2
  6
CONTINUOUS
 10
-0.318618
 20
2.142646
  0
VERTEX
  8
PLAN_1
 62
     2
  6
CONTINUOUS
 10
-0.315929
 20
2.142646
  0
VERTEX
  8
PLAN_1
 62
     2
  6
CONTINUOUS
 10
-0.313685
 20
2.142197
  0
VERTEX
  8
PLAN_1
 62
     2
  6
CONTINUOUS
 10
-0.310996
 20
2.141299
  0
VERTEX
  8
PLAN_1
 62
     2
  6
CONTINUOUS
 10
-0.309201
 20
2.140402
  0
VERTEX
  8
PLAN_1
 62
     2
  6
CONTINUOUS
 10
-0.306961
 20
2.139055
  0
VERTEX
  8
PLAN_1
 62
     2
  6
CONTINUOUS
 10
-0.304717
 20
2.137713
  0
VERTEX
  8
PLAN_1
 62
     2
  6
CONTINUOUS
 10
-0.302925
 20
2.135917
  0
VERTEX
  8
PLAN_1
 62
     2
  6
CONTINUOUS
 10
-0.301130
 20
2.134571
  0
VERTEX
  8
PLAN_1
 62
     2
  6
CONTINUOUS
 10
-0.299787
 20
2.132780
  0
VERTEX
  8
PLAN_1
 62
     2
  6
CONTINUOUS
 10
-0.298890
 20
2.130984
  0
VERTEX
  8
PLAN_1
 62
     2
  6
CONTINUOUS
 10
-0.297543
 20
2.129193
  0
VERTEX
  8
PLAN_1
 62
     2
  6
CONTINUOUS
 10
-0.296646
 20
2.126949
  0
VERTEX
  8
PLAN_1
 62
     2
  6
CONTINUOUS
 10
-0.296197
 20
2.124260
  0
VERTEX
  8
PLAN_1
 62
     2
  6
CONTINUOUS
 10
-0.295748
 20
2.121122
  0
VERTEX
  8
PLAN_1
 62
     2
  6
CONTINUOUS
 10
-0.295748
 20
2.117531
  0
VERTEX
  8
PLAN_1
 62
     2
  6
CONTINUOUS
 10
-0.295748
 20
2.115291
  0
VERTEX
  8
PLAN_1
 62
     2
  6
CONTINUOUS
 10
-0.296197
 20
2.113047
  0
VERTEX
  8
PLAN_1
 62
     2
  6
CONTINUOUS
 10
-0.297094
 20
2.110358
  0
VERTEX
  8
PLAN_1
 62
     2
  6
CONTINUOUS
 10
-0.297992
 20
2.107669
  0
VERTEX
  8
PLAN_1
 62
     2
  6
CONTINUOUS
 10
-0.299339
 20
2.105425
  0
VERTEX
  8
PLAN_1
 62
     2
  6
CONTINUOUS
 10
-0.301130
 20
2.102736
  0
VERTEX
  8
PLAN_1
 62
     2
  6
CONTINUOUS
 10
-0.303374
 20
2.100492
  0
VERTEX
  8
PLAN_1
 62
     2
  6
CONTINUOUS
 10
-0.306512
 20
2.098701
  0
VERTEX
  8
PLAN_1
 62
     2
  6
CONTINUOUS
 10
-0.309201
 20
2.096906
  0
VERTEX
  8
PLAN_1
 62
     2
  6
CONTINUOUS
 10
-0.311894
 20
2.096008
  0
VERTEX
  8
PLAN_1
 62
     2
  6
CONTINUOUS
 10
-0.315031
 20
2.095110
  0
VERTEX
  8
PLAN_1
 62
     2
  6
CONTINUOUS
 10
-0.318169
 20
2.094217
  0
VERTEX
  8
PLAN_1
 62
     2
  6
CONTINUOUS
 10
-0.321311
 20
2.093768
  0
VERTEX
  8
PLAN_1
 62
     2
  6
CONTINUOUS
 10
-0.324898
 20
2.093319
  0
VERTEX
  8
PLAN_1
 62
     2
  6
CONTINUOUS
 10
-0.328035
 20
2.092870
  0
VERTEX
  8
PLAN_1
 62
     2
  6
CONTINUOUS
 10
-0.331622
 20
2.092870
  0
VERTEX
  8
PLAN_1
 62
     2
  6
CONTINUOUS
 10
-0.337902
 20
2.093319
  0
VERTEX
  8
PLAN_1
 62
     2
  6
CONTINUOUS
 10
-0.344626
 20
2.094217
  0
VERTEX
  8
PLAN_1
 62
     2
  6
CONTINUOUS
 10
-0.347768
 20
2.094665
  0
VERTEX
  8
PLAN_1
 62
     2
  6
CONTINUOUS
 10
-0.351354
 20
2.095559
  0
VERTEX
  8
PLAN_1
 62
     2
  6
CONTINUOUS
 10
-0.354492
 20
2.096906
  0
VERTEX
  8
PLAN_1
 62
     2
  6
CONTINUOUS
 10
-0.357185
 20
2.098252
  0
VERTEX
  8
PLAN_1
 62
     2
  6
CONTINUOUS
 10
-0.360323
 20
2.100043
  0
VERTEX
  8
PLAN_1
 62
     2
  6
CONTINUOUS
 10
-0.362563
 20
2.101839
  0
VERTEX
  8
PLAN_1
 62
     2
  6
CONTINUOUS
 10
-0.364807
 20
2.104079
  0
VERTEX
  8
PLAN_1
 62
     2
  6
CONTINUOUS
 10
-0.367047
 20
2.106772
  0
VERTEX
  8
PLAN_1
 62
     2
  6
CONTINUOUS
 10
-0.368394
 20
2.109461
  0
VERTEX
  8
PLAN_1
 62
     2
  6
CONTINUOUS
 10
-0.369740
 20
2.112598
  0
VERTEX
  8
PLAN_1
 62
     2
  6
CONTINUOUS
 10
-0.370634
 20
2.116189
  0
VERTEX
  8
PLAN_1
 62
     2
  6
CONTINUOUS
 10
-0.370634
 20
2.120224
  0
VERTEX
  8
PLAN_1
 62
     2
  6
CONTINUOUS
 10
-0.370634
 20
2.123362
  0
VERTEX
  8
PLAN_1
 62
     2
  6
CONTINUOUS
 10
-0.369740
 20
2.126949
  0
VERTEX
  8
PLAN_1
 62
     2
  6
CONTINUOUS
 10
-0.368394
 20
2.130087
  0
VERTEX
  8
PLAN_1
 62
     2
  6
CONTINUOUS
 10
-0.366598
 20
2.133677
  0
VERTEX
  8
PLAN_1
 62
     2
  6
CONTINUOUS
 10
-0.365705
 20
2.135020
  0
VERTEX
  8
PLAN_1
 62
     2
  6
CONTINUOUS
 10
-0.363909
 20
2.136366
  0
VERTEX
  8
PLAN_1
 62
     2
  6
CONTINUOUS
 10
-0.362563
 20
2.137713
  0
VERTEX
  8
PLAN_1
 62
     2
  6
CONTINUOUS
 10
-0.360772
 20
2.138610
  0
VERTEX
  8
PLAN_1
 62
     2
  6
CONTINUOUS
 10
-0.358528
 20
2.139953
  0
VERTEX
  8
PLAN_1
 62
     2
  6
CONTINUOUS
 10
-0.356287
 20
2.140402
  0
VERTEX
  8
PLAN_1
 62
     2
  6
CONTINUOUS
 10
-0.354043
 20
2.140850
  0
VERTEX
  8
PLAN_1
 62
     2
  6
CONTINUOUS
 10
-0.351354
 20
2.141299
  0
VERTEX
  8
PLAN_1
 62
     2
  6
CONTINUOUS
 10
-0.351354
 20
2.132331
  0
SEQEND
  8
0
  0
POLYLINE
  8
PLAN_1
 62
     2
  6
CONTINUOUS
 66
     1
 40
0.003000
 41
0.003000
  0
VERTEX
  8
PLAN_1
 62
     2
  6
CONTINUOUS
 10
-0.303823
 20
2.118878
  0
VERTEX
  8
PLAN_1
 62
     2
  6
CONTINUOUS
 10
-0.304272
 20
2.122016
  0
VERTEX
  8
PLAN_1
 62
     2
  6
CONTINUOUS
 10
-0.305165
 20
2.125157
  0
VERTEX
  8
PLAN_1
 62
     2
  6
CONTINUOUS
 10
-0.306512
 20
2.127398
  0
VERTEX
  8
PLAN_1
 62
     2
  6
CONTINUOUS
 10
-0.308756
 20
2.129642
  0
VERTEX
  8
PLAN_1
 62
     2
  6
CONTINUOUS
 10
-0.310996
 20
2.130984
  0
VERTEX
  8
PLAN_1
 62
     2
  6
CONTINUOUS
 10
-0.314134
 20
2.132331
  0
VERTEX
  8
PLAN_1
 62
     2
  6
CONTINUOUS
 10
-0.317276
 20
2.133228
  0
VERTEX
  8
PLAN_1
 62
     2
  6
CONTINUOUS
 10
-0.320862
 20
2.133228
  0
VERTEX
  8
PLAN_1
 62
     2
  6
CONTINUOUS
 10
-0.323102
 20
2.133228
  0
VERTEX
  8
PLAN_1
 62
     2
  6
CONTINUOUS
 10
-0.325795
 20
2.132780
  0
VERTEX
  8
PLAN_1
 62
     2
  6
CONTINUOUS
 10
-0.328484
 20
2.131882
  0
VERTEX
  8
PLAN_1
 62
     2
  6
CONTINUOUS
 10
-0.330728
 20
2.130087
  0
VERTEX
  8
PLAN_1
 62
     2
  6
CONTINUOUS
 10
-0.332969
 20
2.128295
  0
VERTEX
  8
PLAN_1
 62
     2
  6
CONTINUOUS
 10
-0.334764
 20
2.125602
  0
VERTEX
  8
PLAN_1
 62
     2
  6
CONTINUOUS
 10
-0.335657
 20
2.122465
  0
VERTEX
  8
PLAN_1
 62
     2
  6
CONTINUOUS
 10
-0.336106
 20
2.118878
  0
VERTEX
  8
PLAN_1
 62
     2
  6
CONTINUOUS
 10
-0.335657
 20
2.115291
  0
VERTEX
  8
PLAN_1
 62
     2
  6
CONTINUOUS
 10
-0.334764
 20
2.112154
  0
VERTEX
  8
PLAN_1
 62
     2
  6
CONTINUOUS
 10
-0.333417
 20
2.109461
  0
VERTEX
  8
PLAN_1
 62
     2
  6
CONTINUOUS
 10
-0.331173
 20
2.107220
  0
VERTEX
  8
PLAN_1
 62
     2
  6
CONTINUOUS
 10
-0.328933
 20
2.105874
  0
VERTEX
  8
PLAN_1
 62
     2
  6
CONTINUOUS
 10
-0.326244
 20
2.104528
  0
VERTEX
  8
PLAN_1
 62
     2
  6
CONTINUOUS
 10
-0.323551
 20
2.104079
  0
VERTEX
  8
PLAN_1
 62
     2
  6
CONTINUOUS
 10
-0.319965
 20
2.103630
  0
VERTEX
  8
PLAN_1
 62
     2
  6
CONTINUOUS
 10
-0.317276
 20
2.104079
  0
VERTEX
  8
PLAN_1
 62
     2
  6
CONTINUOUS
 10
-0.314134
 20
2.104528
  0
VERTEX
  8
PLAN_1
 62
     2
  6
CONTINUOUS
 10
-0.311445
 20
2.105874
  0
VERTEX
  8
PLAN_1
 62
     2
  6
CONTINUOUS
 10
-0.309201
 20
2.107220
  0
VERTEX
  8
PLAN_1
 62
     2
  6
CONTINUOUS
 10
-0.306961
 20
2.109461
  0
VERTEX
  8
PLAN_1
 62
     2
  6
CONTINUOUS
 10
-0.305614
 20
2.112154
  0
VERTEX
  8
PLAN_1
 62
     2
  6
CONTINUOUS
 10
-0.304272
 20
2.115291
  0
VERTEX
  8
PLAN_1
 62
     2
  6
CONTINUOUS
 10
-0.303823
 20
2.118878
  0
SEQEND
  8
0
  0
POLYLINE
  8
PLAN_1
 62
     2
  6
CONTINUOUS
 66
     1
 40
0.003000
 41
0.003000
  0
VERTEX
  8
PLAN_1
 62
     2
  6
CONTINUOUS
 10
-0.339248
 20
2.169996
  0
VERTEX
  8
PLAN_1
 62
     2
  6
CONTINUOUS
 10
-0.339248
 20
2.170894
  0
VERTEX
  8
PLAN_1
 62
     2
  6
CONTINUOUS
 10
-0.339248
 20
2.171343
  0
VERTEX
  8
PLAN_1
 62
     2
  6
CONTINUOUS
 10
-0.339248
 20
2.171791
  0
VERTEX
  8
PLAN_1
 62
     2
  6
CONTINUOUS
 10
-0.339248
 20
2.172689
  0
VERTEX
  8
PLAN_1
 62
     2
  6
CONTINUOUS
 10
-0.339248
 20
2.173138
  0
VERTEX
  8
PLAN_1
 62
     2
  6
CONTINUOUS
 10
-0.339248
 20
2.174035
  0
VERTEX
  8
PLAN_1
 62
     2
  6
CONTINUOUS
 10
-0.339248
 20
2.174480
  0
VERTEX
  8
PLAN_1
 62
     2
  6
CONTINUOUS
 10
-0.339248
 20
2.174929
  0
VERTEX
  8
PLAN_1
 62
     2
  6
CONTINUOUS
 10
-0.339248
 20
2.177622
  0
VERTEX
  8
PLAN_1
 62
     2
  6
CONTINUOUS
 10
-0.339693
 20
2.180311
  0
VERTEX
  8
PLAN_1
 62
     2
  6
CONTINUOUS
 10
-0.340591
 20
2.182555
  0
VERTEX
  8
PLAN_1
 62
     2
  6
CONTINUOUS
 10
-0.341488
 20
2.184795
  0
VERTEX
  8
PLAN_1
 62
     2
  6
CONTINUOUS
 10
-0.343283
 20
2.186591
  0
VERTEX
  8
PLAN_1
 62
     2
  6
CONTINUOUS
 10
-0.345524
 20
2.187933
  0
VERTEX
  8
PLAN_1
 62
     2
  6
CONTINUOUS
 10
-0.347768
 20
2.188831
  0
VERTEX
  8
PLAN_1
 62
     2
  6
CONTINUOUS
 10
-0.350906
 20
2.188831
  0
VERTEX
  8
PLAN_1
 62
     2
  6
CONTINUOUS
 10
-0.352701
 20
2.188831
  0
VERTEX
  8
PLAN_1
 62
     2
  6
CONTINUOUS
 10
-0.354941
 20
2.188382
  0
VERTEX
  8
PLAN_1
 62
     2
  6
CONTINUOUS
 10
-0.356736
 20
2.187484
  0
VERTEX
  8
PLAN_1
 62
     2
  6
CONTINUOUS
 10
-0.358528
 20
2.186142
  0
VERTEX
  8
PLAN_1
 62
     2
  6
CONTINUOUS
 10
-0.360323
 20
2.184346
  0
VERTEX
  8
PLAN_1
 62
     2
  6
CONTINUOUS
 10
-0.361220
 20
2.182106
  0
VERTEX
  8
PLAN_1
 62
     2
  6
CONTINUOUS
 10
-0.362114
 20
2.178965
  0
VERTEX
  8
PLAN_1
 62
     2
  6
CONTINUOUS
 10
-0.362563
 20
2.175378
  0
VERTEX
  8
PLAN_1
 62
     2
  6
CONTINUOUS
 10
-0.362563
 20
2.173138
  0
VERTEX
  8
PLAN_1
 62
     2
  6
CONTINUOUS
 10
-0.362114
 20
2.170894
  0
VERTEX
  8
PLAN_1
 62
     2
  6
CONTINUOUS
 10
-0.361669
 20
2.169102
  0
VERTEX
  8
PLAN_1
 62
     2
  6
CONTINUOUS
 10
-0.360772
 20
2.167756
  0
VERTEX
  8
PLAN_1
 62
     2
  6
CONTINUOUS
 10
-0.358976
 20
2.165512
  0
VERTEX
  8
PLAN_1
 62
     2
  6
CONTINUOUS
 10
-0.356736
 20
2.163720
  0
VERTEX
  8
PLAN_1
 62
     2
  6
CONTINUOUS
 10
-0.354043
 20
2.162374
  0
VERTEX
  8
PLAN_1
 62
     2
  6
CONTINUOUS
 10
-0.351354
 20
2.161925
  0
VERTEX
  8
PLAN_1
 62
     2
  6
CONTINUOUS
 10
-0.349110
 20
2.161476
  0
VERTEX
  8
PLAN_1
 62
     2
  6
CONTINUOUS
 10
-0.346870
 20
2.161028
  0
VERTEX
  8
PLAN_1
 62
     2
  6
CONTINUOUS
 10
-0.346870
 20
2.152059
  0
VERTEX
  8
PLAN_1
 62
     2
  6
CONTINUOUS
 10
-0.350906
 20
2.152508
  0
VERTEX
  8
PLAN_1
 62
     2
  6
CONTINUOUS
 10
-0.355390
 20
2.153406
  0
VERTEX
  8
PLAN_1
 62
     2
  6
CONTINUOUS
 10
-0.358976
 20
2.154752
  0
VERTEX
  8
PLAN_1
 62
     2
  6
CONTINUOUS
 10
-0.363012
 20
2.156992
  0
VERTEX
  8
PLAN_1
 62
     2
  6
CONTINUOUS
 10
-0.364358
 20
2.158339
  0
VERTEX
  8
PLAN_1
 62
     2
  6
CONTINUOUS
 10
-0.366150
 20
2.159685
  0
VERTEX
  8
PLAN_1
 62
     2
  6
CONTINUOUS
 10
-0.367496
 20
2.161925
  0
VERTEX
  8
PLAN_1
 62
     2
  6
CONTINUOUS
 10
-0.368394
 20
2.164169
  0
VERTEX
  8
PLAN_1
 62
     2
  6
CONTINUOUS
 10
-0.369740
 20
2.166409
  0
VERTEX
  8
PLAN_1
 62
     2
  6
CONTINUOUS
 10
-0.370189
 20
2.169102
  0
VERTEX
  8
PLAN_1
 62
     2
  6
CONTINUOUS
 10
-0.370634
 20
2.172240
  0
VERTEX
  8
PLAN_1
 62
     2
  6
CONTINUOUS
 10
-0.370634
 20
2.175827
  0
VERTEX
  8
PLAN_1
 62
     2
  6
CONTINUOUS
 10
-0.370634
 20
2.180760
  0
VERTEX
  8
PLAN_1
 62
     2
  6
CONTINUOUS
 10
-0.369291
 20
2.185244
  0
VERTEX
  8
PLAN_1
 62
     2
  6
CONTINUOUS
 10
-0.367496
 20
2.189280
  0
VERTEX
  8
PLAN_1
 62
     2
  6
CONTINUOUS
 10
-0.365256
 20
2.192417
  0
VERTEX
  8
PLAN_1
 62
     2
  6
CONTINUOUS
 10
-0.362563
 20
2.195110
  0
VERTEX
  8
PLAN_1
 62
     2
  6
CONTINUOUS
 10
-0.359425
 20
2.196902
  0
VERTEX
  8
PLAN_1
 62
     2
  6
CONTINUOUS
 10
-0.355839
 20
2.197799
  0
VERTEX
  8
PLAN_1
 62
     2
  6
CONTINUOUS
 10
-0.351803
 20
2.198248
  0
VERTEX
  8
PLAN_1
 62
     2
  6
CONTINUOUS
 10
-0.348217
 20
2.198248
  0
VERTEX
  8
PLAN_1
 62
     2
  6
CONTINUOUS
 10
-0.345524
 20
2.197350
  0
VERTEX
  8
PLAN_1
 62
     2
  6
CONTINUOUS
 10
-0.342835
 20
2.196453
  0
VERTEX
  8
PLAN_1
 62
     2
  6
CONTINUOUS
 10
-0.341039
 20
2.195110
  0
VERTEX
  8
PLAN_1
 62
     2
  6
CONTINUOUS
 10
-0.339248
 20
2.193764
  0
VERTEX
  8
PLAN_1
 62
     2
  6
CONTINUOUS
 10
-0.337902
 20
2.191969
  0
VERTEX
  8
PLAN_1
 62
     2
  6
CONTINUOUS
 10
-0.337004
 20
2.190626
  0
VERTEX
  8
PLAN_1
 62
     2
  6
CONTINUOUS
 10
-0.336555
 20
2.188831
  0
VERTEX
  8
PLAN_1
 62
     2
  6
CONTINUOUS
 10
-0.336106
 20
2.188831
  0
VERTEX
  8
PLAN_1
 62
     2
  6
CONTINUOUS
 10
-0.335213
 20
2.191524
  0
VERTEX
  8
PLAN_1
 62
     2
  6
CONTINUOUS
 10
-0.333866
 20
2.193764
  0
VERTEX
  8
PLAN_1
 62
     2
  6
CONTINUOUS
 10
-0.332520
 20
2.196008
  0
VERTEX
  8
PLAN_1
 62
     2
  6
CONTINUOUS
 10
-0.330728
 20
2.197799
  0
VERTEX
  8
PLAN_1
 62
     2
  6
CONTINUOUS
 10
-0.328484
 20
2.199146
  0
VERTEX
  8
PLAN_1
 62
     2
  6
CONTINUOUS
 10
-0.325795
 20
2.200492
  0
VERTEX
  8
PLAN_1
 62
     2
  6
CONTINUOUS
 10
-0.322654
 20
2.200937
  0
VERTEX
  8
PLAN_1
 62
     2
  6
CONTINUOUS
 10
-0.319067
 20
2.201386
  0
VERTEX
  8
PLAN_1
 62
     2
  6
CONTINUOUS
 10
-0.314583
 20
2.200937
  0
VERTEX
  8
PLAN_1
 62
     2
  6
CONTINUOUS
 10
-0.310547
 20
2.199594
  0
VERTEX
  8
PLAN_1
 62
     2
  6
CONTINUOUS
 10
-0.308307
 20
2.198697
  0
VERTEX
  8
PLAN_1
 62
     2
  6
CONTINUOUS
 10
-0.306512
 20
2.197799
  0
VERTEX
  8
PLAN_1
 62
     2
  6
CONTINUOUS
 10
-0.304717
 20
2.196453
  0
VERTEX
  8
PLAN_1
 62
     2
  6
CONTINUOUS
 10
-0.302925
 20
2.195110
  0
VERTEX
  8
PLAN_1
 62
     2
  6
CONTINUOUS
 10
-0.301579
 20
2.193315
  0
VERTEX
  8
PLAN_1
 62
     2
  6
CONTINUOUS
 10
-0.300232
 20
2.191524
  0
VERTEX
  8
PLAN_1
 62
     2
  6
CONTINUOUS
 10
-0.298890
 20
2.189280
  0
VERTEX
  8
PLAN_1
 62
     2
  6
CONTINUOUS
 10
-0.297543
 20
2.187039
  0
VERTEX
  8
PLAN_1
 62
     2
  6
CONTINUOUS
 10
-0.297094
 20
2.184346
  0
VERTEX
  8
PLAN_1
 62
     2
  6
CONTINUOUS
 10
-0.296197
 20
2.181209
  0
VERTEX
  8
PLAN_1
 62
     2
  6
CONTINUOUS
 10
-0.295748
 20
2.178071
  0
VERTEX
  8
PLAN_1
 62
     2
  6
CONTINUOUS
 10
-0.295748
 20
2.174929
  0
VERTEX
  8
PLAN_1
 62
     2
  6
CONTINUOUS
 10
-0.295748
 20
2.172689
  0
VERTEX
  8
PLAN_1
 62
     2
  6
CONTINUOUS
 10
-0.296197
 20
2.170894
  0
VERTEX
  8
PLAN_1
 62
     2
  6
CONTINUOUS
 10
-0.296197
 20
2.169102
  0
VERTEX
  8
PLAN_1
 62
     2
  6
CONTINUOUS
 10
-0.296646
 20
2.167307
  0
VERTEX
  8
PLAN_1
 62
     2
  6
CONTINUOUS
 10
-0.297094
 20
2.165961
  0
VERTEX
  8
PLAN_1
 62
     2
  6
CONTINUOUS
 10
-0.297543
 20
2.164169
  0
VERTEX
  8
PLAN_1
 62
     2
  6
CONTINUOUS
 10
-0.298441
 20
2.162823
  0
VERTEX
  8
PLAN_1
 62
     2
  6
CONTINUOUS
 10
-0.298890
 20
2.161476
  0
VERTEX
  8
PLAN_1
 62
     2
  6
CONTINUOUS
 10
-0.300681
 20
2.158787
  0
VERTEX
  8
PLAN_1
 62
     2
  6
CONTINUOUS
 10
-0.302925
 20
2.156543
  0
VERTEX
  8
PLAN_1
 62
     2
  6
CONTINUOUS
 10
-0.305165
 20
2.154303
  0
VERTEX
  8
PLAN_1
 62
     2
  6
CONTINUOUS
 10
-0.307858
 20
2.152957
  0
VERTEX
  8
PLAN_1
 62
     2
  6
CONTINUOUS
 10
-0.310996
 20
2.152059
  0
VERTEX
  8
PLAN_1
 62
     2
  6
CONTINUOUS
 10
-0.313685
 20
2.151165
  0
VERTEX
  8
PLAN_1
 62
     2
  6
CONTINUOUS
 10
-0.316827
 20
2.150717
  0
VERTEX
  8
PLAN_1
 62
     2
  6
CONTINUOUS
 10
-0.319965
 20
2.150268
  0
VERTEX
  8
PLAN_1
 62
     2
  6
CONTINUOUS
 10
-0.319965
 20
2.160134
  0
VERTEX
  8
PLAN_1
 62
     2
  6
CONTINUOUS
 10
-0.317276
 20
2.160134
  0
VERTEX
  8
PLAN_1
 62
     2
  6
CONTINUOUS
 10
-0.314583
 20
2.160583
  0
VERTEX
  8
PLAN_1
 62
     2
  6
CONTINUOUS
 10
-0.311894
 20
2.161476
  0
VERTEX
  8
PLAN_1
 62
     2
  6
CONTINUOUS
 10
-0.309650
 20
2.162823
  0
VERTEX
  8
PLAN_1
 62
     2
  6
CONTINUOUS
 10
-0.307409
 20
2.164618
  0
VERTEX
  8
PLAN_1
 62
     2
  6
CONTINUOUS
 10
-0.305614
 20
2.167307
  0
VERTEX
  8
PLAN_1
 62
     2
  6
CONTINUOUS
 10
-0.304717
 20
2.169102
  0
VERTEX
  8
PLAN_1
 62
     2
  6
CONTINUOUS
 10
-0.304272
 20
2.170894
  0
VERTEX
  8
PLAN_1
 62
     2
  6
CONTINUOUS
 10
-0.304272
 20
2.173138
  0
VERTEX
  8
PLAN_1
 62
     2
  6
CONTINUOUS
 10
-0.303823
 20
2.175378
  0
VERTEX
  8
PLAN_1
 62
     2
  6
CONTINUOUS
 10
-0.304272
 20
2.178965
  0
VERTEX
  8
PLAN_1
 62
     2
  6
CONTINUOUS
 10
-0.305165
 20
2.182106
  0
VERTEX
  8
PLAN_1
 62
     2
  6
CONTINUOUS
 10
-0.306063
 20
2.184795
  0
VERTEX
  8
PLAN_1
 62
     2
  6
CONTINUOUS
 10
-0.307858
 20
2.187039
  0
VERTEX
  8
PLAN_1
 62
     2
  6
CONTINUOUS
 10
-0.310098
 20
2.188831
  0
VERTEX
  8
PLAN_1
 62
     2
  6
CONTINUOUS
 10
-0.312343
 20
2.190177
  0
VERTEX
  8
PLAN_1
 62
     2
  6
CONTINUOUS
 10
-0.315031
 20
2.191075
  0
VERTEX
  8
PLAN_1
 62
     2
  6
CONTINUOUS
 10
-0.318169
 20
2.191524
  0
VERTEX
  8
PLAN_1
 62
     2
  6
CONTINUOUS
 10
-0.320413
 20
2.191524
  0
VERTEX
  8
PLAN_1
 62
     2
  6
CONTINUOUS
 10
-0.322205
 20
2.191075
  0
VERTEX
  8
PLAN_1
 62
     2
  6
CONTINUOUS
 10
-0.324000
 20
2.190177
  0
VERTEX
  8
PLAN_1
 62
     2
  6
CONTINUOUS
 10
-0.325346
 20
2.189728
  0
VERTEX
  8
PLAN_1
 62
     2
  6
CONTINUOUS
 10
-0.327587
 20
2.187484
  0
VERTEX
  8
PLAN_1
 62
     2
  6
CONTINUOUS
 10
-0.329382
 20
2.185244
  0
VERTEX
  8
PLAN_1
 62
     2
  6
CONTINUOUS
 10
-0.330728
 20
2.182555
  0
VERTEX
  8
PLAN_1
 62
     2
  6
CONTINUOUS
 10
-0.331173
 20
2.179862
  0
VERTEX
  8
PLAN_1
 62
     2
  6
CONTINUOUS
 10
-0.331622
 20
2.176724
  0
VERTEX
  8
PLAN_1
 62
     2
  6
CONTINUOUS
 10
-0.331622
 20
2.174480
  0
VERTEX
  8
PLAN_1
 62
     2
  6
CONTINUOUS
 10
-0.331622
 20
2.174035
  0
VERTEX
  8
PLAN_1
 62
     2
  6
CONTINUOUS
 10
-0.331622
 20
2.173138
  0
VERTEX
  8
PLAN_1
 62
     2
  6
CONTINUOUS
 10
-0.331622
 20
2.172689
  0
VERTEX
  8
PLAN_1
 62
     2
  6
CONTINUOUS
 10
-0.331622
 20
2.172240
  0
VERTEX
  8
PLAN_1
 62
     2
  6
CONTINUOUS
 10
-0.331622
 20
2.171791
  0
VERTEX
  8
PLAN_1
 62
     2
  6
CONTINUOUS
 10
-0.331622
 20
2.171343
  0
VERTEX
  8
PLAN_1
 62
     2
  6
CONTINUOUS
 10
-0.331622
 20
2.170894
  0
VERTEX
  8
PLAN_1
 62
     2
  6
CONTINUOUS
 10
-0.331622
 20
2.169996
  0
VERTEX
  8
PLAN_1
 62
     2
  6
CONTINUOUS
 10
-0.339248
 20
2.169996
  0
SEQEND
  8
0
  0
POLYLINE
  8
PLAN_1
 62
     2
  6
CONTINUOUS
 66
     1
 40
0.004035
 41
0.004035
  0
VERTEX
  8
PLAN_1
 62
     2
  6
CONTINUOUS
 10
-1.338772
 20
3.324677
  0
VERTEX
  8
PLAN_1
 62
     2
  6
CONTINUOUS
 10
-0.250461
 20
3.324677
  0
SEQEND
  8
0
  0
POLYLINE
  8
PLAN_1
 62
     2
  6
CONTINUOUS
 66
     1
 40
0.004035
 41
0.004035
  0
VERTEX
  8
PLAN_1
 62
     2
  6
CONTINUOUS
 10
-1.164335
 20
1.700055
  0
VERTEX
  8
PLAN_1
 62
     2
  6
CONTINUOUS
 10
-0.407854
 20
1.699157
  0
SEQEND
  8
0
  0
POLYLINE
  8
PLAN_1
 62
     2
  6
CONTINUOUS
 66
     1
 40
0.004035
 41
0.004035
  0
VERTEX
  8
PLAN_1
 62
     2
  6
CONTINUOUS
 10
-0.564799
 20
0.969134
  0
VERTEX
  8
PLAN_1
 62
     2
  6
CONTINUOUS
 10
-0.250461
 20
0.969134
  0
SEQEND
  8
0
  0
ENDSEC
  0
EOF
