  0
SECTION
  2
HEADER
  9
$ACADVER
  1
AC1006
  9
$EXTMIN
 10
-1.857000
 20
-3.247764
  9
$EXTMAX
 10
1.859000
 20
3.253000
  9
$LTSCALE
 40
0.000394
  9
$PDMODE
 70
    35
  9
$PDSIZE
 40
0.000315
  0
ENDSEC
  0
SECTION
  2
TABLES
  0
TABLE
  2
LTYPE
 70
     9
  0
LTYPE
  2
CONTINUOUS
 70
    64
  3
Solid line
 72
    65
 73
     0
 40
0.000000
  0
LTYPE
  2
DASHED
 70
    64
  3
__ __ __ __ __ __ __ __ __ __ __ __ __ __ __
 72
    65
 73
     2
 40
0.000003
 49
0.000002
 49
-0.000001
  0
LTYPE
  2
HIDDEN
 70
    64
  3
 _ _ _ _ _ _ _ _ _ _ _ _ _ _ _ _ _ _ _ _ _ _
 72
    65
 73
     2
 40
0.000001
 49
0.000001
 49
-0.000000
  0
LTYPE
  2
CENTER
 70
    64
  3
____ _ ____ _ ____ _ ____ _ ____ _ ____ _ ____
 72
    65
 73
     4
 40
0.000008
 49
0.000005
 49
-0.000001
 49
0.000001
 49
-0.000001
  0
LTYPE
  2
PHANTOM
 70
    64
  3
_____ _ _ _____ _ _ _____ _ _ _____ _ _ ____
 72
    65
 73
     6
 40
0.000010
 49
0.000005
 49
-0.000001
 49
0.000001
 49
-0.000001
 49
0.000001
 49
-0.000001
  0
LTYPE
  2
DOT
 70
    64
  3
...............................................
 72
    65
 73
     2
 40
0.000001
 49
0.000000
 49
-0.000001
  0
LTYPE
  2
DASHDOT
 70
    64
  3
__ . __ . __ . __ . __ . __ . __ . __ . __ . __
 72
    65
 73
     4
 40
0.000004
 49
0.000002
 49
-0.000001
 49
0.000000
 49
-0.000001
  0
LTYPE
  2
BORDER
 70
    64
  3
__ __ . __ __ . __ __ . __ __ . __ __ . __ __
 72
    65
 73
     6
 40
0.000007
 49
0.000002
 49
-0.000001
 49
0.000002
 49
-0.000001
 49
0.000000
 49
-0.000001
  0
LTYPE
  2
DIVIDE
 70
    64
  3
__ . . __ . . __ . . __ . . __ . . __ . . __
 72
    65
 73
     6
 40
0.000005
 49
0.000002
 49
-0.000001
 49
0.000000
 49
-0.000001
 49
0.000000
 49
-0.000001
  0
LTYPE
  2
DOTDOT
 70
    64
  3
 . .  . .  . .  . .  . .  . . 
 72
    65
 73
     5
 40
0.000002
 49
-0.000001
 49
0.000000
 49
-0.000001
 49
0.000000
 49
-0.000001
  0
ENDTAB
  0
TABLE
  2
STYLE
 70
     0
  0
ENDTAB
  0
TABLE
  2
LAYER
 70
     3
  0
LAYER
  2
FOREGROUND
 70
    64
 62
     7
  6
CONTINUOUS
  0
LAYER
  2
BACKGROUND
 70
    65
 62
    -7
  6
CONTINUOUS
  0
LAYER
  2
PLAN_1
 70
    64
 62
     7
  6
CONTINUOUS
  0
ENDTAB
  0
ENDSEC
  0
SECTION
  2
ENTITIES
  0
POLYLINE
  8
PLAN_1
  6
CONTINUOUS
 66
     1
 40
0.003000
 41
0.003000
  0
VERTEX
  8
PLAN_1
  6
CONTINUOUS
 10
-0.016878
 20
-3.242484
  0
VERTEX
  8
PLAN_1
  6
CONTINUOUS
 10
-0.173709
 20
-3.242484
  0
VERTEX
  8
PLAN_1
  6
CONTINUOUS
 10
-0.173709
 20
-3.220138
  0
VERTEX
  8
PLAN_1
  6
CONTINUOUS
 10
-0.051413
 20
-3.066965
  0
VERTEX
  8
PLAN_1
  6
CONTINUOUS
 10
-0.164362
 20
-3.066965
  0
VERTEX
  8
PLAN_1
  6
CONTINUOUS
 10
-0.164362
 20
-3.043398
  0
VERTEX
  8
PLAN_1
  6
CONTINUOUS
 10
-0.016878
 20
-3.043398
  0
VERTEX
  8
PLAN_1
  6
CONTINUOUS
 10
-0.016878
 20
-3.066555
  0
VERTEX
  8
PLAN_1
  6
CONTINUOUS
 10
-0.139579
 20
-3.218512
  0
VERTEX
  8
PLAN_1
  6
CONTINUOUS
 10
-0.016878
 20
-3.218512
  0
VERTEX
  8
PLAN_1
  6
CONTINUOUS
 10
-0.016878
 20
-3.242484
  0
SEQEND
  8
0
  0
POLYLINE
  8
PLAN_1
  6
CONTINUOUS
 66
     1
 40
0.003000
 41
0.003000
  0
VERTEX
  8
PLAN_1
  6
CONTINUOUS
 10
0.150516
 20
-3.103122
  0
VERTEX
  8
PLAN_1
  6
CONTINUOUS
 10
0.148894
 20
-3.097028
  0
VERTEX
  8
PLAN_1
  6
CONTINUOUS
 10
0.146862
 20
-3.091343
  0
VERTEX
  8
PLAN_1
  6
CONTINUOUS
 10
0.144016
 20
-3.086465
  0
VERTEX
  8
PLAN_1
  6
CONTINUOUS
 10
0.141173
 20
-3.081996
  0
VERTEX
  8
PLAN_1
  6
CONTINUOUS
 10
0.137921
 20
-3.077933
  0
VERTEX
  8
PLAN_1
  6
CONTINUOUS
 10
0.134673
 20
-3.074681
  0
VERTEX
  8
PLAN_1
  6
CONTINUOUS
 10
0.131016
 20
-3.071839
  0
VERTEX
  8
PLAN_1
  6
CONTINUOUS
 10
0.126953
 20
-3.069402
  0
VERTEX
  8
PLAN_1
  6
CONTINUOUS
 10
0.122890
 20
-3.067370
  0
VERTEX
  8
PLAN_1
  6
CONTINUOUS
 10
0.118827
 20
-3.065744
  0
VERTEX
  8
PLAN_1
  6
CONTINUOUS
 10
0.114764
 20
-3.064524
  0
VERTEX
  8
PLAN_1
  6
CONTINUOUS
 10
0.110295
 20
-3.063307
  0
VERTEX
  8
PLAN_1
  6
CONTINUOUS
 10
0.102169
 20
-3.062087
  0
VERTEX
  8
PLAN_1
  6
CONTINUOUS
 10
0.094854
 20
-3.061681
  0
VERTEX
  8
PLAN_1
  6
CONTINUOUS
 10
0.087949
 20
-3.062087
  0
VERTEX
  8
PLAN_1
  6
CONTINUOUS
 10
0.081449
 20
-3.062902
  0
VERTEX
  8
PLAN_1
  6
CONTINUOUS
 10
0.075354
 20
-3.064524
  0
VERTEX
  8
PLAN_1
  6
CONTINUOUS
 10
0.069260
 20
-3.066965
  0
VERTEX
  8
PLAN_1
  6
CONTINUOUS
 10
0.063571
 20
-3.069402
  0
VERTEX
  8
PLAN_1
  6
CONTINUOUS
 10
0.058287
 20
-3.073059
  0
VERTEX
  8
PLAN_1
  6
CONTINUOUS
 10
0.053008
 20
-3.077122
  0
VERTEX
  8
PLAN_1
  6
CONTINUOUS
 10
0.048535
 20
-3.081591
  0
VERTEX
  8
PLAN_1
  6
CONTINUOUS
 10
0.044472
 20
-3.086870
  0
VERTEX
  8
PLAN_1
  6
CONTINUOUS
 10
0.040409
 20
-3.092965
  0
VERTEX
  8
PLAN_1
  6
CONTINUOUS
 10
0.037161
 20
-3.099469
  0
VERTEX
  8
PLAN_1
  6
CONTINUOUS
 10
0.034724
 20
-3.106374
  0
VERTEX
  8
PLAN_1
  6
CONTINUOUS
 10
0.032283
 20
-3.114094
  0
VERTEX
  8
PLAN_1
  6
CONTINUOUS
 10
0.030661
 20
-3.122626
  0
VERTEX
  8
PLAN_1
  6
CONTINUOUS
 10
0.029846
 20
-3.131563
  0
VERTEX
  8
PLAN_1
  6
CONTINUOUS
 10
0.029441
 20
-3.140909
  0
VERTEX
  8
PLAN_1
  6
CONTINUOUS
 10
0.029846
 20
-3.149441
  0
VERTEX
  8
PLAN_1
  6
CONTINUOUS
 10
0.030252
 20
-3.157972
  0
VERTEX
  8
PLAN_1
  6
CONTINUOUS
 10
0.031472
 20
-3.166098
  0
VERTEX
  8
PLAN_1
  6
CONTINUOUS
 10
0.032693
 20
-3.173819
  0
VERTEX
  8
PLAN_1
  6
CONTINUOUS
 10
0.034724
 20
-3.181134
  0
VERTEX
  8
PLAN_1
  6
CONTINUOUS
 10
0.037161
 20
-3.187634
  0
VERTEX
  8
PLAN_1
  6
CONTINUOUS
 10
0.040409
 20
-3.194134
  0
VERTEX
  8
PLAN_1
  6
CONTINUOUS
 10
0.044067
 20
-3.199823
  0
VERTEX
  8
PLAN_1
  6
CONTINUOUS
 10
0.046098
 20
-3.202665
  0
VERTEX
  8
PLAN_1
  6
CONTINUOUS
 10
0.048130
 20
-3.205102
  0
VERTEX
  8
PLAN_1
  6
CONTINUOUS
 10
0.050567
 20
-3.207543
  0
VERTEX
  8
PLAN_1
  6
CONTINUOUS
 10
0.053008
 20
-3.209980
  0
VERTEX
  8
PLAN_1
  6
CONTINUOUS
 10
0.055445
 20
-3.212012
  0
VERTEX
  8
PLAN_1
  6
CONTINUOUS
 10
0.058287
 20
-3.214043
  0
VERTEX
  8
PLAN_1
  6
CONTINUOUS
 10
0.061134
 20
-3.216075
  0
VERTEX
  8
PLAN_1
  6
CONTINUOUS
 10
0.064382
 20
-3.217701
  0
VERTEX
  8
PLAN_1
  6
CONTINUOUS
 10
0.067634
 20
-3.218917
  0
VERTEX
  8
PLAN_1
  6
CONTINUOUS
 10
0.071291
 20
-3.220138
  0
VERTEX
  8
PLAN_1
  6
CONTINUOUS
 10
0.074539
 20
-3.221354
  0
VERTEX
  8
PLAN_1
  6
CONTINUOUS
 10
0.078602
 20
-3.222169
  0
VERTEX
  8
PLAN_1
  6
CONTINUOUS
 10
0.082665
 20
-3.222980
  0
VERTEX
  8
PLAN_1
  6
CONTINUOUS
 10
0.086728
 20
-3.223386
  0
VERTEX
  8
PLAN_1
  6
CONTINUOUS
 10
0.091197
 20
-3.223795
  0
VERTEX
  8
PLAN_1
  6
CONTINUOUS
 10
0.095669
 20
-3.223795
  0
VERTEX
  8
PLAN_1
  6
CONTINUOUS
 10
0.098917
 20
-3.223795
  0
VERTEX
  8
PLAN_1
  6
CONTINUOUS
 10
0.102575
 20
-3.223386
  0
VERTEX
  8
PLAN_1
  6
CONTINUOUS
 10
0.106638
 20
-3.222980
  0
VERTEX
  8
PLAN_1
  6
CONTINUOUS
 10
0.110701
 20
-3.221764
  0
VERTEX
  8
PLAN_1
  6
CONTINUOUS
 10
0.114764
 20
-3.220543
  0
VERTEX
  8
PLAN_1
  6
CONTINUOUS
 10
0.118827
 20
-3.218917
  0
VERTEX
  8
PLAN_1
  6
CONTINUOUS
 10
0.122890
 20
-3.216480
  0
VERTEX
  8
PLAN_1
  6
CONTINUOUS
 10
0.126953
 20
-3.214043
  0
VERTEX
  8
PLAN_1
  6
CONTINUOUS
 10
0.131016
 20
-3.210791
  0
VERTEX
  8
PLAN_1
  6
CONTINUOUS
 10
0.135079
 20
-3.206728
  0
VERTEX
  8
PLAN_1
  6
CONTINUOUS
 10
0.138736
 20
-3.202260
  0
VERTEX
  8
PLAN_1
  6
CONTINUOUS
 10
0.141984
 20
-3.197386
  0
VERTEX
  8
PLAN_1
  6
CONTINUOUS
 10
0.145236
 20
-3.191291
  0
VERTEX
  8
PLAN_1
  6
CONTINUOUS
 10
0.148079
 20
-3.184787
  0
VERTEX
  8
PLAN_1
  6
CONTINUOUS
 10
0.150516
 20
-3.177476
  0
VERTEX
  8
PLAN_1
  6
CONTINUOUS
 10
0.152547
 20
-3.169350
  0
VERTEX
  8
PLAN_1
  6
CONTINUOUS
 10
0.178551
 20
-3.169350
  0
VERTEX
  8
PLAN_1
  6
CONTINUOUS
 10
0.177335
 20
-3.176256
  0
VERTEX
  8
PLAN_1
  6
CONTINUOUS
 10
0.175709
 20
-3.182350
  0
VERTEX
  8
PLAN_1
  6
CONTINUOUS
 10
0.174083
 20
-3.188445
  0
VERTEX
  8
PLAN_1
  6
CONTINUOUS
 10
0.172051
 20
-3.194134
  0
VERTEX
  8
PLAN_1
  6
CONTINUOUS
 10
0.170020
 20
-3.199417
  0
VERTEX
  8
PLAN_1
  6
CONTINUOUS
 10
0.167583
 20
-3.204291
  0
VERTEX
  8
PLAN_1
  6
CONTINUOUS
 10
0.165146
 20
-3.209165
  0
VERTEX
  8
PLAN_1
  6
CONTINUOUS
 10
0.162299
 20
-3.213228
  0
VERTEX
  8
PLAN_1
  6
CONTINUOUS
 10
0.159457
 20
-3.217291
  0
VERTEX
  8
PLAN_1
  6
CONTINUOUS
 10
0.156610
 20
-3.220949
  0
VERTEX
  8
PLAN_1
  6
CONTINUOUS
 10
0.153362
 20
-3.224201
  0
VERTEX
  8
PLAN_1
  6
CONTINUOUS
 10
0.150110
 20
-3.227043
  0
VERTEX
  8
PLAN_1
  6
CONTINUOUS
 10
0.146862
 20
-3.229890
  0
VERTEX
  8
PLAN_1
  6
CONTINUOUS
 10
0.143205
 20
-3.232327
  0
VERTEX
  8
PLAN_1
  6
CONTINUOUS
 10
0.139953
 20
-3.234764
  0
VERTEX
  8
PLAN_1
  6
CONTINUOUS
 10
0.136295
 20
-3.236795
  0
VERTEX
  8
PLAN_1
  6
CONTINUOUS
 10
0.129390
 20
-3.240047
  0
VERTEX
  8
PLAN_1
  6
CONTINUOUS
 10
0.122484
 20
-3.242890
  0
VERTEX
  8
PLAN_1
  6
CONTINUOUS
 10
0.115984
 20
-3.244516
  0
VERTEX
  8
PLAN_1
  6
CONTINUOUS
 10
0.109890
 20
-3.246142
  0
VERTEX
  8
PLAN_1
  6
CONTINUOUS
 10
0.104201
 20
-3.246953
  0
VERTEX
  8
PLAN_1
  6
CONTINUOUS
 10
0.098917
 20
-3.247358
  0
VERTEX
  8
PLAN_1
  6
CONTINUOUS
 10
0.094854
 20
-3.247764
  0
VERTEX
  8
PLAN_1
  6
CONTINUOUS
 10
0.091197
 20
-3.247764
  0
VERTEX
  8
PLAN_1
  6
CONTINUOUS
 10
0.083071
 20
-3.247358
  0
VERTEX
  8
PLAN_1
  6
CONTINUOUS
 10
0.074539
 20
-3.246547
  0
VERTEX
  8
PLAN_1
  6
CONTINUOUS
 10
0.066413
 20
-3.244516
  0
VERTEX
  8
PLAN_1
  6
CONTINUOUS
 10
0.058287
 20
-3.242079
  0
VERTEX
  8
PLAN_1
  6
CONTINUOUS
 10
0.054224
 20
-3.240453
  0
VERTEX
  8
PLAN_1
  6
CONTINUOUS
 10
0.050567
 20
-3.238421
  0
VERTEX
  8
PLAN_1
  6
CONTINUOUS
 10
0.046913
 20
-3.236795
  0
VERTEX
  8
PLAN_1
  6
CONTINUOUS
 10
0.043256
 20
-3.234358
  0
VERTEX
  8
PLAN_1
  6
CONTINUOUS
 10
0.039598
 20
-3.231921
  0
VERTEX
  8
PLAN_1
  6
CONTINUOUS
 10
0.035941
 20
-3.229480
  0
VERTEX
  8
PLAN_1
  6
CONTINUOUS
 10
0.032693
 20
-3.226638
  0
VERTEX
  8
PLAN_1
  6
CONTINUOUS
 10
0.029441
 20
-3.223386
  0
VERTEX
  8
PLAN_1
  6
CONTINUOUS
 10
0.026598
 20
-3.220138
  0
VERTEX
  8
PLAN_1
  6
CONTINUOUS
 10
0.023752
 20
-3.216886
  0
VERTEX
  8
PLAN_1
  6
CONTINUOUS
 10
0.020909
 20
-3.212823
  0
VERTEX
  8
PLAN_1
  6
CONTINUOUS
 10
0.018063
 20
-3.208760
  0
VERTEX
  8
PLAN_1
  6
CONTINUOUS
 10
0.015626
 20
-3.204697
  0
VERTEX
  8
PLAN_1
  6
CONTINUOUS
 10
0.013594
 20
-3.200228
  0
VERTEX
  8
PLAN_1
  6
CONTINUOUS
 10
0.011157
 20
-3.195760
  0
VERTEX
  8
PLAN_1
  6
CONTINUOUS
 10
0.009531
 20
-3.190476
  0
VERTEX
  8
PLAN_1
  6
CONTINUOUS
 10
0.007500
 20
-3.185602
  0
VERTEX
  8
PLAN_1
  6
CONTINUOUS
 10
0.006283
 20
-3.179913
  0
VERTEX
  8
PLAN_1
  6
CONTINUOUS
 10
0.004657
 20
-3.174224
  0
VERTEX
  8
PLAN_1
  6
CONTINUOUS
 10
0.003843
 20
-3.168130
  0
VERTEX
  8
PLAN_1
  6
CONTINUOUS
 10
0.003031
 20
-3.162035
  0
VERTEX
  8
PLAN_1
  6
CONTINUOUS
 10
0.002220
 20
-3.155535
  0
VERTEX
  8
PLAN_1
  6
CONTINUOUS
 10
0.001811
 20
-3.148630
  0
VERTEX
  8
PLAN_1
  6
CONTINUOUS
 10
0.001811
 20
-3.141720
  0
VERTEX
  8
PLAN_1
  6
CONTINUOUS
 10
0.001811
 20
-3.136031
  0
VERTEX
  8
PLAN_1
  6
CONTINUOUS
 10
0.002220
 20
-3.130346
  0
VERTEX
  8
PLAN_1
  6
CONTINUOUS
 10
0.002626
 20
-3.125063
  0
VERTEX
  8
PLAN_1
  6
CONTINUOUS
 10
0.003437
 20
-3.119783
  0
VERTEX
  8
PLAN_1
  6
CONTINUOUS
 10
0.004252
 20
-3.114500
  0
VERTEX
  8
PLAN_1
  6
CONTINUOUS
 10
0.005469
 20
-3.109217
  0
VERTEX
  8
PLAN_1
  6
CONTINUOUS
 10
0.006689
 20
-3.104343
  0
VERTEX
  8
PLAN_1
  6
CONTINUOUS
 10
0.007906
 20
-3.099469
  0
VERTEX
  8
PLAN_1
  6
CONTINUOUS
 10
0.009937
 20
-3.094996
  0
VERTEX
  8
PLAN_1
  6
CONTINUOUS
 10
0.011563
 20
-3.090528
  0
VERTEX
  8
PLAN_1
  6
CONTINUOUS
 10
0.013594
 20
-3.086059
  0
VERTEX
  8
PLAN_1
  6
CONTINUOUS
 10
0.016031
 20
-3.081996
  0
VERTEX
  8
PLAN_1
  6
CONTINUOUS
 10
0.018063
 20
-3.077933
  0
VERTEX
  8
PLAN_1
  6
CONTINUOUS
 10
0.020909
 20
-3.073870
  0
VERTEX
  8
PLAN_1
  6
CONTINUOUS
 10
0.023752
 20
-3.070213
  0
VERTEX
  8
PLAN_1
  6
CONTINUOUS
 10
0.026598
 20
-3.066965
  0
VERTEX
  8
PLAN_1
  6
CONTINUOUS
 10
0.029441
 20
-3.063307
  0
VERTEX
  8
PLAN_1
  6
CONTINUOUS
 10
0.032693
 20
-3.060461
  0
VERTEX
  8
PLAN_1
  6
CONTINUOUS
 10
0.036346
 20
-3.057213
  0
VERTEX
  8
PLAN_1
  6
CONTINUOUS
 10
0.039598
 20
-3.054776
  0
VERTEX
  8
PLAN_1
  6
CONTINUOUS
 10
0.043661
 20
-3.051929
  0
VERTEX
  8
PLAN_1
  6
CONTINUOUS
 10
0.047319
 20
-3.049492
  0
VERTEX
  8
PLAN_1
  6
CONTINUOUS
 10
0.051382
 20
-3.047461
  0
VERTEX
  8
PLAN_1
  6
CONTINUOUS
 10
0.055850
 20
-3.045429
  0
VERTEX
  8
PLAN_1
  6
CONTINUOUS
 10
0.059913
 20
-3.043803
  0
VERTEX
  8
PLAN_1
  6
CONTINUOUS
 10
0.064382
 20
-3.042177
  0
VERTEX
  8
PLAN_1
  6
CONTINUOUS
 10
0.069260
 20
-3.040961
  0
VERTEX
  8
PLAN_1
  6
CONTINUOUS
 10
0.074134
 20
-3.039740
  0
VERTEX
  8
PLAN_1
  6
CONTINUOUS
 10
0.079008
 20
-3.038929
  0
VERTEX
  8
PLAN_1
  6
CONTINUOUS
 10
0.084291
 20
-3.038524
  0
VERTEX
  8
PLAN_1
  6
CONTINUOUS
 10
0.089165
 20
-3.038114
  0
VERTEX
  8
PLAN_1
  6
CONTINUOUS
 10
0.094854
 20
-3.038114
  0
VERTEX
  8
PLAN_1
  6
CONTINUOUS
 10
0.104201
 20
-3.038114
  0
VERTEX
  8
PLAN_1
  6
CONTINUOUS
 10
0.112732
 20
-3.039335
  0
VERTEX
  8
PLAN_1
  6
CONTINUOUS
 10
0.120858
 20
-3.040961
  0
VERTEX
  8
PLAN_1
  6
CONTINUOUS
 10
0.128579
 20
-3.043398
  0
VERTEX
  8
PLAN_1
  6
CONTINUOUS
 10
0.135484
 20
-3.046240
  0
VERTEX
  8
PLAN_1
  6
CONTINUOUS
 10
0.141984
 20
-3.049898
  0
VERTEX
  8
PLAN_1
  6
CONTINUOUS
 10
0.148079
 20
-3.053555
  0
VERTEX
  8
PLAN_1
  6
CONTINUOUS
 10
0.153362
 20
-3.058024
  0
VERTEX
  8
PLAN_1
  6
CONTINUOUS
 10
0.158236
 20
-3.062902
  0
VERTEX
  8
PLAN_1
  6
CONTINUOUS
 10
0.162705
 20
-3.067776
  0
VERTEX
  8
PLAN_1
  6
CONTINUOUS
 10
0.166362
 20
-3.073465
  0
VERTEX
  8
PLAN_1
  6
CONTINUOUS
 10
0.169209
 20
-3.078744
  0
VERTEX
  8
PLAN_1
  6
CONTINUOUS
 10
0.172051
 20
-3.084839
  0
VERTEX
  8
PLAN_1
  6
CONTINUOUS
 10
0.174083
 20
-3.090933
  0
VERTEX
  8
PLAN_1
  6
CONTINUOUS
 10
0.175709
 20
-3.097028
  0
VERTEX
  8
PLAN_1
  6
CONTINUOUS
 10
0.176520
 20
-3.103122
  0
VERTEX
  8
PLAN_1
  6
CONTINUOUS
 10
0.150516
 20
-3.103122
  0
SEQEND
  8
0
  0
POLYLINE
  8
PLAN_1
  6
CONTINUOUS
 66
     1
 40
0.003000
 41
0.003000
  0
VERTEX
  8
PLAN_1
  6
CONTINUOUS
 10
0.237870
 20
-3.242484
  0
VERTEX
  8
PLAN_1
  6
CONTINUOUS
 10
0.211055
 20
-3.242484
  0
VERTEX
  8
PLAN_1
  6
CONTINUOUS
 10
0.211055
 20
-3.043398
  0
VERTEX
  8
PLAN_1
  6
CONTINUOUS
 10
0.237870
 20
-3.043398
  0
VERTEX
  8
PLAN_1
  6
CONTINUOUS
 10
0.237870
 20
-3.139689
  0
VERTEX
  8
PLAN_1
  6
CONTINUOUS
 10
0.334571
 20
-3.043398
  0
VERTEX
  8
PLAN_1
  6
CONTINUOUS
 10
0.371949
 20
-3.043398
  0
VERTEX
  8
PLAN_1
  6
CONTINUOUS
 10
0.288657
 20
-3.123846
  0
VERTEX
  8
PLAN_1
  6
CONTINUOUS
 10
0.373980
 20
-3.242484
  0
VERTEX
  8
PLAN_1
  6
CONTINUOUS
 10
0.339039
 20
-3.242484
  0
VERTEX
  8
PLAN_1
  6
CONTINUOUS
 10
0.269563
 20
-3.142535
  0
VERTEX
  8
PLAN_1
  6
CONTINUOUS
 10
0.237870
 20
-3.172598
  0
VERTEX
  8
PLAN_1
  6
CONTINUOUS
 10
0.237870
 20
-3.242484
  0
SEQEND
  8
0
  0
POLYLINE
  8
PLAN_1
  6
CONTINUOUS
 66
     1
 40
0.003000
 41
0.003000
  0
VERTEX
  8
PLAN_1
  6
CONTINUOUS
 10
0.397547
 20
-3.043398
  0
VERTEX
  8
PLAN_1
  6
CONTINUOUS
 10
0.478402
 20
-3.043398
  0
VERTEX
  8
PLAN_1
  6
CONTINUOUS
 10
0.483276
 20
-3.043398
  0
VERTEX
  8
PLAN_1
  6
CONTINUOUS
 10
0.488150
 20
-3.043803
  0
VERTEX
  8
PLAN_1
  6
CONTINUOUS
 10
0.492622
 20
-3.044209
  0
VERTEX
  8
PLAN_1
  6
CONTINUOUS
 10
0.497091
 20
-3.045024
  0
VERTEX
  8
PLAN_1
  6
CONTINUOUS
 10
0.501154
 20
-3.045835
  0
VERTEX
  8
PLAN_1
  6
CONTINUOUS
 10
0.505622
 20
-3.047055
  0
VERTEX
  8
PLAN_1
  6
CONTINUOUS
 10
0.509685
 20
-3.048681
  0
VERTEX
  8
PLAN_1
  6
CONTINUOUS
 10
0.513343
 20
-3.050303
  0
VERTEX
  8
PLAN_1
  6
CONTINUOUS
 10
0.517406
 20
-3.051929
  0
VERTEX
  8
PLAN_1
  6
CONTINUOUS
 10
0.521063
 20
-3.053961
  0
VERTEX
  8
PLAN_1
  6
CONTINUOUS
 10
0.524311
 20
-3.056398
  0
VERTEX
  8
PLAN_1
  6
CONTINUOUS
 10
0.527969
 20
-3.058839
  0
VERTEX
  8
PLAN_1
  6
CONTINUOUS
 10
0.531220
 20
-3.061276
  0
VERTEX
  8
PLAN_1
  6
CONTINUOUS
 10
0.534063
 20
-3.064118
  0
VERTEX
  8
PLAN_1
  6
CONTINUOUS
 10
0.536906
 20
-3.066965
  0
VERTEX
  8
PLAN_1
  6
CONTINUOUS
 10
0.539752
 20
-3.070213
  0
VERTEX
  8
PLAN_1
  6
CONTINUOUS
 10
0.542594
 20
-3.073465
  0
VERTEX
  8
PLAN_1
  6
CONTINUOUS
 10
0.545031
 20
-3.076713
  0
VERTEX
  8
PLAN_1
  6
CONTINUOUS
 10
0.547472
 20
-3.080370
  0
VERTEX
  8
PLAN_1
  6
CONTINUOUS
 10
0.549504
 20
-3.084028
  0
VERTEX
  8
PLAN_1
  6
CONTINUOUS
 10
0.551535
 20
-3.088091
  0
VERTEX
  8
PLAN_1
  6
CONTINUOUS
 10
0.553157
 20
-3.092154
  0
VERTEX
  8
PLAN_1
  6
CONTINUOUS
 10
0.554783
 20
-3.096217
  0
VERTEX
  8
PLAN_1
  6
CONTINUOUS
 10
0.556409
 20
-3.100685
  0
VERTEX
  8
PLAN_1
  6
CONTINUOUS
 10
0.558846
 20
-3.109626
  0
VERTEX
  8
PLAN_1
  6
CONTINUOUS
 10
0.560878
 20
-3.119374
  0
VERTEX
  8
PLAN_1
  6
CONTINUOUS
 10
0.562098
 20
-3.129531
  0
VERTEX
  8
PLAN_1
  6
CONTINUOUS
 10
0.562098
 20
-3.140094
  0
VERTEX
  8
PLAN_1
  6
CONTINUOUS
 10
0.562098
 20
-3.148630
  0
VERTEX
  8
PLAN_1
  6
CONTINUOUS
 10
0.561283
 20
-3.157161
  0
VERTEX
  8
PLAN_1
  6
CONTINUOUS
 10
0.560067
 20
-3.166098
  0
VERTEX
  8
PLAN_1
  6
CONTINUOUS
 10
0.558035
 20
-3.175039
  0
VERTEX
  8
PLAN_1
  6
CONTINUOUS
 10
0.555598
 20
-3.183571
  0
VERTEX
  8
PLAN_1
  6
CONTINUOUS
 10
0.552752
 20
-3.192102
  0
VERTEX
  8
PLAN_1
  6
CONTINUOUS
 10
0.550720
 20
-3.196165
  0
VERTEX
  8
PLAN_1
  6
CONTINUOUS
 10
0.549094
 20
-3.200228
  0
VERTEX
  8
PLAN_1
  6
CONTINUOUS
 10
0.546657
 20
-3.204291
  0
VERTEX
  8
PLAN_1
  6
CONTINUOUS
 10
0.544220
 20
-3.207949
  0
VERTEX
  8
PLAN_1
  6
CONTINUOUS
 10
0.541783
 20
-3.211606
  0
VERTEX
  8
PLAN_1
  6
CONTINUOUS
 10
0.538937
 20
-3.215260
  0
VERTEX
  8
PLAN_1
  6
CONTINUOUS
 10
0.536094
 20
-3.218512
  0
VERTEX
  8
PLAN_1
  6
CONTINUOUS
 10
0.532843
 20
-3.221764
  0
VERTEX
  8
PLAN_1
  6
CONTINUOUS
 10
0.529594
 20
-3.225012
  0
VERTEX
  8
PLAN_1
  6
CONTINUOUS
 10
0.525937
 20
-3.227858
  0
VERTEX
  8
PLAN_1
  6
CONTINUOUS
 10
0.522280
 20
-3.230295
  0
VERTEX
  8
PLAN_1
  6
CONTINUOUS
 10
0.518217
 20
-3.232732
  0
VERTEX
  8
PLAN_1
  6
CONTINUOUS
 10
0.514154
 20
-3.234764
  0
VERTEX
  8
PLAN_1
  6
CONTINUOUS
 10
0.509685
 20
-3.236795
  0
VERTEX
  8
PLAN_1
  6
CONTINUOUS
 10
0.504811
 20
-3.238421
  0
VERTEX
  8
PLAN_1
  6
CONTINUOUS
 10
0.499933
 20
-3.240047
  0
VERTEX
  8
PLAN_1
  6
CONTINUOUS
 10
0.494654
 20
-3.240858
  0
VERTEX
  8
PLAN_1
  6
CONTINUOUS
 10
0.488965
 20
-3.241669
  0
VERTEX
  8
PLAN_1
  6
CONTINUOUS
 10
0.483276
 20
-3.242484
  0
VERTEX
  8
PLAN_1
  6
CONTINUOUS
 10
0.477181
 20
-3.242484
  0
VERTEX
  8
PLAN_1
  6
CONTINUOUS
 10
0.397547
 20
-3.242484
  0
VERTEX
  8
PLAN_1
  6
CONTINUOUS
 10
0.397547
 20
-3.043398
  0
SEQEND
  8
0
  0
POLYLINE
  8
PLAN_1
  6
CONTINUOUS
 66
     1
 40
0.003000
 41
0.003000
  0
VERTEX
  8
PLAN_1
  6
CONTINUOUS
 10
0.424768
 20
-3.219323
  0
VERTEX
  8
PLAN_1
  6
CONTINUOUS
 10
0.476776
 20
-3.219323
  0
VERTEX
  8
PLAN_1
  6
CONTINUOUS
 10
0.483276
 20
-3.219323
  0
VERTEX
  8
PLAN_1
  6
CONTINUOUS
 10
0.489370
 20
-3.218106
  0
VERTEX
  8
PLAN_1
  6
CONTINUOUS
 10
0.495059
 20
-3.216480
  0
VERTEX
  8
PLAN_1
  6
CONTINUOUS
 10
0.500748
 20
-3.214449
  0
VERTEX
  8
PLAN_1
  6
CONTINUOUS
 10
0.505622
 20
-3.211606
  0
VERTEX
  8
PLAN_1
  6
CONTINUOUS
 10
0.510496
 20
-3.207949
  0
VERTEX
  8
PLAN_1
  6
CONTINUOUS
 10
0.514969
 20
-3.203886
  0
VERTEX
  8
PLAN_1
  6
CONTINUOUS
 10
0.518622
 20
-3.199417
  0
VERTEX
  8
PLAN_1
  6
CONTINUOUS
 10
0.522280
 20
-3.194134
  0
VERTEX
  8
PLAN_1
  6
CONTINUOUS
 10
0.525531
 20
-3.188445
  0
VERTEX
  8
PLAN_1
  6
CONTINUOUS
 10
0.528374
 20
-3.181945
  0
VERTEX
  8
PLAN_1
  6
CONTINUOUS
 10
0.530406
 20
-3.175039
  0
VERTEX
  8
PLAN_1
  6
CONTINUOUS
 10
0.532031
 20
-3.167724
  0
VERTEX
  8
PLAN_1
  6
CONTINUOUS
 10
0.533657
 20
-3.159598
  0
VERTEX
  8
PLAN_1
  6
CONTINUOUS
 10
0.534469
 20
-3.151067
  0
VERTEX
  8
PLAN_1
  6
CONTINUOUS
 10
0.534469
 20
-3.141720
  0
VERTEX
  8
PLAN_1
  6
CONTINUOUS
 10
0.534469
 20
-3.132783
  0
VERTEX
  8
PLAN_1
  6
CONTINUOUS
 10
0.533657
 20
-3.124252
  0
VERTEX
  8
PLAN_1
  6
CONTINUOUS
 10
0.532031
 20
-3.116126
  0
VERTEX
  8
PLAN_1
  6
CONTINUOUS
 10
0.530406
 20
-3.108811
  0
VERTEX
  8
PLAN_1
  6
CONTINUOUS
 10
0.527969
 20
-3.101906
  0
VERTEX
  8
PLAN_1
  6
CONTINUOUS
 10
0.525126
 20
-3.095811
  0
VERTEX
  8
PLAN_1
  6
CONTINUOUS
 10
0.522280
 20
-3.090122
  0
VERTEX
  8
PLAN_1
  6
CONTINUOUS
 10
0.518622
 20
-3.085248
  0
VERTEX
  8
PLAN_1
  6
CONTINUOUS
 10
0.514154
 20
-3.080776
  0
VERTEX
  8
PLAN_1
  6
CONTINUOUS
 10
0.509685
 20
-3.076713
  0
VERTEX
  8
PLAN_1
  6
CONTINUOUS
 10
0.504811
 20
-3.073465
  0
VERTEX
  8
PLAN_1
  6
CONTINUOUS
 10
0.499528
 20
-3.071028
  0
VERTEX
  8
PLAN_1
  6
CONTINUOUS
 10
0.493839
 20
-3.068996
  0
VERTEX
  8
PLAN_1
  6
CONTINUOUS
 10
0.488150
 20
-3.067370
  0
VERTEX
  8
PLAN_1
  6
CONTINUOUS
 10
0.481650
 20
-3.066555
  0
VERTEX
  8
PLAN_1
  6
CONTINUOUS
 10
0.474744
 20
-3.066150
  0
VERTEX
  8
PLAN_1
  6
CONTINUOUS
 10
0.424768
 20
-3.066150
  0
VERTEX
  8
PLAN_1
  6
CONTINUOUS
 10
0.424768
 20
-3.219323
  0
SEQEND
  8
0
  0
POLYLINE
  8
PLAN_1
  6
CONTINUOUS
 66
     1
 40
0.003000
 41
0.003000
  0
VERTEX
  8
PLAN_1
  6
CONTINUOUS
 10
0.675453
 20
-3.242484
  0
VERTEX
  8
PLAN_1
  6
CONTINUOUS
 10
0.649453
 20
-3.242484
  0
VERTEX
  8
PLAN_1
  6
CONTINUOUS
 10
0.649453
 20
-3.103937
  0
VERTEX
  8
PLAN_1
  6
CONTINUOUS
 10
0.603945
 20
-3.103937
  0
VERTEX
  8
PLAN_1
  6
CONTINUOUS
 10
0.603945
 20
-3.084433
  0
VERTEX
  8
PLAN_1
  6
CONTINUOUS
 10
0.614917
 20
-3.083622
  0
VERTEX
  8
PLAN_1
  6
CONTINUOUS
 10
0.624260
 20
-3.082402
  0
VERTEX
  8
PLAN_1
  6
CONTINUOUS
 10
0.628323
 20
-3.081591
  0
VERTEX
  8
PLAN_1
  6
CONTINUOUS
 10
0.632386
 20
-3.080370
  0
VERTEX
  8
PLAN_1
  6
CONTINUOUS
 10
0.635638
 20
-3.078744
  0
VERTEX
  8
PLAN_1
  6
CONTINUOUS
 10
0.638886
 20
-3.077122
  0
VERTEX
  8
PLAN_1
  6
CONTINUOUS
 10
0.641732
 20
-3.075091
  0
VERTEX
  8
PLAN_1
  6
CONTINUOUS
 10
0.644575
 20
-3.072650
  0
VERTEX
  8
PLAN_1
  6
CONTINUOUS
 10
0.647012
 20
-3.069807
  0
VERTEX
  8
PLAN_1
  6
CONTINUOUS
 10
0.649043
 20
-3.066150
  0
VERTEX
  8
PLAN_1
  6
CONTINUOUS
 10
0.651075
 20
-3.062492
  0
VERTEX
  8
PLAN_1
  6
CONTINUOUS
 10
0.653106
 20
-3.058024
  0
VERTEX
  8
PLAN_1
  6
CONTINUOUS
 10
0.654732
 20
-3.053150
  0
VERTEX
  8
PLAN_1
  6
CONTINUOUS
 10
0.656358
 20
-3.047461
  0
VERTEX
  8
PLAN_1
  6
CONTINUOUS
 10
0.675453
 20
-3.047461
  0
VERTEX
  8
PLAN_1
  6
CONTINUOUS
 10
0.675453
 20
-3.242484
  0
SEQEND
  8
0
  0
POLYLINE
  8
PLAN_1
  6
CONTINUOUS
 66
     1
 40
0.003000
 41
0.003000
  0
VERTEX
  8
PLAN_1
  6
CONTINUOUS
 10
0.807094
 20
-3.247764
  0
VERTEX
  8
PLAN_1
  6
CONTINUOUS
 10
0.802220
 20
-3.247764
  0
VERTEX
  8
PLAN_1
  6
CONTINUOUS
 10
0.797343
 20
-3.246953
  0
VERTEX
  8
PLAN_1
  6
CONTINUOUS
 10
0.792469
 20
-3.246142
  0
VERTEX
  8
PLAN_1
  6
CONTINUOUS
 10
0.788406
 20
-3.245327
  0
VERTEX
  8
PLAN_1
  6
CONTINUOUS
 10
0.783937
 20
-3.243701
  0
VERTEX
  8
PLAN_1
  6
CONTINUOUS
 10
0.780280
 20
-3.242079
  0
VERTEX
  8
PLAN_1
  6
CONTINUOUS
 10
0.776622
 20
-3.240047
  0
VERTEX
  8
PLAN_1
  6
CONTINUOUS
 10
0.772965
 20
-3.237606
  0
VERTEX
  8
PLAN_1
  6
CONTINUOUS
 10
0.769717
 20
-3.235169
  0
VERTEX
  8
PLAN_1
  6
CONTINUOUS
 10
0.766870
 20
-3.232732
  0
VERTEX
  8
PLAN_1
  6
CONTINUOUS
 10
0.764028
 20
-3.229890
  0
VERTEX
  8
PLAN_1
  6
CONTINUOUS
 10
0.761591
 20
-3.226638
  0
VERTEX
  8
PLAN_1
  6
CONTINUOUS
 10
0.759154
 20
-3.223386
  0
VERTEX
  8
PLAN_1
  6
CONTINUOUS
 10
0.756713
 20
-3.220138
  0
VERTEX
  8
PLAN_1
  6
CONTINUOUS
 10
0.754681
 20
-3.216480
  0
VERTEX
  8
PLAN_1
  6
CONTINUOUS
 10
0.752650
 20
-3.212823
  0
VERTEX
  8
PLAN_1
  6
CONTINUOUS
 10
0.749402
 20
-3.205102
  0
VERTEX
  8
PLAN_1
  6
CONTINUOUS
 10
0.746555
 20
-3.196976
  0
VERTEX
  8
PLAN_1
  6
CONTINUOUS
 10
0.744524
 20
-3.188850
  0
VERTEX
  8
PLAN_1
  6
CONTINUOUS
 10
0.742902
 20
-3.180319
  0
VERTEX
  8
PLAN_1
  6
CONTINUOUS
 10
0.741681
 20
-3.171787
  0
VERTEX
  8
PLAN_1
  6
CONTINUOUS
 10
0.740870
 20
-3.163661
  0
VERTEX
  8
PLAN_1
  6
CONTINUOUS
 10
0.740461
 20
-3.155535
  0
VERTEX
  8
PLAN_1
  6
CONTINUOUS
 10
0.740461
 20
-3.147409
  0
VERTEX
  8
PLAN_1
  6
CONTINUOUS
 10
0.740461
 20
-3.139689
  0
VERTEX
  8
PLAN_1
  6
CONTINUOUS
 10
0.740870
 20
-3.131563
  0
VERTEX
  8
PLAN_1
  6
CONTINUOUS
 10
0.741681
 20
-3.123437
  0
VERTEX
  8
PLAN_1
  6
CONTINUOUS
 10
0.742902
 20
-3.114906
  0
VERTEX
  8
PLAN_1
  6
CONTINUOUS
 10
0.744524
 20
-3.106374
  0
VERTEX
  8
PLAN_1
  6
CONTINUOUS
 10
0.746555
 20
-3.098248
  0
VERTEX
  8
PLAN_1
  6
CONTINUOUS
 10
0.749402
 20
-3.090122
  0
VERTEX
  8
PLAN_1
  6
CONTINUOUS
 10
0.752650
 20
-3.082402
  0
VERTEX
  8
PLAN_1
  6
CONTINUOUS
 10
0.754681
 20
-3.078744
  0
VERTEX
  8
PLAN_1
  6
CONTINUOUS
 10
0.756713
 20
-3.075091
  0
VERTEX
  8
PLAN_1
  6
CONTINUOUS
 10
0.759154
 20
-3.071839
  0
VERTEX
  8
PLAN_1
  6
CONTINUOUS
 10
0.761591
 20
-3.068587
  0
VERTEX
  8
PLAN_1
  6
CONTINUOUS
 10
0.764028
 20
-3.065339
  0
VERTEX
  8
PLAN_1
  6
CONTINUOUS
 10
0.766870
 20
-3.062492
  0
VERTEX
  8
PLAN_1
  6
CONTINUOUS
 10
0.769717
 20
-3.059650
  0
VERTEX
  8
PLAN_1
  6
CONTINUOUS
 10
0.772965
 20
-3.057213
  0
VERTEX
  8
PLAN_1
  6
CONTINUOUS
 10
0.776622
 20
-3.055181
  0
VERTEX
  8
PLAN_1
  6
CONTINUOUS
 10
0.780280
 20
-3.053150
  0
VERTEX
  8
PLAN_1
  6
CONTINUOUS
 10
0.783937
 20
-3.051524
  0
VERTEX
  8
PLAN_1
  6
CONTINUOUS
 10
0.788406
 20
-3.049898
  0
VERTEX
  8
PLAN_1
  6
CONTINUOUS
 10
0.792469
 20
-3.048681
  0
VERTEX
  8
PLAN_1
  6
CONTINUOUS
 10
0.797343
 20
-3.047866
  0
VERTEX
  8
PLAN_1
  6
CONTINUOUS
 10
0.802220
 20
-3.047461
  0
VERTEX
  8
PLAN_1
  6
CONTINUOUS
 10
0.807094
 20
-3.047461
  0
VERTEX
  8
PLAN_1
  6
CONTINUOUS
 10
0.812378
 20
-3.047461
  0
VERTEX
  8
PLAN_1
  6
CONTINUOUS
 10
0.817252
 20
-3.047866
  0
VERTEX
  8
PLAN_1
  6
CONTINUOUS
 10
0.821720
 20
-3.048681
  0
VERTEX
  8
PLAN_1
  6
CONTINUOUS
 10
0.826189
 20
-3.049898
  0
VERTEX
  8
PLAN_1
  6
CONTINUOUS
 10
0.830252
 20
-3.051524
  0
VERTEX
  8
PLAN_1
  6
CONTINUOUS
 10
0.834315
 20
-3.053150
  0
VERTEX
  8
PLAN_1
  6
CONTINUOUS
 10
0.837972
 20
-3.055181
  0
VERTEX
  8
PLAN_1
  6
CONTINUOUS
 10
0.841224
 20
-3.057213
  0
VERTEX
  8
PLAN_1
  6
CONTINUOUS
 10
0.844472
 20
-3.059650
  0
VERTEX
  8
PLAN_1
  6
CONTINUOUS
 10
0.847724
 20
-3.062492
  0
VERTEX
  8
PLAN_1
  6
CONTINUOUS
 10
0.850567
 20
-3.065339
  0
VERTEX
  8
PLAN_1
  6
CONTINUOUS
 10
0.853008
 20
-3.068587
  0
VERTEX
  8
PLAN_1
  6
CONTINUOUS
 10
0.855445
 20
-3.071839
  0
VERTEX
  8
PLAN_1
  6
CONTINUOUS
 10
0.857882
 20
-3.075091
  0
VERTEX
  8
PLAN_1
  6
CONTINUOUS
 10
0.859913
 20
-3.078744
  0
VERTEX
  8
PLAN_1
  6
CONTINUOUS
 10
0.861539
 20
-3.082402
  0
VERTEX
  8
PLAN_1
  6
CONTINUOUS
 10
0.865197
 20
-3.090122
  0
VERTEX
  8
PLAN_1
  6
CONTINUOUS
 10
0.867634
 20
-3.098248
  0
VERTEX
  8
PLAN_1
  6
CONTINUOUS
 10
0.870071
 20
-3.106374
  0
VERTEX
  8
PLAN_1
  6
CONTINUOUS
 10
0.871697
 20
-3.114906
  0
VERTEX
  8
PLAN_1
  6
CONTINUOUS
 10
0.872913
 20
-3.123437
  0
VERTEX
  8
PLAN_1
  6
CONTINUOUS
 10
0.873728
 20
-3.131563
  0
VERTEX
  8
PLAN_1
  6
CONTINUOUS
 10
0.874134
 20
-3.139689
  0
VERTEX
  8
PLAN_1
  6
CONTINUOUS
 10
0.874134
 20
-3.147409
  0
VERTEX
  8
PLAN_1
  6
CONTINUOUS
 10
0.874134
 20
-3.155535
  0
VERTEX
  8
PLAN_1
  6
CONTINUOUS
 10
0.873728
 20
-3.163661
  0
VERTEX
  8
PLAN_1
  6
CONTINUOUS
 10
0.872913
 20
-3.171787
  0
VERTEX
  8
PLAN_1
  6
CONTINUOUS
 10
0.871697
 20
-3.180319
  0
VERTEX
  8
PLAN_1
  6
CONTINUOUS
 10
0.870071
 20
-3.188850
  0
VERTEX
  8
PLAN_1
  6
CONTINUOUS
 10
0.867634
 20
-3.196976
  0
VERTEX
  8
PLAN_1
  6
CONTINUOUS
 10
0.865197
 20
-3.205102
  0
VERTEX
  8
PLAN_1
  6
CONTINUOUS
 10
0.861539
 20
-3.212823
  0
VERTEX
  8
PLAN_1
  6
CONTINUOUS
 10
0.859913
 20
-3.216480
  0
VERTEX
  8
PLAN_1
  6
CONTINUOUS
 10
0.857882
 20
-3.220138
  0
VERTEX
  8
PLAN_1
  6
CONTINUOUS
 10
0.855445
 20
-3.223386
  0
VERTEX
  8
PLAN_1
  6
CONTINUOUS
 10
0.853008
 20
-3.226638
  0
VERTEX
  8
PLAN_1
  6
CONTINUOUS
 10
0.850567
 20
-3.229890
  0
VERTEX
  8
PLAN_1
  6
CONTINUOUS
 10
0.847724
 20
-3.232732
  0
VERTEX
  8
PLAN_1
  6
CONTINUOUS
 10
0.844472
 20
-3.235169
  0
VERTEX
  8
PLAN_1
  6
CONTINUOUS
 10
0.841224
 20
-3.237606
  0
VERTEX
  8
PLAN_1
  6
CONTINUOUS
 10
0.837972
 20
-3.240047
  0
VERTEX
  8
PLAN_1
  6
CONTINUOUS
 10
0.834315
 20
-3.242079
  0
VERTEX
  8
PLAN_1
  6
CONTINUOUS
 10
0.830252
 20
-3.243701
  0
VERTEX
  8
PLAN_1
  6
CONTINUOUS
 10
0.826189
 20
-3.245327
  0
VERTEX
  8
PLAN_1
  6
CONTINUOUS
 10
0.821720
 20
-3.246142
  0
VERTEX
  8
PLAN_1
  6
CONTINUOUS
 10
0.817252
 20
-3.246953
  0
VERTEX
  8
PLAN_1
  6
CONTINUOUS
 10
0.812378
 20
-3.247764
  0
VERTEX
  8
PLAN_1
  6
CONTINUOUS
 10
0.807094
 20
-3.247764
  0
SEQEND
  8
0
  0
POLYLINE
  8
PLAN_1
  6
CONTINUOUS
 66
     1
 40
0.003000
 41
0.003000
  0
VERTEX
  8
PLAN_1
  6
CONTINUOUS
 10
0.807094
 20
-3.069402
  0
VERTEX
  8
PLAN_1
  6
CONTINUOUS
 10
0.802220
 20
-3.069807
  0
VERTEX
  8
PLAN_1
  6
CONTINUOUS
 10
0.797343
 20
-3.070618
  0
VERTEX
  8
PLAN_1
  6
CONTINUOUS
 10
0.792874
 20
-3.072244
  0
VERTEX
  8
PLAN_1
  6
CONTINUOUS
 10
0.789217
 20
-3.074681
  0
VERTEX
  8
PLAN_1
  6
CONTINUOUS
 10
0.785154
 20
-3.077528
  0
VERTEX
  8
PLAN_1
  6
CONTINUOUS
 10
0.781906
 20
-3.081185
  0
VERTEX
  8
PLAN_1
  6
CONTINUOUS
 10
0.779059
 20
-3.085248
  0
VERTEX
  8
PLAN_1
  6
CONTINUOUS
 10
0.776217
 20
-3.090122
  0
VERTEX
  8
PLAN_1
  6
CONTINUOUS
 10
0.773780
 20
-3.095406
  0
VERTEX
  8
PLAN_1
  6
CONTINUOUS
 10
0.772154
 20
-3.101500
  0
VERTEX
  8
PLAN_1
  6
CONTINUOUS
 10
0.770122
 20
-3.107594
  0
VERTEX
  8
PLAN_1
  6
CONTINUOUS
 10
0.768902
 20
-3.114906
  0
VERTEX
  8
PLAN_1
  6
CONTINUOUS
 10
0.767685
 20
-3.122220
  0
VERTEX
  8
PLAN_1
  6
CONTINUOUS
 10
0.766870
 20
-3.130346
  0
VERTEX
  8
PLAN_1
  6
CONTINUOUS
 10
0.766465
 20
-3.138472
  0
VERTEX
  8
PLAN_1
  6
CONTINUOUS
 10
0.766465
 20
-3.147409
  0
VERTEX
  8
PLAN_1
  6
CONTINUOUS
 10
0.766465
 20
-3.156346
  0
VERTEX
  8
PLAN_1
  6
CONTINUOUS
 10
0.766870
 20
-3.164882
  0
VERTEX
  8
PLAN_1
  6
CONTINUOUS
 10
0.767685
 20
-3.173008
  0
VERTEX
  8
PLAN_1
  6
CONTINUOUS
 10
0.768902
 20
-3.180319
  0
VERTEX
  8
PLAN_1
  6
CONTINUOUS
 10
0.770122
 20
-3.187228
  0
VERTEX
  8
PLAN_1
  6
CONTINUOUS
 10
0.772154
 20
-3.193728
  0
VERTEX
  8
PLAN_1
  6
CONTINUOUS
 10
0.773780
 20
-3.199823
  0
VERTEX
  8
PLAN_1
  6
CONTINUOUS
 10
0.776217
 20
-3.205102
  0
VERTEX
  8
PLAN_1
  6
CONTINUOUS
 10
0.779059
 20
-3.209980
  0
VERTEX
  8
PLAN_1
  6
CONTINUOUS
 10
0.781906
 20
-3.214043
  0
VERTEX
  8
PLAN_1
  6
CONTINUOUS
 10
0.785154
 20
-3.217701
  0
VERTEX
  8
PLAN_1
  6
CONTINUOUS
 10
0.789217
 20
-3.220543
  0
VERTEX
  8
PLAN_1
  6
CONTINUOUS
 10
0.792874
 20
-3.222980
  0
VERTEX
  8
PLAN_1
  6
CONTINUOUS
 10
0.797343
 20
-3.224606
  0
VERTEX
  8
PLAN_1
  6
CONTINUOUS
 10
0.802220
 20
-3.225417
  0
VERTEX
  8
PLAN_1
  6
CONTINUOUS
 10
0.807094
 20
-3.225827
  0
VERTEX
  8
PLAN_1
  6
CONTINUOUS
 10
0.812378
 20
-3.225417
  0
VERTEX
  8
PLAN_1
  6
CONTINUOUS
 10
0.816846
 20
-3.224606
  0
VERTEX
  8
PLAN_1
  6
CONTINUOUS
 10
0.821315
 20
-3.222980
  0
VERTEX
  8
PLAN_1
  6
CONTINUOUS
 10
0.825378
 20
-3.220543
  0
VERTEX
  8
PLAN_1
  6
CONTINUOUS
 10
0.829035
 20
-3.217701
  0
VERTEX
  8
PLAN_1
  6
CONTINUOUS
 10
0.832283
 20
-3.214043
  0
VERTEX
  8
PLAN_1
  6
CONTINUOUS
 10
0.835535
 20
-3.209980
  0
VERTEX
  8
PLAN_1
  6
CONTINUOUS
 10
0.837972
 20
-3.205102
  0
VERTEX
  8
PLAN_1
  6
CONTINUOUS
 10
0.840409
 20
-3.199823
  0
VERTEX
  8
PLAN_1
  6
CONTINUOUS
 10
0.842441
 20
-3.193728
  0
VERTEX
  8
PLAN_1
  6
CONTINUOUS
 10
0.844067
 20
-3.187228
  0
VERTEX
  8
PLAN_1
  6
CONTINUOUS
 10
0.845693
 20
-3.180319
  0
VERTEX
  8
PLAN_1
  6
CONTINUOUS
 10
0.846504
 20
-3.173008
  0
VERTEX
  8
PLAN_1
  6
CONTINUOUS
 10
0.847319
 20
-3.164882
  0
VERTEX
  8
PLAN_1
  6
CONTINUOUS
 10
0.847724
 20
-3.156346
  0
VERTEX
  8
PLAN_1
  6
CONTINUOUS
 10
0.848130
 20
-3.147409
  0
VERTEX
  8
PLAN_1
  6
CONTINUOUS
 10
0.847724
 20
-3.138472
  0
VERTEX
  8
PLAN_1
  6
CONTINUOUS
 10
0.847319
 20
-3.130346
  0
VERTEX
  8
PLAN_1
  6
CONTINUOUS
 10
0.846504
 20
-3.122220
  0
VERTEX
  8
PLAN_1
  6
CONTINUOUS
 10
0.845693
 20
-3.114906
  0
VERTEX
  8
PLAN_1
  6
CONTINUOUS
 10
0.844067
 20
-3.107594
  0
VERTEX
  8
PLAN_1
  6
CONTINUOUS
 10
0.842441
 20
-3.101500
  0
VERTEX
  8
PLAN_1
  6
CONTINUOUS
 10
0.840409
 20
-3.095406
  0
VERTEX
  8
PLAN_1
  6
CONTINUOUS
 10
0.837972
 20
-3.090122
  0
VERTEX
  8
PLAN_1
  6
CONTINUOUS
 10
0.835535
 20
-3.085248
  0
VERTEX
  8
PLAN_1
  6
CONTINUOUS
 10
0.832283
 20
-3.081185
  0
VERTEX
  8
PLAN_1
  6
CONTINUOUS
 10
0.829035
 20
-3.077528
  0
VERTEX
  8
PLAN_1
  6
CONTINUOUS
 10
0.825378
 20
-3.074681
  0
VERTEX
  8
PLAN_1
  6
CONTINUOUS
 10
0.821315
 20
-3.072244
  0
VERTEX
  8
PLAN_1
  6
CONTINUOUS
 10
0.816846
 20
-3.070618
  0
VERTEX
  8
PLAN_1
  6
CONTINUOUS
 10
0.812378
 20
-3.069807
  0
VERTEX
  8
PLAN_1
  6
CONTINUOUS
 10
0.807094
 20
-3.069402
  0
SEQEND
  8
0
  0
POLYLINE
  8
PLAN_1
  6
CONTINUOUS
 66
     1
 40
0.003000
 41
0.003000
  0
VERTEX
  8
PLAN_1
  6
CONTINUOUS
 10
0.896075
 20
-3.114094
  0
VERTEX
  8
PLAN_1
  6
CONTINUOUS
 10
0.896480
 20
-3.107594
  0
VERTEX
  8
PLAN_1
  6
CONTINUOUS
 10
0.897291
 20
-3.101091
  0
VERTEX
  8
PLAN_1
  6
CONTINUOUS
 10
0.898512
 20
-3.094996
  0
VERTEX
  8
PLAN_1
  6
CONTINUOUS
 10
0.900138
 20
-3.088902
  0
VERTEX
  8
PLAN_1
  6
CONTINUOUS
 10
0.902575
 20
-3.082807
  0
VERTEX
  8
PLAN_1
  6
CONTINUOUS
 10
0.905012
 20
-3.077528
  0
VERTEX
  8
PLAN_1
  6
CONTINUOUS
 10
0.908264
 20
-3.072244
  0
VERTEX
  8
PLAN_1
  6
CONTINUOUS
 10
0.911921
 20
-3.067370
  0
VERTEX
  8
PLAN_1
  6
CONTINUOUS
 10
0.916390
 20
-3.063307
  0
VERTEX
  8
PLAN_1
  6
CONTINUOUS
 10
0.920858
 20
-3.059244
  0
VERTEX
  8
PLAN_1
  6
CONTINUOUS
 10
0.926142
 20
-3.055587
  0
VERTEX
  8
PLAN_1
  6
CONTINUOUS
 10
0.931827
 20
-3.052744
  0
VERTEX
  8
PLAN_1
  6
CONTINUOUS
 10
0.937921
 20
-3.050303
  0
VERTEX
  8
PLAN_1
  6
CONTINUOUS
 10
0.944425
 20
-3.048681
  0
VERTEX
  8
PLAN_1
  6
CONTINUOUS
 10
0.951331
 20
-3.047866
  0
VERTEX
  8
PLAN_1
  6
CONTINUOUS
 10
0.958646
 20
-3.047461
  0
VERTEX
  8
PLAN_1
  6
CONTINUOUS
 10
0.964331
 20
-3.047461
  0
VERTEX
  8
PLAN_1
  6
CONTINUOUS
 10
0.970020
 20
-3.047866
  0
VERTEX
  8
PLAN_1
  6
CONTINUOUS
 10
0.974898
 20
-3.048681
  0
VERTEX
  8
PLAN_1
  6
CONTINUOUS
 10
0.979772
 20
-3.049898
  0
VERTEX
  8
PLAN_1
  6
CONTINUOUS
 10
0.984240
 20
-3.051524
  0
VERTEX
  8
PLAN_1
  6
CONTINUOUS
 10
0.988303
 20
-3.053150
  0
VERTEX
  8
PLAN_1
  6
CONTINUOUS
 10
0.991961
 20
-3.054776
  0
VERTEX
  8
PLAN_1
  6
CONTINUOUS
 10
0.995618
 20
-3.057213
  0
VERTEX
  8
PLAN_1
  6
CONTINUOUS
 10
0.999276
 20
-3.059244
  0
VERTEX
  8
PLAN_1
  6
CONTINUOUS
 10
1.002118
 20
-3.062087
  0
VERTEX
  8
PLAN_1
  6
CONTINUOUS
 10
1.004961
 20
-3.064933
  0
VERTEX
  8
PLAN_1
  6
CONTINUOUS
 10
1.007807
 20
-3.067776
  0
VERTEX
  8
PLAN_1
  6
CONTINUOUS
 10
1.010244
 20
-3.070618
  0
VERTEX
  8
PLAN_1
  6
CONTINUOUS
 10
1.012276
 20
-3.073870
  0
VERTEX
  8
PLAN_1
  6
CONTINUOUS
 10
1.014307
 20
-3.077122
  0
VERTEX
  8
PLAN_1
  6
CONTINUOUS
 10
1.016339
 20
-3.080776
  0
VERTEX
  8
PLAN_1
  6
CONTINUOUS
 10
1.019591
 20
-3.088091
  0
VERTEX
  8
PLAN_1
  6
CONTINUOUS
 10
1.022028
 20
-3.095406
  0
VERTEX
  8
PLAN_1
  6
CONTINUOUS
 10
1.023654
 20
-3.102717
  0
VERTEX
  8
PLAN_1
  6
CONTINUOUS
 10
1.025276
 20
-3.110437
  0
VERTEX
  8
PLAN_1
  6
CONTINUOUS
 10
1.026091
 20
-3.117752
  0
VERTEX
  8
PLAN_1
  6
CONTINUOUS
 10
1.026902
 20
-3.125063
  0
VERTEX
  8
PLAN_1
  6
CONTINUOUS
 10
1.026902
 20
-3.131563
  0
VERTEX
  8
PLAN_1
  6
CONTINUOUS
 10
1.027307
 20
-3.137657
  0
VERTEX
  8
PLAN_1
  6
CONTINUOUS
 10
1.026902
 20
-3.148630
  0
VERTEX
  8
PLAN_1
  6
CONTINUOUS
 10
1.025685
 20
-3.163661
  0
VERTEX
  8
PLAN_1
  6
CONTINUOUS
 10
1.024059
 20
-3.172598
  0
VERTEX
  8
PLAN_1
  6
CONTINUOUS
 10
1.022433
 20
-3.181945
  0
VERTEX
  8
PLAN_1
  6
CONTINUOUS
 10
1.019996
 20
-3.191291
  0
VERTEX
  8
PLAN_1
  6
CONTINUOUS
 10
1.016744
 20
-3.200634
  0
VERTEX
  8
PLAN_1
  6
CONTINUOUS
 10
1.015118
 20
-3.205102
  0
VERTEX
  8
PLAN_1
  6
CONTINUOUS
 10
1.013087
 20
-3.209980
  0
VERTEX
  8
PLAN_1
  6
CONTINUOUS
 10
1.010650
 20
-3.214043
  0
VERTEX
  8
PLAN_1
  6
CONTINUOUS
 10
1.008213
 20
-3.218512
  0
VERTEX
  8
PLAN_1
  6
CONTINUOUS
 10
1.005370
 20
-3.222575
  0
VERTEX
  8
PLAN_1
  6
CONTINUOUS
 10
1.002524
 20
-3.226638
  0
VERTEX
  8
PLAN_1
  6
CONTINUOUS
 10
0.999276
 20
-3.230295
  0
VERTEX
  8
PLAN_1
  6
CONTINUOUS
 10
0.995618
 20
-3.233543
  0
VERTEX
  8
PLAN_1
  6
CONTINUOUS
 10
0.991961
 20
-3.236795
  0
VERTEX
  8
PLAN_1
  6
CONTINUOUS
 10
0.987898
 20
-3.239232
  0
VERTEX
  8
PLAN_1
  6
CONTINUOUS
 10
0.983429
 20
-3.241669
  0
VERTEX
  8
PLAN_1
  6
CONTINUOUS
 10
0.978551
 20
-3.243701
  0
VERTEX
  8
PLAN_1
  6
CONTINUOUS
 10
0.973677
 20
-3.245732
  0
VERTEX
  8
PLAN_1
  6
CONTINUOUS
 10
0.968394
 20
-3.246953
  0
VERTEX
  8
PLAN_1
  6
CONTINUOUS
 10
0.962299
 20
-3.247358
  0
VERTEX
  8
PLAN_1
  6
CONTINUOUS
 10
0.956205
 20
-3.247764
  0
VERTEX
  8
PLAN_1
  6
CONTINUOUS
 10
0.948079
 20
-3.247358
  0
VERTEX
  8
PLAN_1
  6
CONTINUOUS
 10
0.940768
 20
-3.246142
  0
VERTEX
  8
PLAN_1
  6
CONTINUOUS
 10
0.933858
 20
-3.244516
  0
VERTEX
  8
PLAN_1
  6
CONTINUOUS
 10
0.927764
 20
-3.242079
  0
VERTEX
  8
PLAN_1
  6
CONTINUOUS
 10
0.922484
 20
-3.239638
  0
VERTEX
  8
PLAN_1
  6
CONTINUOUS
 10
0.918016
 20
-3.236390
  0
VERTEX
  8
PLAN_1
  6
CONTINUOUS
 10
0.913543
 20
-3.232732
  0
VERTEX
  8
PLAN_1
  6
CONTINUOUS
 10
0.910295
 20
-3.228669
  0
VERTEX
  8
PLAN_1
  6
CONTINUOUS
 10
0.907043
 20
-3.224606
  0
VERTEX
  8
PLAN_1
  6
CONTINUOUS
 10
0.904606
 20
-3.220543
  0
VERTEX
  8
PLAN_1
  6
CONTINUOUS
 10
0.902575
 20
-3.216075
  0
VERTEX
  8
PLAN_1
  6
CONTINUOUS
 10
0.900949
 20
-3.211606
  0
VERTEX
  8
PLAN_1
  6
CONTINUOUS
 10
0.899732
 20
-3.207543
  0
VERTEX
  8
PLAN_1
  6
CONTINUOUS
 10
0.898917
 20
-3.203071
  0
VERTEX
  8
PLAN_1
  6
CONTINUOUS
 10
0.898512
 20
-3.199417
  0
VERTEX
  8
PLAN_1
  6
CONTINUOUS
 10
0.898512
 20
-3.195760
  0
VERTEX
  8
PLAN_1
  6
CONTINUOUS
 10
0.922890
 20
-3.195760
  0
VERTEX
  8
PLAN_1
  6
CONTINUOUS
 10
0.923295
 20
-3.199008
  0
VERTEX
  8
PLAN_1
  6
CONTINUOUS
 10
0.923701
 20
-3.202665
  0
VERTEX
  8
PLAN_1
  6
CONTINUOUS
 10
0.924516
 20
-3.205917
  0
VERTEX
  8
PLAN_1
  6
CONTINUOUS
 10
0.925732
 20
-3.208760
  0
VERTEX
  8
PLAN_1
  6
CONTINUOUS
 10
0.926953
 20
-3.211606
  0
VERTEX
  8
PLAN_1
  6
CONTINUOUS
 10
0.928579
 20
-3.214449
  0
VERTEX
  8
PLAN_1
  6
CONTINUOUS
 10
0.930205
 20
-3.216886
  0
VERTEX
  8
PLAN_1
  6
CONTINUOUS
 10
0.932236
 20
-3.218917
  0
VERTEX
  8
PLAN_1
  6
CONTINUOUS
 10
0.934673
 20
-3.220949
  0
VERTEX
  8
PLAN_1
  6
CONTINUOUS
 10
0.937110
 20
-3.222575
  0
VERTEX
  8
PLAN_1
  6
CONTINUOUS
 10
0.939547
 20
-3.224201
  0
VERTEX
  8
PLAN_1
  6
CONTINUOUS
 10
0.942394
 20
-3.225417
  0
VERTEX
  8
PLAN_1
  6
CONTINUOUS
 10
0.945236
 20
-3.226232
  0
VERTEX
  8
PLAN_1
  6
CONTINUOUS
 10
0.948488
 20
-3.227043
  0
VERTEX
  8
PLAN_1
  6
CONTINUOUS
 10
0.952142
 20
-3.227449
  0
VERTEX
  8
PLAN_1
  6
CONTINUOUS
 10
0.955799
 20
-3.227449
  0
VERTEX
  8
PLAN_1
  6
CONTINUOUS
 10
0.960677
 20
-3.227043
  0
VERTEX
  8
PLAN_1
  6
CONTINUOUS
 10
0.965146
 20
-3.226638
  0
VERTEX
  8
PLAN_1
  6
CONTINUOUS
 10
0.969614
 20
-3.225012
  0
VERTEX
  8
PLAN_1
  6
CONTINUOUS
 10
0.973677
 20
-3.223386
  0
VERTEX
  8
PLAN_1
  6
CONTINUOUS
 10
0.977335
 20
-3.220949
  0
VERTEX
  8
PLAN_1
  6
CONTINUOUS
 10
0.980583
 20
-3.217701
  0
VERTEX
  8
PLAN_1
  6
CONTINUOUS
 10
0.983835
 20
-3.214043
  0
VERTEX
  8
PLAN_1
  6
CONTINUOUS
 10
0.987087
 20
-3.209980
  0
VERTEX
  8
PLAN_1
  6
CONTINUOUS
 10
0.989524
 20
-3.205102
  0
VERTEX
  8
PLAN_1
  6
CONTINUOUS
 10
0.992366
 20
-3.199823
  0
VERTEX
  8
PLAN_1
  6
CONTINUOUS
 10
0.994398
 20
-3.193728
  0
VERTEX
  8
PLAN_1
  6
CONTINUOUS
 10
0.996429
 20
-3.187228
  0
VERTEX
  8
PLAN_1
  6
CONTINUOUS
 10
0.998461
 20
-3.179913
  0
VERTEX
  8
PLAN_1
  6
CONTINUOUS
 10
1.000087
 20
-3.172193
  0
VERTEX
  8
PLAN_1
  6
CONTINUOUS
 10
1.001307
 20
-3.163661
  0
VERTEX
  8
PLAN_1
  6
CONTINUOUS
 10
1.002524
 20
-3.154315
  0
VERTEX
  8
PLAN_1
  6
CONTINUOUS
 10
1.002118
 20
-3.153909
  0
VERTEX
  8
PLAN_1
  6
CONTINUOUS
 10
1.000492
 20
-3.156756
  0
VERTEX
  8
PLAN_1
  6
CONTINUOUS
 10
0.998866
 20
-3.159193
  0
VERTEX
  8
PLAN_1
  6
CONTINUOUS
 10
0.996835
 20
-3.161630
  0
VERTEX
  8
PLAN_1
  6
CONTINUOUS
 10
0.994803
 20
-3.164067
  0
VERTEX
  8
PLAN_1
  6
CONTINUOUS
 10
0.992366
 20
-3.166098
  0
VERTEX
  8
PLAN_1
  6
CONTINUOUS
 10
0.989524
 20
-3.167724
  0
VERTEX
  8
PLAN_1
  6
CONTINUOUS
 10
0.986677
 20
-3.169756
  0
VERTEX
  8
PLAN_1
  6
CONTINUOUS
 10
0.983835
 20
-3.171382
  0
VERTEX
  8
PLAN_1
  6
CONTINUOUS
 10
0.977740
 20
-3.173819
  0
VERTEX
  8
PLAN_1
  6
CONTINUOUS
 10
0.970835
 20
-3.175850
  0
VERTEX
  8
PLAN_1
  6
CONTINUOUS
 10
0.964331
 20
-3.177071
  0
VERTEX
  8
PLAN_1
  6
CONTINUOUS
 10
0.957425
 20
-3.177071
  0
VERTEX
  8
PLAN_1
  6
CONTINUOUS
 10
0.950925
 20
-3.177071
  0
VERTEX
  8
PLAN_1
  6
CONTINUOUS
 10
0.944425
 20
-3.176256
  0
VERTEX
  8
PLAN_1
  6
CONTINUOUS
 10
0.938331
 20
-3.174630
  0
VERTEX
  8
PLAN_1
  6
CONTINUOUS
 10
0.932642
 20
-3.173008
  0
VERTEX
  8
PLAN_1
  6
CONTINUOUS
 10
0.927358
 20
-3.170567
  0
VERTEX
  8
PLAN_1
  6
CONTINUOUS
 10
0.922079
 20
-3.167724
  0
VERTEX
  8
PLAN_1
  6
CONTINUOUS
 10
0.917606
 20
-3.164067
  0
VERTEX
  8
PLAN_1
  6
CONTINUOUS
 10
0.913138
 20
-3.160409
  0
VERTEX
  8
PLAN_1
  6
CONTINUOUS
 10
0.909480
 20
-3.155941
  0
VERTEX
  8
PLAN_1
  6
CONTINUOUS
 10
0.905827
 20
-3.151472
  0
VERTEX
  8
PLAN_1
  6
CONTINUOUS
 10
0.902980
 20
-3.146189
  0
VERTEX
  8
PLAN_1
  6
CONTINUOUS
 10
0.900543
 20
-3.140504
  0
VERTEX
  8
PLAN_1
  6
CONTINUOUS
 10
0.898512
 20
-3.134409
  0
VERTEX
  8
PLAN_1
  6
CONTINUOUS
 10
0.897291
 20
-3.128315
  0
VERTEX
  8
PLAN_1
  6
CONTINUOUS
 10
0.896480
 20
-3.121406
  0
VERTEX
  8
PLAN_1
  6
CONTINUOUS
 10
0.896075
 20
-3.114094
  0
SEQEND
  8
0
  0
POLYLINE
  8
PLAN_1
  6
CONTINUOUS
 66
     1
 40
0.003000
 41
0.003000
  0
VERTEX
  8
PLAN_1
  6
CONTINUOUS
 10
0.998461
 20
-3.110843
  0
VERTEX
  8
PLAN_1
  6
CONTINUOUS
 10
0.998461
 20
-3.106780
  0
VERTEX
  8
PLAN_1
  6
CONTINUOUS
 10
0.998055
 20
-3.102717
  0
VERTEX
  8
PLAN_1
  6
CONTINUOUS
 10
0.997244
 20
-3.098654
  0
VERTEX
  8
PLAN_1
  6
CONTINUOUS
 10
0.996429
 20
-3.094996
  0
VERTEX
  8
PLAN_1
  6
CONTINUOUS
 10
0.995213
 20
-3.091343
  0
VERTEX
  8
PLAN_1
  6
CONTINUOUS
 10
0.993587
 20
-3.088091
  0
VERTEX
  8
PLAN_1
  6
CONTINUOUS
 10
0.991555
 20
-3.084839
  0
VERTEX
  8
PLAN_1
  6
CONTINUOUS
 10
0.989524
 20
-3.081591
  0
VERTEX
  8
PLAN_1
  6
CONTINUOUS
 10
0.986677
 20
-3.079154
  0
VERTEX
  8
PLAN_1
  6
CONTINUOUS
 10
0.983835
 20
-3.076713
  0
VERTEX
  8
PLAN_1
  6
CONTINUOUS
 10
0.980583
 20
-3.074681
  0
VERTEX
  8
PLAN_1
  6
CONTINUOUS
 10
0.976929
 20
-3.072650
  0
VERTEX
  8
PLAN_1
  6
CONTINUOUS
 10
0.973272
 20
-3.071433
  0
VERTEX
  8
PLAN_1
  6
CONTINUOUS
 10
0.968803
 20
-3.070213
  0
VERTEX
  8
PLAN_1
  6
CONTINUOUS
 10
0.964331
 20
-3.069402
  0
VERTEX
  8
PLAN_1
  6
CONTINUOUS
 10
0.959051
 20
-3.069402
  0
VERTEX
  8
PLAN_1
  6
CONTINUOUS
 10
0.954988
 20
-3.069402
  0
VERTEX
  8
PLAN_1
  6
CONTINUOUS
 10
0.950925
 20
-3.070213
  0
VERTEX
  8
PLAN_1
  6
CONTINUOUS
 10
0.947268
 20
-3.071028
  0
VERTEX
  8
PLAN_1
  6
CONTINUOUS
 10
0.943610
 20
-3.072650
  0
VERTEX
  8
PLAN_1
  6
CONTINUOUS
 10
0.940362
 20
-3.074276
  0
VERTEX
  8
PLAN_1
  6
CONTINUOUS
 10
0.937110
 20
-3.076307
  0
VERTEX
  8
PLAN_1
  6
CONTINUOUS
 10
0.934268
 20
-3.078744
  0
VERTEX
  8
PLAN_1
  6
CONTINUOUS
 10
0.931827
 20
-3.081591
  0
VERTEX
  8
PLAN_1
  6
CONTINUOUS
 10
0.929390
 20
-3.084433
  0
VERTEX
  8
PLAN_1
  6
CONTINUOUS
 10
0.927358
 20
-3.087685
  0
VERTEX
  8
PLAN_1
  6
CONTINUOUS
 10
0.925732
 20
-3.091343
  0
VERTEX
  8
PLAN_1
  6
CONTINUOUS
 10
0.924110
 20
-3.095406
  0
VERTEX
  8
PLAN_1
  6
CONTINUOUS
 10
0.922890
 20
-3.099469
  0
VERTEX
  8
PLAN_1
  6
CONTINUOUS
 10
0.922079
 20
-3.103937
  0
VERTEX
  8
PLAN_1
  6
CONTINUOUS
 10
0.921669
 20
-3.108406
  0
VERTEX
  8
PLAN_1
  6
CONTINUOUS
 10
0.921264
 20
-3.113280
  0
VERTEX
  8
PLAN_1
  6
CONTINUOUS
 10
0.921669
 20
-3.119783
  0
VERTEX
  8
PLAN_1
  6
CONTINUOUS
 10
0.922484
 20
-3.125878
  0
VERTEX
  8
PLAN_1
  6
CONTINUOUS
 10
0.923701
 20
-3.131157
  0
VERTEX
  8
PLAN_1
  6
CONTINUOUS
 10
0.925327
 20
-3.135626
  0
VERTEX
  8
PLAN_1
  6
CONTINUOUS
 10
0.927358
 20
-3.139689
  0
VERTEX
  8
PLAN_1
  6
CONTINUOUS
 10
0.929795
 20
-3.142941
  0
VERTEX
  8
PLAN_1
  6
CONTINUOUS
 10
0.932236
 20
-3.145783
  0
VERTEX
  8
PLAN_1
  6
CONTINUOUS
 10
0.935079
 20
-3.148220
  0
VERTEX
  8
PLAN_1
  6
CONTINUOUS
 10
0.937921
 20
-3.150252
  0
VERTEX
  8
PLAN_1
  6
CONTINUOUS
 10
0.941173
 20
-3.151878
  0
VERTEX
  8
PLAN_1
  6
CONTINUOUS
 10
0.944425
 20
-3.153098
  0
VERTEX
  8
PLAN_1
  6
CONTINUOUS
 10
0.948079
 20
-3.153909
  0
VERTEX
  8
PLAN_1
  6
CONTINUOUS
 10
0.954583
 20
-3.155130
  0
VERTEX
  8
PLAN_1
  6
CONTINUOUS
 10
0.961083
 20
-3.155535
  0
VERTEX
  8
PLAN_1
  6
CONTINUOUS
 10
0.966362
 20
-3.155130
  0
VERTEX
  8
PLAN_1
  6
CONTINUOUS
 10
0.972457
 20
-3.153909
  0
VERTEX
  8
PLAN_1
  6
CONTINUOUS
 10
0.975303
 20
-3.152693
  0
VERTEX
  8
PLAN_1
  6
CONTINUOUS
 10
0.978551
 20
-3.151472
  0
VERTEX
  8
PLAN_1
  6
CONTINUOUS
 10
0.981803
 20
-3.149846
  0
VERTEX
  8
PLAN_1
  6
CONTINUOUS
 10
0.984646
 20
-3.147409
  0
VERTEX
  8
PLAN_1
  6
CONTINUOUS
 10
0.987492
 20
-3.144972
  0
VERTEX
  8
PLAN_1
  6
CONTINUOUS
 10
0.989929
 20
-3.142126
  0
VERTEX
  8
PLAN_1
  6
CONTINUOUS
 10
0.992366
 20
-3.138472
  0
VERTEX
  8
PLAN_1
  6
CONTINUOUS
 10
0.994398
 20
-3.134000
  0
VERTEX
  8
PLAN_1
  6
CONTINUOUS
 10
0.996024
 20
-3.129531
  0
VERTEX
  8
PLAN_1
  6
CONTINUOUS
 10
0.997244
 20
-3.123846
  0
VERTEX
  8
PLAN_1
  6
CONTINUOUS
 10
0.998055
 20
-3.117752
  0
VERTEX
  8
PLAN_1
  6
CONTINUOUS
 10
0.998461
 20
-3.110843
  0
SEQEND
  8
0
  0
POLYLINE
  8
PLAN_1
  6
CONTINUOUS
 66
     1
 40
0.003000
 41
0.003000
  0
VERTEX
  8
PLAN_1
  6
CONTINUOUS
 10
1.090283
 20
-3.242484
  0
VERTEX
  8
PLAN_1
  6
CONTINUOUS
 10
1.063063
 20
-3.242484
  0
VERTEX
  8
PLAN_1
  6
CONTINUOUS
 10
1.063063
 20
-3.043398
  0
VERTEX
  8
PLAN_1
  6
CONTINUOUS
 10
1.155291
 20
-3.043398
  0
VERTEX
  8
PLAN_1
  6
CONTINUOUS
 10
1.161386
 20
-3.043398
  0
VERTEX
  8
PLAN_1
  6
CONTINUOUS
 10
1.167480
 20
-3.043803
  0
VERTEX
  8
PLAN_1
  6
CONTINUOUS
 10
1.173575
 20
-3.044618
  0
VERTEX
  8
PLAN_1
  6
CONTINUOUS
 10
1.179264
 20
-3.045835
  0
VERTEX
  8
PLAN_1
  6
CONTINUOUS
 10
1.184953
 20
-3.047055
  0
VERTEX
  8
PLAN_1
  6
CONTINUOUS
 10
1.190642
 20
-3.049087
  0
VERTEX
  8
PLAN_1
  6
CONTINUOUS
 10
1.195516
 20
-3.051524
  0
VERTEX
  8
PLAN_1
  6
CONTINUOUS
 10
1.200390
 20
-3.054366
  0
VERTEX
  8
PLAN_1
  6
CONTINUOUS
 10
1.204862
 20
-3.057618
  0
VERTEX
  8
PLAN_1
  6
CONTINUOUS
 10
1.208925
 20
-3.061276
  0
VERTEX
  8
PLAN_1
  6
CONTINUOUS
 10
1.212173
 20
-3.065744
  0
VERTEX
  8
PLAN_1
  6
CONTINUOUS
 10
1.215425
 20
-3.070618
  0
VERTEX
  8
PLAN_1
  6
CONTINUOUS
 10
1.217862
 20
-3.076307
  0
VERTEX
  8
PLAN_1
  6
CONTINUOUS
 10
1.219488
 20
-3.082402
  0
VERTEX
  8
PLAN_1
  6
CONTINUOUS
 10
1.220705
 20
-3.089311
  0
VERTEX
  8
PLAN_1
  6
CONTINUOUS
 10
1.221114
 20
-3.096622
  0
VERTEX
  8
PLAN_1
  6
CONTINUOUS
 10
1.220705
 20
-3.101906
  0
VERTEX
  8
PLAN_1
  6
CONTINUOUS
 10
1.220299
 20
-3.106780
  0
VERTEX
  8
PLAN_1
  6
CONTINUOUS
 10
1.219488
 20
-3.111657
  0
VERTEX
  8
PLAN_1
  6
CONTINUOUS
 10
1.218268
 20
-3.115720
  0
VERTEX
  8
PLAN_1
  6
CONTINUOUS
 10
1.217051
 20
-3.119374
  0
VERTEX
  8
PLAN_1
  6
CONTINUOUS
 10
1.215425
 20
-3.123031
  0
VERTEX
  8
PLAN_1
  6
CONTINUOUS
 10
1.213799
 20
-3.125878
  0
VERTEX
  8
PLAN_1
  6
CONTINUOUS
 10
1.211768
 20
-3.128720
  0
VERTEX
  8
PLAN_1
  6
CONTINUOUS
 10
1.209736
 20
-3.131563
  0
VERTEX
  8
PLAN_1
  6
CONTINUOUS
 10
1.207705
 20
-3.134000
  0
VERTEX
  8
PLAN_1
  6
CONTINUOUS
 10
1.205268
 20
-3.136031
  0
VERTEX
  8
PLAN_1
  6
CONTINUOUS
 10
1.202831
 20
-3.138063
  0
VERTEX
  8
PLAN_1
  6
CONTINUOUS
 10
1.197953
 20
-3.141720
  0
VERTEX
  8
PLAN_1
  6
CONTINUOUS
 10
1.193079
 20
-3.144567
  0
VERTEX
  8
PLAN_1
  6
CONTINUOUS
 10
1.197547
 20
-3.146189
  0
VERTEX
  8
PLAN_1
  6
CONTINUOUS
 10
1.201610
 20
-3.148630
  0
VERTEX
  8
PLAN_1
  6
CONTINUOUS
 10
1.203642
 20
-3.149846
  0
VERTEX
  8
PLAN_1
  6
CONTINUOUS
 10
1.205268
 20
-3.151067
  0
VERTEX
  8
PLAN_1
  6
CONTINUOUS
 10
1.207299
 20
-3.152693
  0
VERTEX
  8
PLAN_1
  6
CONTINUOUS
 10
1.208925
 20
-3.154724
  0
VERTEX
  8
PLAN_1
  6
CONTINUOUS
 10
1.210547
 20
-3.156756
  0
VERTEX
  8
PLAN_1
  6
CONTINUOUS
 10
1.212173
 20
-3.159193
  0
VERTEX
  8
PLAN_1
  6
CONTINUOUS
 10
1.213394
 20
-3.162035
  0
VERTEX
  8
PLAN_1
  6
CONTINUOUS
 10
1.214610
 20
-3.165287
  0
VERTEX
  8
PLAN_1
  6
CONTINUOUS
 10
1.215425
 20
-3.168535
  0
VERTEX
  8
PLAN_1
  6
CONTINUOUS
 10
1.216236
 20
-3.172598
  0
VERTEX
  8
PLAN_1
  6
CONTINUOUS
 10
1.216642
 20
-3.177071
  0
VERTEX
  8
PLAN_1
  6
CONTINUOUS
 10
1.217051
 20
-3.181945
  0
VERTEX
  8
PLAN_1
  6
CONTINUOUS
 10
1.218673
 20
-3.218106
  0
VERTEX
  8
PLAN_1
  6
CONTINUOUS
 10
1.218673
 20
-3.221764
  0
VERTEX
  8
PLAN_1
  6
CONTINUOUS
 10
1.219083
 20
-3.225012
  0
VERTEX
  8
PLAN_1
  6
CONTINUOUS
 10
1.219894
 20
-3.227858
  0
VERTEX
  8
PLAN_1
  6
CONTINUOUS
 10
1.220705
 20
-3.230295
  0
VERTEX
  8
PLAN_1
  6
CONTINUOUS
 10
1.221925
 20
-3.232732
  0
VERTEX
  8
PLAN_1
  6
CONTINUOUS
 10
1.223551
 20
-3.234358
  0
VERTEX
  8
PLAN_1
  6
CONTINUOUS
 10
1.225988
 20
-3.236390
  0
VERTEX
  8
PLAN_1
  6
CONTINUOUS
 10
1.228831
 20
-3.238016
  0
VERTEX
  8
PLAN_1
  6
CONTINUOUS
 10
1.228831
 20
-3.242484
  0
VERTEX
  8
PLAN_1
  6
CONTINUOUS
 10
1.195516
 20
-3.242484
  0
VERTEX
  8
PLAN_1
  6
CONTINUOUS
 10
1.194295
 20
-3.237201
  0
VERTEX
  8
PLAN_1
  6
CONTINUOUS
 10
1.193079
 20
-3.230701
  0
VERTEX
  8
PLAN_1
  6
CONTINUOUS
 10
1.192264
 20
-3.223386
  0
VERTEX
  8
PLAN_1
  6
CONTINUOUS
 10
1.191858
 20
-3.215669
  0
VERTEX
  8
PLAN_1
  6
CONTINUOUS
 10
1.191453
 20
-3.208354
  0
VERTEX
  8
PLAN_1
  6
CONTINUOUS
 10
1.191047
 20
-3.201854
  0
VERTEX
  8
PLAN_1
  6
CONTINUOUS
 10
1.191047
 20
-3.196165
  0
VERTEX
  8
PLAN_1
  6
CONTINUOUS
 10
1.191047
 20
-3.192508
  0
VERTEX
  8
PLAN_1
  6
CONTINUOUS
 10
1.190642
 20
-3.186413
  0
VERTEX
  8
PLAN_1
  6
CONTINUOUS
 10
1.189827
 20
-3.179913
  0
VERTEX
  8
PLAN_1
  6
CONTINUOUS
 10
1.189016
 20
-3.177071
  0
VERTEX
  8
PLAN_1
  6
CONTINUOUS
 10
1.188201
 20
-3.174224
  0
VERTEX
  8
PLAN_1
  6
CONTINUOUS
 10
1.186984
 20
-3.171382
  0
VERTEX
  8
PLAN_1
  6
CONTINUOUS
 10
1.185358
 20
-3.168535
  0
VERTEX
  8
PLAN_1
  6
CONTINUOUS
 10
1.183327
 20
-3.166098
  0
VERTEX
  8
PLAN_1
  6
CONTINUOUS
 10
1.180890
 20
-3.164067
  0
VERTEX
  8
PLAN_1
  6
CONTINUOUS
 10
1.178043
 20
-3.162035
  0
VERTEX
  8
PLAN_1
  6
CONTINUOUS
 10
1.174390
 20
-3.160409
  0
VERTEX
  8
PLAN_1
  6
CONTINUOUS
 10
1.170732
 20
-3.158787
  0
VERTEX
  8
PLAN_1
  6
CONTINUOUS
 10
1.166264
 20
-3.157972
  0
VERTEX
  8
PLAN_1
  6
CONTINUOUS
 10
1.160980
 20
-3.157161
  0
VERTEX
  8
PLAN_1
  6
CONTINUOUS
 10
1.155291
 20
-3.157161
  0
VERTEX
  8
PLAN_1
  6
CONTINUOUS
 10
1.090283
 20
-3.157161
  0
VERTEX
  8
PLAN_1
  6
CONTINUOUS
 10
1.090283
 20
-3.242484
  0
SEQEND
  8
0
  0
POLYLINE
  8
PLAN_1
  6
CONTINUOUS
 66
     1
 40
0.003000
 41
0.003000
  0
VERTEX
  8
PLAN_1
  6
CONTINUOUS
 10
1.090283
 20
-3.134000
  0
VERTEX
  8
PLAN_1
  6
CONTINUOUS
 10
1.152449
 20
-3.134000
  0
VERTEX
  8
PLAN_1
  6
CONTINUOUS
 10
1.160169
 20
-3.133594
  0
VERTEX
  8
PLAN_1
  6
CONTINUOUS
 10
1.167075
 20
-3.132783
  0
VERTEX
  8
PLAN_1
  6
CONTINUOUS
 10
1.170732
 20
-3.131972
  0
VERTEX
  8
PLAN_1
  6
CONTINUOUS
 10
1.173980
 20
-3.130752
  0
VERTEX
  8
PLAN_1
  6
CONTINUOUS
 10
1.177232
 20
-3.129531
  0
VERTEX
  8
PLAN_1
  6
CONTINUOUS
 10
1.180484
 20
-3.127909
  0
VERTEX
  8
PLAN_1
  6
CONTINUOUS
 10
1.182921
 20
-3.125878
  0
VERTEX
  8
PLAN_1
  6
CONTINUOUS
 10
1.185358
 20
-3.123437
  0
VERTEX
  8
PLAN_1
  6
CONTINUOUS
 10
1.187795
 20
-3.120594
  0
VERTEX
  8
PLAN_1
  6
CONTINUOUS
 10
1.189421
 20
-3.117343
  0
VERTEX
  8
PLAN_1
  6
CONTINUOUS
 10
1.191047
 20
-3.113689
  0
VERTEX
  8
PLAN_1
  6
CONTINUOUS
 10
1.192264
 20
-3.109626
  0
VERTEX
  8
PLAN_1
  6
CONTINUOUS
 10
1.193079
 20
-3.104748
  0
VERTEX
  8
PLAN_1
  6
CONTINUOUS
 10
1.193079
 20
-3.099469
  0
VERTEX
  8
PLAN_1
  6
CONTINUOUS
 10
1.193079
 20
-3.094185
  0
VERTEX
  8
PLAN_1
  6
CONTINUOUS
 10
1.192264
 20
-3.089311
  0
VERTEX
  8
PLAN_1
  6
CONTINUOUS
 10
1.191047
 20
-3.084839
  0
VERTEX
  8
PLAN_1
  6
CONTINUOUS
 10
1.189421
 20
-3.081185
  0
VERTEX
  8
PLAN_1
  6
CONTINUOUS
 10
1.187390
 20
-3.078339
  0
VERTEX
  8
PLAN_1
  6
CONTINUOUS
 10
1.185358
 20
-3.075496
  0
VERTEX
  8
PLAN_1
  6
CONTINUOUS
 10
1.182921
 20
-3.073059
  0
VERTEX
  8
PLAN_1
  6
CONTINUOUS
 10
1.180075
 20
-3.071433
  0
VERTEX
  8
PLAN_1
  6
CONTINUOUS
 10
1.177638
 20
-3.069807
  0
VERTEX
  8
PLAN_1
  6
CONTINUOUS
 10
1.174390
 20
-3.068587
  0
VERTEX
  8
PLAN_1
  6
CONTINUOUS
 10
1.171543
 20
-3.067776
  0
VERTEX
  8
PLAN_1
  6
CONTINUOUS
 10
1.168701
 20
-3.066965
  0
VERTEX
  8
PLAN_1
  6
CONTINUOUS
 10
1.162606
 20
-3.066555
  0
VERTEX
  8
PLAN_1
  6
CONTINUOUS
 10
1.157323
 20
-3.066150
  0
VERTEX
  8
PLAN_1
  6
CONTINUOUS
 10
1.090283
 20
-3.066150
  0
VERTEX
  8
PLAN_1
  6
CONTINUOUS
 10
1.090283
 20
-3.134000
  0
SEQEND
  8
0
  0
SOLID
  8
PLAN_1
 10
1.292213
 20
-3.242484
 11
1.263366
 21
-3.242484
 12
1.292213
 22
-3.213228
 13
1.263366
 23
-3.213228
  0
POLYLINE
  8
PLAN_1
  6
CONTINUOUS
 66
     1
 40
0.003000
 41
0.003000
  0
VERTEX
  8
PLAN_1
  6
CONTINUOUS
 10
1.292213
 20
-3.242484
  0
VERTEX
  8
PLAN_1
  6
CONTINUOUS
 10
1.263366
 20
-3.242484
  0
VERTEX
  8
PLAN_1
  6
CONTINUOUS
 10
1.263366
 20
-3.213228
  0
VERTEX
  8
PLAN_1
  6
CONTINUOUS
 10
1.292213
 20
-3.213228
  0
VERTEX
  8
PLAN_1
  6
CONTINUOUS
 10
1.292213
 20
-3.242484
  0
SEQEND
  8
0
  0
POLYLINE
  8
PLAN_1
  6
CONTINUOUS
 66
     1
 40
0.003000
 41
0.003000
  0
VERTEX
  8
PLAN_1
  6
CONTINUOUS
 10
1.487646
 20
-3.242484
  0
VERTEX
  8
PLAN_1
  6
CONTINUOUS
 10
1.340157
 20
-3.242484
  0
VERTEX
  8
PLAN_1
  6
CONTINUOUS
 10
1.340157
 20
-3.043398
  0
VERTEX
  8
PLAN_1
  6
CONTINUOUS
 10
1.485614
 20
-3.043398
  0
VERTEX
  8
PLAN_1
  6
CONTINUOUS
 10
1.485614
 20
-3.066965
  0
VERTEX
  8
PLAN_1
  6
CONTINUOUS
 10
1.367378
 20
-3.066965
  0
VERTEX
  8
PLAN_1
  6
CONTINUOUS
 10
1.367378
 20
-3.128315
  0
VERTEX
  8
PLAN_1
  6
CONTINUOUS
 10
1.476268
 20
-3.128315
  0
VERTEX
  8
PLAN_1
  6
CONTINUOUS
 10
1.476268
 20
-3.151878
  0
VERTEX
  8
PLAN_1
  6
CONTINUOUS
 10
1.367378
 20
-3.151878
  0
VERTEX
  8
PLAN_1
  6
CONTINUOUS
 10
1.367378
 20
-3.218512
  0
VERTEX
  8
PLAN_1
  6
CONTINUOUS
 10
1.487646
 20
-3.218512
  0
VERTEX
  8
PLAN_1
  6
CONTINUOUS
 10
1.487646
 20
-3.242484
  0
SEQEND
  8
0
  0
POLYLINE
  8
PLAN_1
  6
CONTINUOUS
 66
     1
 40
0.003000
 41
0.003000
  0
VERTEX
  8
PLAN_1
  6
CONTINUOUS
 10
1.552650
 20
-3.242484
  0
VERTEX
  8
PLAN_1
  6
CONTINUOUS
 10
1.525429
 20
-3.242484
  0
VERTEX
  8
PLAN_1
  6
CONTINUOUS
 10
1.525429
 20
-3.043398
  0
VERTEX
  8
PLAN_1
  6
CONTINUOUS
 10
1.615220
 20
-3.043398
  0
VERTEX
  8
PLAN_1
  6
CONTINUOUS
 10
1.622130
 20
-3.043398
  0
VERTEX
  8
PLAN_1
  6
CONTINUOUS
 10
1.628224
 20
-3.044209
  0
VERTEX
  8
PLAN_1
  6
CONTINUOUS
 10
1.634319
 20
-3.045429
  0
VERTEX
  8
PLAN_1
  6
CONTINUOUS
 10
1.640004
 20
-3.047461
  0
VERTEX
  8
PLAN_1
  6
CONTINUOUS
 10
1.645287
 20
-3.049898
  0
VERTEX
  8
PLAN_1
  6
CONTINUOUS
 10
1.650161
 20
-3.052335
  0
VERTEX
  8
PLAN_1
  6
CONTINUOUS
 10
1.654634
 20
-3.055587
  0
VERTEX
  8
PLAN_1
  6
CONTINUOUS
 10
1.658697
 20
-3.059244
  0
VERTEX
  8
PLAN_1
  6
CONTINUOUS
 10
1.662350
 20
-3.063307
  0
VERTEX
  8
PLAN_1
  6
CONTINUOUS
 10
1.665197
 20
-3.067370
  0
VERTEX
  8
PLAN_1
  6
CONTINUOUS
 10
1.668039
 20
-3.071839
  0
VERTEX
  8
PLAN_1
  6
CONTINUOUS
 10
1.670476
 20
-3.077122
  0
VERTEX
  8
PLAN_1
  6
CONTINUOUS
 10
1.672102
 20
-3.081996
  0
VERTEX
  8
PLAN_1
  6
CONTINUOUS
 10
1.673323
 20
-3.087685
  0
VERTEX
  8
PLAN_1
  6
CONTINUOUS
 10
1.674134
 20
-3.093374
  0
VERTEX
  8
PLAN_1
  6
CONTINUOUS
 10
1.674134
 20
-3.099469
  0
VERTEX
  8
PLAN_1
  6
CONTINUOUS
 10
1.674134
 20
-3.104343
  0
VERTEX
  8
PLAN_1
  6
CONTINUOUS
 10
1.673728
 20
-3.109626
  0
VERTEX
  8
PLAN_1
  6
CONTINUOUS
 10
1.672508
 20
-3.114906
  0
VERTEX
  8
PLAN_1
  6
CONTINUOUS
 10
1.671291
 20
-3.120189
  0
VERTEX
  8
PLAN_1
  6
CONTINUOUS
 10
1.669260
 20
-3.125469
  0
VERTEX
  8
PLAN_1
  6
CONTINUOUS
 10
1.667228
 20
-3.130346
  0
VERTEX
  8
PLAN_1
  6
CONTINUOUS
 10
1.664382
 20
-3.134815
  0
VERTEX
  8
PLAN_1
  6
CONTINUOUS
 10
1.661134
 20
-3.139283
  0
VERTEX
  8
PLAN_1
  6
CONTINUOUS
 10
1.657071
 20
-3.143346
  0
VERTEX
  8
PLAN_1
  6
CONTINUOUS
 10
1.653008
 20
-3.147004
  0
VERTEX
  8
PLAN_1
  6
CONTINUOUS
 10
1.648130
 20
-3.150252
  0
VERTEX
  8
PLAN_1
  6
CONTINUOUS
 10
1.642850
 20
-3.153098
  0
VERTEX
  8
PLAN_1
  6
CONTINUOUS
 10
1.636756
 20
-3.155130
  0
VERTEX
  8
PLAN_1
  6
CONTINUOUS
 10
1.630256
 20
-3.157161
  0
VERTEX
  8
PLAN_1
  6
CONTINUOUS
 10
1.622941
 20
-3.157972
  0
VERTEX
  8
PLAN_1
  6
CONTINUOUS
 10
1.615220
 20
-3.158378
  0
VERTEX
  8
PLAN_1
  6
CONTINUOUS
 10
1.552650
 20
-3.158378
  0
VERTEX
  8
PLAN_1
  6
CONTINUOUS
 10
1.552650
 20
-3.242484
  0
SEQEND
  8
0
  0
POLYLINE
  8
PLAN_1
  6
CONTINUOUS
 66
     1
 40
0.003000
 41
0.003000
  0
VERTEX
  8
PLAN_1
  6
CONTINUOUS
 10
1.552650
 20
-3.135220
  0
VERTEX
  8
PLAN_1
  6
CONTINUOUS
 10
1.605878
 20
-3.135220
  0
VERTEX
  8
PLAN_1
  6
CONTINUOUS
 10
1.610346
 20
-3.135220
  0
VERTEX
  8
PLAN_1
  6
CONTINUOUS
 10
1.614815
 20
-3.134815
  0
VERTEX
  8
PLAN_1
  6
CONTINUOUS
 10
1.618878
 20
-3.134409
  0
VERTEX
  8
PLAN_1
  6
CONTINUOUS
 10
1.622535
 20
-3.133594
  0
VERTEX
  8
PLAN_1
  6
CONTINUOUS
 10
1.626193
 20
-3.132378
  0
VERTEX
  8
PLAN_1
  6
CONTINUOUS
 10
1.629441
 20
-3.131157
  0
VERTEX
  8
PLAN_1
  6
CONTINUOUS
 10
1.632693
 20
-3.129531
  0
VERTEX
  8
PLAN_1
  6
CONTINUOUS
 10
1.635535
 20
-3.127500
  0
VERTEX
  8
PLAN_1
  6
CONTINUOUS
 10
1.637972
 20
-3.125469
  0
VERTEX
  8
PLAN_1
  6
CONTINUOUS
 10
1.640004
 20
-3.122626
  0
VERTEX
  8
PLAN_1
  6
CONTINUOUS
 10
1.642035
 20
-3.119783
  0
VERTEX
  8
PLAN_1
  6
CONTINUOUS
 10
1.643661
 20
-3.116531
  0
VERTEX
  8
PLAN_1
  6
CONTINUOUS
 10
1.644882
 20
-3.112874
  0
VERTEX
  8
PLAN_1
  6
CONTINUOUS
 10
1.645693
 20
-3.108811
  0
VERTEX
  8
PLAN_1
  6
CONTINUOUS
 10
1.646508
 20
-3.104343
  0
VERTEX
  8
PLAN_1
  6
CONTINUOUS
 10
1.646508
 20
-3.099469
  0
VERTEX
  8
PLAN_1
  6
CONTINUOUS
 10
1.646508
 20
-3.094996
  0
VERTEX
  8
PLAN_1
  6
CONTINUOUS
 10
1.645693
 20
-3.090933
  0
VERTEX
  8
PLAN_1
  6
CONTINUOUS
 10
1.644882
 20
-3.087280
  0
VERTEX
  8
PLAN_1
  6
CONTINUOUS
 10
1.643661
 20
-3.083622
  0
VERTEX
  8
PLAN_1
  6
CONTINUOUS
 10
1.642035
 20
-3.080776
  0
VERTEX
  8
PLAN_1
  6
CONTINUOUS
 10
1.640004
 20
-3.077933
  0
VERTEX
  8
PLAN_1
  6
CONTINUOUS
 10
1.637567
 20
-3.075496
  0
VERTEX
  8
PLAN_1
  6
CONTINUOUS
 10
1.635130
 20
-3.073465
  0
VERTEX
  8
PLAN_1
  6
CONTINUOUS
 10
1.632287
 20
-3.071839
  0
VERTEX
  8
PLAN_1
  6
CONTINUOUS
 10
1.629441
 20
-3.070213
  0
VERTEX
  8
PLAN_1
  6
CONTINUOUS
 10
1.626193
 20
-3.068996
  0
VERTEX
  8
PLAN_1
  6
CONTINUOUS
 10
1.622535
 20
-3.067776
  0
VERTEX
  8
PLAN_1
  6
CONTINUOUS
 10
1.618878
 20
-3.066965
  0
VERTEX
  8
PLAN_1
  6
CONTINUOUS
 10
1.615220
 20
-3.066555
  0
VERTEX
  8
PLAN_1
  6
CONTINUOUS
 10
1.611157
 20
-3.066150
  0
VERTEX
  8
PLAN_1
  6
CONTINUOUS
 10
1.607094
 20
-3.066150
  0
VERTEX
  8
PLAN_1
  6
CONTINUOUS
 10
1.552650
 20
-3.066150
  0
VERTEX
  8
PLAN_1
  6
CONTINUOUS
 10
1.552650
 20
-3.135220
  0
SEQEND
  8
0
  0
POLYLINE
  8
PLAN_1
  6
CONTINUOUS
 66
     1
 40
0.003000
 41
0.003000
  0
VERTEX
  8
PLAN_1
  6
CONTINUOUS
 10
1.828122
 20
-3.101500
  0
VERTEX
  8
PLAN_1
  6
CONTINUOUS
 10
1.827717
 20
-3.095811
  0
VERTEX
  8
PLAN_1
  6
CONTINUOUS
 10
1.826496
 20
-3.090933
  0
VERTEX
  8
PLAN_1
  6
CONTINUOUS
 10
1.824870
 20
-3.086465
  0
VERTEX
  8
PLAN_1
  6
CONTINUOUS
 10
1.823244
 20
-3.081996
  0
VERTEX
  8
PLAN_1
  6
CONTINUOUS
 10
1.820807
 20
-3.078339
  0
VERTEX
  8
PLAN_1
  6
CONTINUOUS
 10
1.817965
 20
-3.075091
  0
VERTEX
  8
PLAN_1
  6
CONTINUOUS
 10
1.814713
 20
-3.072244
  0
VERTEX
  8
PLAN_1
  6
CONTINUOUS
 10
1.811465
 20
-3.069807
  0
VERTEX
  8
PLAN_1
  6
CONTINUOUS
 10
1.807807
 20
-3.067370
  0
VERTEX
  8
PLAN_1
  6
CONTINUOUS
 10
1.803744
 20
-3.065744
  0
VERTEX
  8
PLAN_1
  6
CONTINUOUS
 10
1.800087
 20
-3.064118
  0
VERTEX
  8
PLAN_1
  6
CONTINUOUS
 10
1.795618
 20
-3.062902
  0
VERTEX
  8
PLAN_1
  6
CONTINUOUS
 10
1.791555
 20
-3.062087
  0
VERTEX
  8
PLAN_1
  6
CONTINUOUS
 10
1.787492
 20
-3.061276
  0
VERTEX
  8
PLAN_1
  6
CONTINUOUS
 10
1.783024
 20
-3.061276
  0
VERTEX
  8
PLAN_1
  6
CONTINUOUS
 10
1.778961
 20
-3.060870
  0
VERTEX
  8
PLAN_1
  6
CONTINUOUS
 10
1.772051
 20
-3.061276
  0
VERTEX
  8
PLAN_1
  6
CONTINUOUS
 10
1.764331
 20
-3.062087
  0
VERTEX
  8
PLAN_1
  6
CONTINUOUS
 10
1.760677
 20
-3.062902
  0
VERTEX
  8
PLAN_1
  6
CONTINUOUS
 10
1.757020
 20
-3.064118
  0
VERTEX
  8
PLAN_1
  6
CONTINUOUS
 10
1.753362
 20
-3.065339
  0
VERTEX
  8
PLAN_1
  6
CONTINUOUS
 10
1.749705
 20
-3.066965
  0
VERTEX
  8
PLAN_1
  6
CONTINUOUS
 10
1.746457
 20
-3.068996
  0
VERTEX
  8
PLAN_1
  6
CONTINUOUS
 10
1.743205
 20
-3.071433
  0
VERTEX
  8
PLAN_1
  6
CONTINUOUS
 10
1.740362
 20
-3.074276
  0
VERTEX
  8
PLAN_1
  6
CONTINUOUS
 10
1.737925
 20
-3.077528
  0
VERTEX
  8
PLAN_1
  6
CONTINUOUS
 10
1.735894
 20
-3.081591
  0
VERTEX
  8
PLAN_1
  6
CONTINUOUS
 10
1.734673
 20
-3.085654
  0
VERTEX
  8
PLAN_1
  6
CONTINUOUS
 10
1.733453
 20
-3.090528
  0
VERTEX
  8
PLAN_1
  6
CONTINUOUS
 10
1.733453
 20
-3.095811
  0
VERTEX
  8
PLAN_1
  6
CONTINUOUS
 10
1.733453
 20
-3.099059
  0
VERTEX
  8
PLAN_1
  6
CONTINUOUS
 10
1.733862
 20
-3.101906
  0
VERTEX
  8
PLAN_1
  6
CONTINUOUS
 10
1.734268
 20
-3.104343
  0
VERTEX
  8
PLAN_1
  6
CONTINUOUS
 10
1.735484
 20
-3.106780
  0
VERTEX
  8
PLAN_1
  6
CONTINUOUS
 10
1.736299
 20
-3.108811
  0
VERTEX
  8
PLAN_1
  6
CONTINUOUS
 10
1.737516
 20
-3.110843
  0
VERTEX
  8
PLAN_1
  6
CONTINUOUS
 10
1.739142
 20
-3.112469
  0
VERTEX
  8
PLAN_1
  6
CONTINUOUS
 10
1.740768
 20
-3.113689
  0
VERTEX
  8
PLAN_1
  6
CONTINUOUS
 10
1.744425
 20
-3.116531
  0
VERTEX
  8
PLAN_1
  6
CONTINUOUS
 10
1.748079
 20
-3.118563
  0
VERTEX
  8
PLAN_1
  6
CONTINUOUS
 10
1.752551
 20
-3.120189
  0
VERTEX
  8
PLAN_1
  6
CONTINUOUS
 10
1.757020
 20
-3.121000
  0
VERTEX
  8
PLAN_1
  6
CONTINUOUS
 10
1.813902
 20
-3.134409
  0
VERTEX
  8
PLAN_1
  6
CONTINUOUS
 10
1.818370
 20
-3.135626
  0
VERTEX
  8
PLAN_1
  6
CONTINUOUS
 10
1.823244
 20
-3.136846
  0
VERTEX
  8
PLAN_1
  6
CONTINUOUS
 10
1.827717
 20
-3.138878
  0
VERTEX
  8
PLAN_1
  6
CONTINUOUS
 10
1.831780
 20
-3.140504
  0
VERTEX
  8
PLAN_1
  6
CONTINUOUS
 10
1.835843
 20
-3.142941
  0
VERTEX
  8
PLAN_1
  6
CONTINUOUS
 10
1.839496
 20
-3.145378
  0
VERTEX
  8
PLAN_1
  6
CONTINUOUS
 10
1.842748
 20
-3.148220
  0
VERTEX
  8
PLAN_1
  6
CONTINUOUS
 10
1.846000
 20
-3.151472
  0
VERTEX
  8
PLAN_1
  6
CONTINUOUS
 10
1.848843
 20
-3.154724
  0
VERTEX
  8
PLAN_1
  6
CONTINUOUS
 10
1.851685
 20
-3.158378
  0
VERTEX
  8
PLAN_1
  6
CONTINUOUS
 10
1.853717
 20
-3.162441
  0
VERTEX
  8
PLAN_1
  6
CONTINUOUS
 10
1.855748
 20
-3.166913
  0
VERTEX
  8
PLAN_1
  6
CONTINUOUS
 10
1.856969
 20
-3.171382
  0
VERTEX
  8
PLAN_1
  6
CONTINUOUS
 10
1.858189
 20
-3.176256
  0
VERTEX
  8
PLAN_1
  6
CONTINUOUS
 10
1.858594
 20
-3.181945
  0
VERTEX
  8
PLAN_1
  6
CONTINUOUS
 10
1.859000
 20
-3.187634
  0
VERTEX
  8
PLAN_1
  6
CONTINUOUS
 10
1.859000
 20
-3.191697
  0
VERTEX
  8
PLAN_1
  6
CONTINUOUS
 10
1.858594
 20
-3.196165
  0
VERTEX
  8
PLAN_1
  6
CONTINUOUS
 10
1.857780
 20
-3.199823
  0
VERTEX
  8
PLAN_1
  6
CONTINUOUS
 10
1.856969
 20
-3.203480
  0
VERTEX
  8
PLAN_1
  6
CONTINUOUS
 10
1.856157
 20
-3.207134
  0
VERTEX
  8
PLAN_1
  6
CONTINUOUS
 10
1.854531
 20
-3.210791
  0
VERTEX
  8
PLAN_1
  6
CONTINUOUS
 10
1.853311
 20
-3.213638
  0
VERTEX
  8
PLAN_1
  6
CONTINUOUS
 10
1.851685
 20
-3.216886
  0
VERTEX
  8
PLAN_1
  6
CONTINUOUS
 10
1.849654
 20
-3.219732
  0
VERTEX
  8
PLAN_1
  6
CONTINUOUS
 10
1.847622
 20
-3.222575
  0
VERTEX
  8
PLAN_1
  6
CONTINUOUS
 10
1.845591
 20
-3.225012
  0
VERTEX
  8
PLAN_1
  6
CONTINUOUS
 10
1.843154
 20
-3.227449
  0
VERTEX
  8
PLAN_1
  6
CONTINUOUS
 10
1.838280
 20
-3.231512
  0
VERTEX
  8
PLAN_1
  6
CONTINUOUS
 10
1.832996
 20
-3.235169
  0
VERTEX
  8
PLAN_1
  6
CONTINUOUS
 10
1.826902
 20
-3.238421
  0
VERTEX
  8
PLAN_1
  6
CONTINUOUS
 10
1.820807
 20
-3.241264
  0
VERTEX
  8
PLAN_1
  6
CONTINUOUS
 10
1.814307
 20
-3.243295
  0
VERTEX
  8
PLAN_1
  6
CONTINUOUS
 10
1.807402
 20
-3.244921
  0
VERTEX
  8
PLAN_1
  6
CONTINUOUS
 10
1.800898
 20
-3.246142
  0
VERTEX
  8
PLAN_1
  6
CONTINUOUS
 10
1.793992
 20
-3.246953
  0
VERTEX
  8
PLAN_1
  6
CONTINUOUS
 10
1.787492
 20
-3.247764
  0
VERTEX
  8
PLAN_1
  6
CONTINUOUS
 10
1.780992
 20
-3.247764
  0
VERTEX
  8
PLAN_1
  6
CONTINUOUS
 10
1.774488
 20
-3.247764
  0
VERTEX
  8
PLAN_1
  6
CONTINUOUS
 10
1.767988
 20
-3.247358
  0
VERTEX
  8
PLAN_1
  6
CONTINUOUS
 10
1.762299
 20
-3.246547
  0
VERTEX
  8
PLAN_1
  6
CONTINUOUS
 10
1.757425
 20
-3.245732
  0
VERTEX
  8
PLAN_1
  6
CONTINUOUS
 10
1.752551
 20
-3.244921
  0
VERTEX
  8
PLAN_1
  6
CONTINUOUS
 10
1.748079
 20
-3.243701
  0
VERTEX
  8
PLAN_1
  6
CONTINUOUS
 10
1.744016
 20
-3.242484
  0
VERTEX
  8
PLAN_1
  6
CONTINUOUS
 10
1.740362
 20
-3.241264
  0
VERTEX
  8
PLAN_1
  6
CONTINUOUS
 10
1.733862
 20
-3.238016
  0
VERTEX
  8
PLAN_1
  6
CONTINUOUS
 10
1.728579
 20
-3.235169
  0
VERTEX
  8
PLAN_1
  6
CONTINUOUS
 10
1.724516
 20
-3.231921
  0
VERTEX
  8
PLAN_1
  6
CONTINUOUS
 10
1.720858
 20
-3.228669
  0
VERTEX
  8
PLAN_1
  6
CONTINUOUS
 10
1.717610
 20
-3.225827
  0
VERTEX
  8
PLAN_1
  6
CONTINUOUS
 10
1.715169
 20
-3.222980
  0
VERTEX
  8
PLAN_1
  6
CONTINUOUS
 10
1.712732
 20
-3.219732
  0
VERTEX
  8
PLAN_1
  6
CONTINUOUS
 10
1.710295
 20
-3.216886
  0
VERTEX
  8
PLAN_1
  6
CONTINUOUS
 10
1.708669
 20
-3.214043
  0
VERTEX
  8
PLAN_1
  6
CONTINUOUS
 10
1.707043
 20
-3.210791
  0
VERTEX
  8
PLAN_1
  6
CONTINUOUS
 10
1.705421
 20
-3.207543
  0
VERTEX
  8
PLAN_1
  6
CONTINUOUS
 10
1.704201
 20
-3.204697
  0
VERTEX
  8
PLAN_1
  6
CONTINUOUS
 10
1.702575
 20
-3.198197
  0
VERTEX
  8
PLAN_1
  6
CONTINUOUS
 10
1.701358
 20
-3.191697
  0
VERTEX
  8
PLAN_1
  6
CONTINUOUS
 10
1.700543
 20
-3.184787
  0
VERTEX
  8
PLAN_1
  6
CONTINUOUS
 10
1.700543
 20
-3.178287
  0
VERTEX
  8
PLAN_1
  6
CONTINUOUS
 10
1.725736
 20
-3.178287
  0
VERTEX
  8
PLAN_1
  6
CONTINUOUS
 10
1.726142
 20
-3.184382
  0
VERTEX
  8
PLAN_1
  6
CONTINUOUS
 10
1.726953
 20
-3.190476
  0
VERTEX
  8
PLAN_1
  6
CONTINUOUS
 10
1.728579
 20
-3.195760
  0
VERTEX
  8
PLAN_1
  6
CONTINUOUS
 10
1.730610
 20
-3.200634
  0
VERTEX
  8
PLAN_1
  6
CONTINUOUS
 10
1.733453
 20
-3.205102
  0
VERTEX
  8
PLAN_1
  6
CONTINUOUS
 10
1.736299
 20
-3.208760
  0
VERTEX
  8
PLAN_1
  6
CONTINUOUS
 10
1.739957
 20
-3.212012
  0
VERTEX
  8
PLAN_1
  6
CONTINUOUS
 10
1.743610
 20
-3.214854
  0
VERTEX
  8
PLAN_1
  6
CONTINUOUS
 10
1.747673
 20
-3.217291
  0
VERTEX
  8
PLAN_1
  6
CONTINUOUS
 10
1.752142
 20
-3.219323
  0
VERTEX
  8
PLAN_1
  6
CONTINUOUS
 10
1.756614
 20
-3.221354
  0
VERTEX
  8
PLAN_1
  6
CONTINUOUS
 10
1.761488
 20
-3.222575
  0
VERTEX
  8
PLAN_1
  6
CONTINUOUS
 10
1.766362
 20
-3.223386
  0
VERTEX
  8
PLAN_1
  6
CONTINUOUS
 10
1.770835
 20
-3.224201
  0
VERTEX
  8
PLAN_1
  6
CONTINUOUS
 10
1.775709
 20
-3.224606
  0
VERTEX
  8
PLAN_1
  6
CONTINUOUS
 10
1.780583
 20
-3.224606
  0
VERTEX
  8
PLAN_1
  6
CONTINUOUS
 10
1.788709
 20
-3.224606
  0
VERTEX
  8
PLAN_1
  6
CONTINUOUS
 10
1.797244
 20
-3.223386
  0
VERTEX
  8
PLAN_1
  6
CONTINUOUS
 10
1.801307
 20
-3.222575
  0
VERTEX
  8
PLAN_1
  6
CONTINUOUS
 10
1.805776
 20
-3.221764
  0
VERTEX
  8
PLAN_1
  6
CONTINUOUS
 10
1.809839
 20
-3.220138
  0
VERTEX
  8
PLAN_1
  6
CONTINUOUS
 10
1.813902
 20
-3.218512
  0
VERTEX
  8
PLAN_1
  6
CONTINUOUS
 10
1.817965
 20
-3.216480
  0
VERTEX
  8
PLAN_1
  6
CONTINUOUS
 10
1.821622
 20
-3.214449
  0
VERTEX
  8
PLAN_1
  6
CONTINUOUS
 10
1.824870
 20
-3.211606
  0
VERTEX
  8
PLAN_1
  6
CONTINUOUS
 10
1.827307
 20
-3.208354
  0
VERTEX
  8
PLAN_1
  6
CONTINUOUS
 10
1.829748
 20
-3.204697
  0
VERTEX
  8
PLAN_1
  6
CONTINUOUS
 10
1.831370
 20
-3.200634
  0
VERTEX
  8
PLAN_1
  6
CONTINUOUS
 10
1.832591
 20
-3.196165
  0
VERTEX
  8
PLAN_1
  6
CONTINUOUS
 10
1.832996
 20
-3.191291
  0
VERTEX
  8
PLAN_1
  6
CONTINUOUS
 10
1.832591
 20
-3.187228
  0
VERTEX
  8
PLAN_1
  6
CONTINUOUS
 10
1.832591
 20
-3.183976
  0
VERTEX
  8
PLAN_1
  6
CONTINUOUS
 10
1.831780
 20
-3.180724
  0
VERTEX
  8
PLAN_1
  6
CONTINUOUS
 10
1.830965
 20
-3.177882
  0
VERTEX
  8
PLAN_1
  6
CONTINUOUS
 10
1.829748
 20
-3.175445
  0
VERTEX
  8
PLAN_1
  6
CONTINUOUS
 10
1.828122
 20
-3.173008
  0
VERTEX
  8
PLAN_1
  6
CONTINUOUS
 10
1.826091
 20
-3.170567
  0
VERTEX
  8
PLAN_1
  6
CONTINUOUS
 10
1.824059
 20
-3.168535
  0
VERTEX
  8
PLAN_1
  6
CONTINUOUS
 10
1.821213
 20
-3.166913
  0
VERTEX
  8
PLAN_1
  6
CONTINUOUS
 10
1.818370
 20
-3.164882
  0
VERTEX
  8
PLAN_1
  6
CONTINUOUS
 10
1.814713
 20
-3.163256
  0
VERTEX
  8
PLAN_1
  6
CONTINUOUS
 10
1.811055
 20
-3.161630
  0
VERTEX
  8
PLAN_1
  6
CONTINUOUS
 10
1.801713
 20
-3.158787
  0
VERTEX
  8
PLAN_1
  6
CONTINUOUS
 10
1.790335
 20
-3.155941
  0
VERTEX
  8
PLAN_1
  6
CONTINUOUS
 10
1.749705
 20
-3.146598
  0
VERTEX
  8
PLAN_1
  6
CONTINUOUS
 10
1.744016
 20
-3.144972
  0
VERTEX
  8
PLAN_1
  6
CONTINUOUS
 10
1.737516
 20
-3.142535
  0
VERTEX
  8
PLAN_1
  6
CONTINUOUS
 10
1.733862
 20
-3.141315
  0
VERTEX
  8
PLAN_1
  6
CONTINUOUS
 10
1.730610
 20
-3.139283
  0
VERTEX
  8
PLAN_1
  6
CONTINUOUS
 10
1.726953
 20
-3.137252
  0
VERTEX
  8
PLAN_1
  6
CONTINUOUS
 10
1.723705
 20
-3.134815
  0
VERTEX
  8
PLAN_1
  6
CONTINUOUS
 10
1.720047
 20
-3.131972
  0
VERTEX
  8
PLAN_1
  6
CONTINUOUS
 10
1.717201
 20
-3.128720
  0
VERTEX
  8
PLAN_1
  6
CONTINUOUS
 10
1.714358
 20
-3.125063
  0
VERTEX
  8
PLAN_1
  6
CONTINUOUS
 10
1.711921
 20
-3.121000
  0
VERTEX
  8
PLAN_1
  6
CONTINUOUS
 10
1.709890
 20
-3.116531
  0
VERTEX
  8
PLAN_1
  6
CONTINUOUS
 10
1.708669
 20
-3.111248
  0
VERTEX
  8
PLAN_1
  6
CONTINUOUS
 10
1.707453
 20
-3.105563
  0
VERTEX
  8
PLAN_1
  6
CONTINUOUS
 10
1.707043
 20
-3.099469
  0
VERTEX
  8
PLAN_1
  6
CONTINUOUS
 10
1.707453
 20
-3.093780
  0
VERTEX
  8
PLAN_1
  6
CONTINUOUS
 10
1.708264
 20
-3.088091
  0
VERTEX
  8
PLAN_1
  6
CONTINUOUS
 10
1.709484
 20
-3.082402
  0
VERTEX
  8
PLAN_1
  6
CONTINUOUS
 10
1.711106
 20
-3.076713
  0
VERTEX
  8
PLAN_1
  6
CONTINUOUS
 10
1.713547
 20
-3.071433
  0
VERTEX
  8
PLAN_1
  6
CONTINUOUS
 10
1.715984
 20
-3.066555
  0
VERTEX
  8
PLAN_1
  6
CONTINUOUS
 10
1.719642
 20
-3.061681
  0
VERTEX
  8
PLAN_1
  6
CONTINUOUS
 10
1.723295
 20
-3.057213
  0
VERTEX
  8
PLAN_1
  6
CONTINUOUS
 10
1.727768
 20
-3.053150
  0
VERTEX
  8
PLAN_1
  6
CONTINUOUS
 10
1.732642
 20
-3.049087
  0
VERTEX
  8
PLAN_1
  6
CONTINUOUS
 10
1.738331
 20
-3.045835
  0
VERTEX
  8
PLAN_1
  6
CONTINUOUS
 10
1.744831
 20
-3.042992
  0
VERTEX
  8
PLAN_1
  6
CONTINUOUS
 10
1.751331
 20
-3.040961
  0
VERTEX
  8
PLAN_1
  6
CONTINUOUS
 10
1.759051
 20
-3.039335
  0
VERTEX
  8
PLAN_1
  6
CONTINUOUS
 10
1.767177
 20
-3.038114
  0
VERTEX
  8
PLAN_1
  6
CONTINUOUS
 10
1.775709
 20
-3.038114
  0
VERTEX
  8
PLAN_1
  6
CONTINUOUS
 10
1.782209
 20
-3.038114
  0
VERTEX
  8
PLAN_1
  6
CONTINUOUS
 10
1.787898
 20
-3.038524
  0
VERTEX
  8
PLAN_1
  6
CONTINUOUS
 10
1.793587
 20
-3.038929
  0
VERTEX
  8
PLAN_1
  6
CONTINUOUS
 10
1.798866
 20
-3.039740
  0
VERTEX
  8
PLAN_1
  6
CONTINUOUS
 10
1.804150
 20
-3.040555
  0
VERTEX
  8
PLAN_1
  6
CONTINUOUS
 10
1.808618
 20
-3.041772
  0
VERTEX
  8
PLAN_1
  6
CONTINUOUS
 10
1.813087
 20
-3.043398
  0
VERTEX
  8
PLAN_1
  6
CONTINUOUS
 10
1.817150
 20
-3.044618
  0
VERTEX
  8
PLAN_1
  6
CONTINUOUS
 10
1.820807
 20
-3.046650
  0
VERTEX
  8
PLAN_1
  6
CONTINUOUS
 10
1.824465
 20
-3.048272
  0
VERTEX
  8
PLAN_1
  6
CONTINUOUS
 10
1.827717
 20
-3.050303
  0
VERTEX
  8
PLAN_1
  6
CONTINUOUS
 10
1.830559
 20
-3.052335
  0
VERTEX
  8
PLAN_1
  6
CONTINUOUS
 10
1.833402
 20
-3.054366
  0
VERTEX
  8
PLAN_1
  6
CONTINUOUS
 10
1.835843
 20
-3.056807
  0
VERTEX
  8
PLAN_1
  6
CONTINUOUS
 10
1.838280
 20
-3.059244
  0
VERTEX
  8
PLAN_1
  6
CONTINUOUS
 10
1.840311
 20
-3.061681
  0
VERTEX
  8
PLAN_1
  6
CONTINUOUS
 10
1.843969
 20
-3.066555
  0
VERTEX
  8
PLAN_1
  6
CONTINUOUS
 10
1.846811
 20
-3.071839
  0
VERTEX
  8
PLAN_1
  6
CONTINUOUS
 10
1.848843
 20
-3.077122
  0
VERTEX
  8
PLAN_1
  6
CONTINUOUS
 10
1.850469
 20
-3.082402
  0
VERTEX
  8
PLAN_1
  6
CONTINUOUS
 10
1.851685
 20
-3.087685
  0
VERTEX
  8
PLAN_1
  6
CONTINUOUS
 10
1.852500
 20
-3.092559
  0
VERTEX
  8
PLAN_1
  6
CONTINUOUS
 10
1.853311
 20
-3.097028
  0
VERTEX
  8
PLAN_1
  6
CONTINUOUS
 10
1.853311
 20
-3.101500
  0
VERTEX
  8
PLAN_1
  6
CONTINUOUS
 10
1.828122
 20
-3.101500
  0
SEQEND
  8
0
  0
POLYLINE
  8
PLAN_1
  6
CONTINUOUS
 66
     1
 40
0.008122
 41
0.008122
  0
VERTEX
  8
PLAN_1
  6
CONTINUOUS
 10
-0.743744
 20
2.010134
  0
VERTEX
  8
PLAN_1
  6
CONTINUOUS
 10
-0.743744
 20
2.336394
  0
VERTEX
  8
PLAN_1
  6
CONTINUOUS
 10
-1.845622
 20
2.336394
  0
VERTEX
  8
PLAN_1
  6
CONTINUOUS
 10
-1.845622
 20
2.010134
  0
VERTEX
  8
PLAN_1
  6
CONTINUOUS
 10
-0.743744
 20
2.010134
  0
SEQEND
  8
0
  0
POLYLINE
  8
PLAN_1
  6
CONTINUOUS
 66
     1
 40
0.008122
 41
0.008122
  0
VERTEX
  8
PLAN_1
  6
CONTINUOUS
 10
-0.886760
 20
2.538323
  0
VERTEX
  8
PLAN_1
  6
CONTINUOUS
 10
-0.886760
 20
2.580169
  0
VERTEX
  8
PLAN_1
  6
CONTINUOUS
 10
-1.702606
 20
2.580169
  0
VERTEX
  8
PLAN_1
  6
CONTINUOUS
 10
-1.702606
 20
2.541165
  0
SEQEND
  8
0
  0
POLYLINE
  8
PLAN_1
  6
CONTINUOUS
 66
     1
 40
0.008122
 41
0.008122
  0
VERTEX
  8
PLAN_1
  6
CONTINUOUS
 10
-1.648161
 20
2.800791
  0
VERTEX
  8
PLAN_1
  6
CONTINUOUS
 10
-1.647350
 20
2.803228
  0
VERTEX
  8
PLAN_1
  6
CONTINUOUS
 10
-1.646130
 20
2.805665
  0
VERTEX
  8
PLAN_1
  6
CONTINUOUS
 10
-1.644913
 20
2.808102
  0
VERTEX
  8
PLAN_1
  6
CONTINUOUS
 10
-1.643287
 20
2.810543
  0
VERTEX
  8
PLAN_1
  6
CONTINUOUS
 10
-1.641661
 20
2.812575
  0
VERTEX
  8
PLAN_1
  6
CONTINUOUS
 10
-1.640035
 20
2.814606
  0
VERTEX
  8
PLAN_1
  6
CONTINUOUS
 10
-1.638004
 20
2.816638
  0
VERTEX
  8
PLAN_1
  6
CONTINUOUS
 10
-1.635972
 20
2.818260
  0
VERTEX
  8
PLAN_1
  6
CONTINUOUS
 10
-1.633535
 20
2.819480
  0
VERTEX
  8
PLAN_1
  6
CONTINUOUS
 10
-1.631098
 20
2.821106
  0
VERTEX
  8
PLAN_1
  6
CONTINUOUS
 10
-1.628661
 20
2.822323
  0
VERTEX
  8
PLAN_1
  6
CONTINUOUS
 10
-1.626224
 20
2.823138
  0
VERTEX
  8
PLAN_1
  6
CONTINUOUS
 10
-1.623378
 20
2.823949
  0
VERTEX
  8
PLAN_1
  6
CONTINUOUS
 10
-1.620941
 20
2.824354
  0
VERTEX
  8
PLAN_1
  6
CONTINUOUS
 10
-1.618098
 20
2.824764
  0
VERTEX
  8
PLAN_1
  6
CONTINUOUS
 10
-1.614846
 20
2.825169
  0
SEQEND
  8
0
  0
POLYLINE
  8
PLAN_1
  6
CONTINUOUS
 66
     1
 40
0.008122
 41
0.008122
  0
VERTEX
  8
PLAN_1
  6
CONTINUOUS
 10
-1.614846
 20
2.825169
  0
VERTEX
  8
PLAN_1
  6
CONTINUOUS
 10
-0.973709
 20
2.825169
  0
SEQEND
  8
0
  0
POLYLINE
  8
PLAN_1
  6
CONTINUOUS
 66
     1
 40
0.008122
 41
0.008122
  0
VERTEX
  8
PLAN_1
  6
CONTINUOUS
 10
-0.973709
 20
2.825169
  0
VERTEX
  8
PLAN_1
  6
CONTINUOUS
 10
-0.970051
 20
2.824764
  0
VERTEX
  8
PLAN_1
  6
CONTINUOUS
 10
-0.966394
 20
2.824354
  0
VERTEX
  8
PLAN_1
  6
CONTINUOUS
 10
-0.963146
 20
2.823543
  0
VERTEX
  8
PLAN_1
  6
CONTINUOUS
 10
-0.959894
 20
2.822323
  0
VERTEX
  8
PLAN_1
  6
CONTINUOUS
 10
-0.957051
 20
2.820701
  0
VERTEX
  8
PLAN_1
  6
CONTINUOUS
 10
-0.954205
 20
2.819075
  0
VERTEX
  8
PLAN_1
  6
CONTINUOUS
 10
-0.951362
 20
2.817043
  0
VERTEX
  8
PLAN_1
  6
CONTINUOUS
 10
-0.948925
 20
2.814606
  0
VERTEX
  8
PLAN_1
  6
CONTINUOUS
 10
-0.946488
 20
2.812165
  0
VERTEX
  8
PLAN_1
  6
CONTINUOUS
 10
-0.944457
 20
2.809728
  0
VERTEX
  8
PLAN_1
  6
CONTINUOUS
 10
-0.942831
 20
2.806480
  0
VERTEX
  8
PLAN_1
  6
CONTINUOUS
 10
-0.941205
 20
2.803634
  0
VERTEX
  8
PLAN_1
  6
CONTINUOUS
 10
-0.939984
 20
2.800386
  0
VERTEX
  8
PLAN_1
  6
CONTINUOUS
 10
-0.939173
 20
2.797134
  0
VERTEX
  8
PLAN_1
  6
CONTINUOUS
 10
-0.938768
 20
2.793476
  0
VERTEX
  8
PLAN_1
  6
CONTINUOUS
 10
-0.938768
 20
2.789819
  0
SEQEND
  8
0
  0
POLYLINE
  8
PLAN_1
  6
CONTINUOUS
 66
     1
 40
0.008122
 41
0.008122
  0
VERTEX
  8
PLAN_1
  6
CONTINUOUS
 10
-0.938768
 20
2.789819
  0
VERTEX
  8
PLAN_1
  6
CONTINUOUS
 10
-0.886760
 20
2.580169
  0
VERTEX
  8
PLAN_1
  6
CONTINUOUS
 10
-1.702606
 20
2.580169
  0
VERTEX
  8
PLAN_1
  6
CONTINUOUS
 10
-1.648161
 20
2.800791
  0
SEQEND
  8
0
  0
POLYLINE
  8
PLAN_1
  6
CONTINUOUS
 66
     1
 40
0.008122
 41
0.008122
  0
VERTEX
  8
PLAN_1
  6
CONTINUOUS
 10
-1.090720
 20
2.928366
  0
VERTEX
  8
PLAN_1
  6
CONTINUOUS
 10
-1.100067
 20
2.936492
  0
VERTEX
  8
PLAN_1
  6
CONTINUOUS
 10
-1.109819
 20
2.943807
  0
VERTEX
  8
PLAN_1
  6
CONTINUOUS
 10
-1.120382
 20
2.951122
  0
VERTEX
  8
PLAN_1
  6
CONTINUOUS
 10
-1.131350
 20
2.957622
  0
VERTEX
  8
PLAN_1
  6
CONTINUOUS
 10
-1.143134
 20
2.963717
  0
VERTEX
  8
PLAN_1
  6
CONTINUOUS
 10
-1.154917
 20
2.969811
  0
VERTEX
  8
PLAN_1
  6
CONTINUOUS
 10
-1.167106
 20
2.975091
  0
VERTEX
  8
PLAN_1
  6
CONTINUOUS
 10
-1.180106
 20
2.979563
  0
VERTEX
  8
PLAN_1
  6
CONTINUOUS
 10
-1.193110
 20
2.984031
  0
VERTEX
  8
PLAN_1
  6
CONTINUOUS
 10
-1.206925
 20
2.987689
  0
VERTEX
  8
PLAN_1
  6
CONTINUOUS
 10
-1.220736
 20
2.991343
  0
VERTEX
  8
PLAN_1
  6
CONTINUOUS
 10
-1.234957
 20
2.993783
  0
VERTEX
  8
PLAN_1
  6
CONTINUOUS
 10
-1.249587
 20
2.995815
  0
VERTEX
  8
PLAN_1
  6
CONTINUOUS
 10
-1.264213
 20
2.997437
  0
VERTEX
  8
PLAN_1
  6
CONTINUOUS
 10
-1.279650
 20
2.998657
  0
VERTEX
  8
PLAN_1
  6
CONTINUOUS
 10
-1.294685
 20
2.998657
  0
VERTEX
  8
PLAN_1
  6
CONTINUOUS
 10
-1.310122
 20
2.998657
  0
VERTEX
  8
PLAN_1
  6
CONTINUOUS
 10
-1.325157
 20
2.997437
  0
VERTEX
  8
PLAN_1
  6
CONTINUOUS
 10
-1.339783
 20
2.995815
  0
VERTEX
  8
PLAN_1
  6
CONTINUOUS
 10
-1.354409
 20
2.993783
  0
VERTEX
  8
PLAN_1
  6
CONTINUOUS
 10
-1.368630
 20
2.990937
  0
VERTEX
  8
PLAN_1
  6
CONTINUOUS
 10
-1.382850
 20
2.987689
  0
VERTEX
  8
PLAN_1
  6
CONTINUOUS
 10
-1.396260
 20
2.984031
  0
VERTEX
  8
PLAN_1
  6
CONTINUOUS
 10
-1.409665
 20
2.979563
  0
VERTEX
  8
PLAN_1
  6
CONTINUOUS
 10
-1.422260
 20
2.975091
  0
VERTEX
  8
PLAN_1
  6
CONTINUOUS
 10
-1.434858
 20
2.969406
  0
VERTEX
  8
PLAN_1
  6
CONTINUOUS
 10
-1.446638
 20
2.963717
  0
VERTEX
  8
PLAN_1
  6
CONTINUOUS
 10
-1.458016
 20
2.957622
  0
VERTEX
  8
PLAN_1
  6
CONTINUOUS
 10
-1.468984
 20
2.950713
  0
VERTEX
  8
PLAN_1
  6
CONTINUOUS
 10
-1.479551
 20
2.943807
  0
VERTEX
  8
PLAN_1
  6
CONTINUOUS
 10
-1.489709
 20
2.936087
  0
VERTEX
  8
PLAN_1
  6
CONTINUOUS
 10
-1.499051
 20
2.928366
  0
SEQEND
  8
0
  0
POLYLINE
  8
PLAN_1
  6
CONTINUOUS
 66
     1
 40
0.008122
 41
0.008122
  0
VERTEX
  8
PLAN_1
  6
CONTINUOUS
 10
-1.499051
 20
2.928366
  0
VERTEX
  8
PLAN_1
  6
CONTINUOUS
 10
-1.498646
 20
2.825169
  0
VERTEX
  8
PLAN_1
  6
CONTINUOUS
 10
-1.090720
 20
2.825169
  0
VERTEX
  8
PLAN_1
  6
CONTINUOUS
 10
-1.090720
 20
2.928366
  0
SEQEND
  8
0
  0
POLYLINE
  8
PLAN_1
  6
CONTINUOUS
 66
     1
 40
0.008122
 41
0.008122
  0
VERTEX
  8
PLAN_1
  6
CONTINUOUS
 10
-1.711138
 20
2.538728
  0
VERTEX
  8
PLAN_1
  6
CONTINUOUS
 10
-1.620535
 20
2.538728
  0
VERTEX
  8
PLAN_1
  6
CONTINUOUS
 10
-1.620535
 20
2.477378
  0
VERTEX
  8
PLAN_1
  6
CONTINUOUS
 10
-1.845217
 20
2.477378
  0
VERTEX
  8
PLAN_1
  6
CONTINUOUS
 10
-1.845217
 20
2.538728
  0
VERTEX
  8
PLAN_1
  6
CONTINUOUS
 10
-1.754614
 20
2.538728
  0
VERTEX
  8
PLAN_1
  6
CONTINUOUS
 10
-1.754205
 20
2.538323
  0
VERTEX
  8
PLAN_1
  6
CONTINUOUS
 10
-1.754205
 20
2.507035
  0
VERTEX
  8
PLAN_1
  6
CONTINUOUS
 10
-1.711547
 20
2.507035
  0
VERTEX
  8
PLAN_1
  6
CONTINUOUS
 10
-1.711547
 20
2.538323
  0
VERTEX
  8
PLAN_1
  6
CONTINUOUS
 10
-1.711138
 20
2.538728
  0
SEQEND
  8
0
  0
POLYLINE
  8
PLAN_1
  6
CONTINUOUS
 66
     1
 40
0.008122
 41
0.008122
  0
VERTEX
  8
PLAN_1
  6
CONTINUOUS
 10
-0.835161
 20
2.538728
  0
VERTEX
  8
PLAN_1
  6
CONTINUOUS
 10
-0.744555
 20
2.538728
  0
VERTEX
  8
PLAN_1
  6
CONTINUOUS
 10
-0.744555
 20
2.477378
  0
VERTEX
  8
PLAN_1
  6
CONTINUOUS
 10
-0.968835
 20
2.477378
  0
VERTEX
  8
PLAN_1
  6
CONTINUOUS
 10
-0.968835
 20
2.538728
  0
VERTEX
  8
PLAN_1
  6
CONTINUOUS
 10
-0.878228
 20
2.538728
  0
VERTEX
  8
PLAN_1
  6
CONTINUOUS
 10
-0.877823
 20
2.538323
  0
VERTEX
  8
PLAN_1
  6
CONTINUOUS
 10
-0.877823
 20
2.507035
  0
VERTEX
  8
PLAN_1
  6
CONTINUOUS
 10
-0.835161
 20
2.507035
  0
VERTEX
  8
PLAN_1
  6
CONTINUOUS
 10
-0.835161
 20
2.538323
  0
VERTEX
  8
PLAN_1
  6
CONTINUOUS
 10
-0.835161
 20
2.538728
  0
SEQEND
  8
0
  0
POLYLINE
  8
PLAN_1
  6
CONTINUOUS
 66
     1
 40
0.008122
 41
0.008122
  0
VERTEX
  8
PLAN_1
  6
CONTINUOUS
 10
-1.804992
 20
2.009728
  0
VERTEX
  8
PLAN_1
  6
CONTINUOUS
 10
-1.804587
 20
2.091799
  0
VERTEX
  8
PLAN_1
  6
CONTINUOUS
 10
-1.845217
 20
2.091799
  0
SEQEND
  8
0
  0
POLYLINE
  8
PLAN_1
  6
CONTINUOUS
 66
     1
 40
0.008122
 41
0.008122
  0
VERTEX
  8
PLAN_1
  6
CONTINUOUS
 10
-0.786406
 20
2.009728
  0
VERTEX
  8
PLAN_1
  6
CONTINUOUS
 10
-0.786000
 20
2.091799
  0
VERTEX
  8
PLAN_1
  6
CONTINUOUS
 10
-0.745370
 20
2.091799
  0
SEQEND
  8
0
  0
POLYLINE
  8
PLAN_1
  6
CONTINUOUS
 66
     1
 40
0.008122
 41
0.008122
  0
VERTEX
  8
PLAN_1
  6
CONTINUOUS
 10
-1.090720
 20
2.928776
  0
VERTEX
  8
PLAN_1
  6
CONTINUOUS
 10
-1.498646
 20
2.928776
  0
SEQEND
  8
0
  0
POLYLINE
  8
PLAN_1
  6
CONTINUOUS
 66
     1
 40
0.004059
 41
0.004059
  0
VERTEX
  8
PLAN_1
  6
CONTINUOUS
 10
-1.854969
 20
1.330803
  0
VERTEX
  8
PLAN_1
  6
CONTINUOUS
 10
-1.854969
 20
2.008102
  0
VERTEX
  8
PLAN_1
  6
CONTINUOUS
 10
-0.735618
 20
2.010134
  0
VERTEX
  8
PLAN_1
  6
CONTINUOUS
 10
-0.735618
 20
1.332429
  0
SEQEND
  8
0
  0
POLYLINE
  8
PLAN_1
  6
CONTINUOUS
 66
     1
 40
0.008122
 41
0.008122
  0
VERTEX
  8
PLAN_1
  6
CONTINUOUS
 10
-0.821752
 20
1.963409
  0
VERTEX
  8
PLAN_1
  6
CONTINUOUS
 10
-0.821752
 20
2.010134
  0
VERTEX
  8
PLAN_1
  6
CONTINUOUS
 10
-1.781429
 20
2.010134
  0
VERTEX
  8
PLAN_1
  6
CONTINUOUS
 10
-1.781429
 20
1.963409
  0
VERTEX
  8
PLAN_1
  6
CONTINUOUS
 10
-0.821752
 20
1.963409
  0
SEQEND
  8
0
  0
POLYLINE
  8
PLAN_1
  6
CONTINUOUS
 66
     1
 40
0.008122
 41
0.008122
  0
VERTEX
  8
PLAN_1
  6
CONTINUOUS
 10
-1.723736
 20
1.697287
  0
VERTEX
  8
PLAN_1
  6
CONTINUOUS
 10
-1.685138
 20
1.658689
  0
VERTEX
  8
PLAN_1
  6
CONTINUOUS
 10
-0.914390
 20
1.658689
  0
VERTEX
  8
PLAN_1
  6
CONTINUOUS
 10
-0.875791
 20
1.697287
  0
SEQEND
  8
0
  0
POLYLINE
  8
PLAN_1
  6
CONTINUOUS
 66
     1
 40
0.008122
 41
0.008122
  0
VERTEX
  8
PLAN_1
  6
CONTINUOUS
 10
-1.633941
 20
1.658689
  0
VERTEX
  8
PLAN_1
  6
CONTINUOUS
 10
-1.583563
 20
1.467323
  0
VERTEX
  8
PLAN_1
  6
CONTINUOUS
 10
-1.023276
 20
1.467323
  0
VERTEX
  8
PLAN_1
  6
CONTINUOUS
 10
-0.960299
 20
1.658689
  0
VERTEX
  8
PLAN_1
  6
CONTINUOUS
 10
-1.633941
 20
1.658689
  0
SEQEND
  8
0
  0
POLYLINE
  8
PLAN_1
  6
CONTINUOUS
 66
     1
 40
0.006906
 41
0.006906
  0
VERTEX
  8
PLAN_1
  6
CONTINUOUS
 10
-1.589248
 20
1.655843
  0
VERTEX
  8
PLAN_1
  6
CONTINUOUS
 10
-1.540492
 20
1.467323
  0
SEQEND
  8
0
  0
POLYLINE
  8
PLAN_1
  6
CONTINUOUS
 66
     1
 40
0.006906
 41
0.006906
  0
VERTEX
  8
PLAN_1
  6
CONTINUOUS
 10
-1.556744
 20
1.655843
  0
VERTEX
  8
PLAN_1
  6
CONTINUOUS
 10
-1.508398
 20
1.467323
  0
SEQEND
  8
0
  0
POLYLINE
  8
PLAN_1
  6
CONTINUOUS
 66
     1
 40
0.006906
 41
0.006906
  0
VERTEX
  8
PLAN_1
  6
CONTINUOUS
 10
-1.023276
 20
1.657874
  0
VERTEX
  8
PLAN_1
  6
CONTINUOUS
 10
-1.071626
 20
1.468945
  0
SEQEND
  8
0
  0
POLYLINE
  8
PLAN_1
  6
CONTINUOUS
 66
     1
 40
0.006906
 41
0.006906
  0
VERTEX
  8
PLAN_1
  6
CONTINUOUS
 10
-1.055374
 20
1.657874
  0
VERTEX
  8
PLAN_1
  6
CONTINUOUS
 10
-1.104130
 20
1.468945
  0
SEQEND
  8
0
  0
POLYLINE
  8
PLAN_1
  6
CONTINUOUS
 66
     1
 40
0.008122
 41
0.008122
  0
VERTEX
  8
PLAN_1
  6
CONTINUOUS
 10
-0.875791
 20
1.697287
  0
VERTEX
  8
PLAN_1
  6
CONTINUOUS
 10
-0.875791
 20
1.963409
  0
VERTEX
  8
PLAN_1
  6
CONTINUOUS
 10
-1.723736
 20
1.963409
  0
VERTEX
  8
PLAN_1
  6
CONTINUOUS
 10
-1.723736
 20
1.697287
  0
VERTEX
  8
PLAN_1
  6
CONTINUOUS
 10
-0.875791
 20
1.697287
  0
SEQEND
  8
0
  0
POLYLINE
  8
PLAN_1
  6
CONTINUOUS
 66
     1
 40
0.008122
 41
0.008122
  0
VERTEX
  8
PLAN_1
  6
CONTINUOUS
 10
-0.745776
 20
2.334362
  0
VERTEX
  8
PLAN_1
  6
CONTINUOUS
 10
-0.745776
 20
2.475346
  0
VERTEX
  8
PLAN_1
  6
CONTINUOUS
 10
-1.845217
 20
2.475346
  0
VERTEX
  8
PLAN_1
  6
CONTINUOUS
 10
-1.845217
 20
2.334362
  0
VERTEX
  8
PLAN_1
  6
CONTINUOUS
 10
-0.745776
 20
2.334362
  0
SEQEND
  8
0
  0
POLYLINE
  8
PLAN_1
 62
     2
  6
CONTINUOUS
 66
     1
 40
0.004059
 41
0.004059
  0
VERTEX
  8
PLAN_1
 62
     2
  6
CONTINUOUS
 10
-1.265429
 20
3.156299
  0
VERTEX
  8
PLAN_1
 62
     2
  6
CONTINUOUS
 10
-0.773406
 20
3.156299
  0
SEQEND
  8
0
  0
SOLID
  8
PLAN_1
 62
     2
 10
-0.743744
 20
3.156299
 11
-0.802657
 21
3.172146
 12
-0.743744
 22
3.156299
 13
-0.802657
 23
3.140457
  0
POLYLINE
  8
PLAN_1
 62
     2
  6
CONTINUOUS
 66
     1
 40
0.003000
 41
0.003000
  0
VERTEX
  8
PLAN_1
 62
     2
  6
CONTINUOUS
 10
-0.743744
 20
3.156299
  0
VERTEX
  8
PLAN_1
 62
     2
  6
CONTINUOUS
 10
-0.802657
 20
3.172146
  0
VERTEX
  8
PLAN_1
 62
     2
  6
CONTINUOUS
 10
-0.802657
 20
3.140457
  0
VERTEX
  8
PLAN_1
 62
     2
  6
CONTINUOUS
 10
-0.743744
 20
3.156299
  0
SEQEND
  8
0
  0
SOLID
  8
PLAN_1
 62
     2
 10
-1.294685
 20
3.156299
 11
-1.235772
 21
3.172146
 12
-1.294685
 22
3.156299
 13
-1.235772
 23
3.140457
  0
POLYLINE
  8
PLAN_1
 62
     2
  6
CONTINUOUS
 66
     1
 40
0.003000
 41
0.003000
  0
VERTEX
  8
PLAN_1
 62
     2
  6
CONTINUOUS
 10
-1.294685
 20
3.156299
  0
VERTEX
  8
PLAN_1
 62
     2
  6
CONTINUOUS
 10
-1.235772
 20
3.172146
  0
VERTEX
  8
PLAN_1
 62
     2
  6
CONTINUOUS
 10
-1.235772
 20
3.140457
  0
VERTEX
  8
PLAN_1
 62
     2
  6
CONTINUOUS
 10
-1.294685
 20
3.156299
  0
SEQEND
  8
0
  0
POLYLINE
  8
PLAN_1
 62
     2
  6
CONTINUOUS
 66
     1
 40
0.003000
 41
0.003000
  0
VERTEX
  8
PLAN_1
 62
     2
  6
CONTINUOUS
 10
-1.039937
 20
3.179866
  0
VERTEX
  8
PLAN_1
 62
     2
  6
CONTINUOUS
 10
-1.049685
 20
3.179866
  0
VERTEX
  8
PLAN_1
 62
     2
  6
CONTINUOUS
 10
-1.049685
 20
3.231874
  0
VERTEX
  8
PLAN_1
 62
     2
  6
CONTINUOUS
 10
-1.066752
 20
3.231874
  0
VERTEX
  8
PLAN_1
 62
     2
  6
CONTINUOUS
 10
-1.066752
 20
3.239185
  0
VERTEX
  8
PLAN_1
 62
     2
  6
CONTINUOUS
 10
-1.062689
 20
3.239591
  0
VERTEX
  8
PLAN_1
 62
     2
  6
CONTINUOUS
 10
-1.059031
 20
3.240000
  0
VERTEX
  8
PLAN_1
 62
     2
  6
CONTINUOUS
 10
-1.055780
 20
3.240811
  0
VERTEX
  8
PLAN_1
 62
     2
  6
CONTINUOUS
 10
-1.053343
 20
3.242031
  0
VERTEX
  8
PLAN_1
 62
     2
  6
CONTINUOUS
 10
-1.051311
 20
3.243654
  0
VERTEX
  8
PLAN_1
 62
     2
  6
CONTINUOUS
 10
-1.049685
 20
3.245685
  0
VERTEX
  8
PLAN_1
 62
     2
  6
CONTINUOUS
 10
-1.048059
 20
3.248937
  0
VERTEX
  8
PLAN_1
 62
     2
  6
CONTINUOUS
 10
-1.046843
 20
3.253000
  0
VERTEX
  8
PLAN_1
 62
     2
  6
CONTINUOUS
 10
-1.039937
 20
3.253000
  0
VERTEX
  8
PLAN_1
 62
     2
  6
CONTINUOUS
 10
-1.039937
 20
3.179866
  0
SEQEND
  8
0
  0
POLYLINE
  8
PLAN_1
 62
     2
  6
CONTINUOUS
 66
     1
 40
0.003000
 41
0.003000
  0
VERTEX
  8
PLAN_1
 62
     2
  6
CONTINUOUS
 10
-0.975740
 20
3.197744
  0
VERTEX
  8
PLAN_1
 62
     2
  6
CONTINUOUS
 10
-0.975740
 20
3.179866
  0
VERTEX
  8
PLAN_1
 62
     2
  6
CONTINUOUS
 10
-0.984677
 20
3.179866
  0
VERTEX
  8
PLAN_1
 62
     2
  6
CONTINUOUS
 10
-0.984677
 20
3.197744
  0
VERTEX
  8
PLAN_1
 62
     2
  6
CONTINUOUS
 10
-1.016776
 20
3.197744
  0
VERTEX
  8
PLAN_1
 62
     2
  6
CONTINUOUS
 10
-1.016776
 20
3.206681
  0
VERTEX
  8
PLAN_1
 62
     2
  6
CONTINUOUS
 10
-0.983055
 20
3.253000
  0
VERTEX
  8
PLAN_1
 62
     2
  6
CONTINUOUS
 10
-0.975740
 20
3.253000
  0
VERTEX
  8
PLAN_1
 62
     2
  6
CONTINUOUS
 10
-0.975740
 20
3.205465
  0
VERTEX
  8
PLAN_1
 62
     2
  6
CONTINUOUS
 10
-0.964772
 20
3.205465
  0
VERTEX
  8
PLAN_1
 62
     2
  6
CONTINUOUS
 10
-0.964772
 20
3.197744
  0
VERTEX
  8
PLAN_1
 62
     2
  6
CONTINUOUS
 10
-0.975740
 20
3.197744
  0
SEQEND
  8
0
  0
SOLID
  8
PLAN_1
 62
     2
 10
-1.008244
 20
3.205465
 11
-0.984677
 21
3.205465
 12
-0.985087
 22
3.238780
 13
-0.984677
 23
3.238780
  0
POLYLINE
  8
PLAN_1
 62
     2
  6
CONTINUOUS
 66
     1
 40
0.003000
 41
0.003000
  0
VERTEX
  8
PLAN_1
 62
     2
  6
CONTINUOUS
 10
-1.008244
 20
3.205465
  0
VERTEX
  8
PLAN_1
 62
     2
  6
CONTINUOUS
 10
-0.984677
 20
3.205465
  0
VERTEX
  8
PLAN_1
 62
     2
  6
CONTINUOUS
 10
-0.984677
 20
3.238780
  0
VERTEX
  8
PLAN_1
 62
     2
  6
CONTINUOUS
 10
-0.985087
 20
3.238780
  0
VERTEX
  8
PLAN_1
 62
     2
  6
CONTINUOUS
 10
-1.008244
 20
3.205465
  0
SEQEND
  8
0
  0
POLYLINE
  8
PLAN_1
 62
     2
  6
CONTINUOUS
 66
     1
 40
0.004059
 41
0.004059
  0
VERTEX
  8
PLAN_1
 62
     2
  6
CONTINUOUS
 10
-1.294685
 20
3.022224
  0
VERTEX
  8
PLAN_1
 62
     2
  6
CONTINUOUS
 10
-1.294685
 20
3.179866
  0
SEQEND
  8
0
  0
POLYLINE
  8
PLAN_1
 62
     2
  6
CONTINUOUS
 66
     1
 40
0.004059
 41
0.004059
  0
VERTEX
  8
PLAN_1
 62
     2
  6
CONTINUOUS
 10
-0.743744
 20
2.562295
  0
VERTEX
  8
PLAN_1
 62
     2
  6
CONTINUOUS
 10
-0.743744
 20
3.179866
  0
SEQEND
  8
0
  0
ENDSEC
  0
EOF
