  0
SECTION
  2
HEADER
  9
$ACADVER
  1
AC1006
  9
$EXTMIN
 10
-2.185000
 20
-3.262720
  9
$EXTMAX
 10
2.176000
 20
3.270000
  9
$LTSCALE
 40
0.000394
  9
$PDMODE
 70
    35
  9
$PDSIZE
 40
0.000315
  0
ENDSEC
  0
SECTION
  2
TABLES
  0
TABLE
  2
LTYPE
 70
     9
  0
LTYPE
  2
CONTINUOUS
 70
    64
  3
Solid line
 72
    65
 73
     0
 40
0.000000
  0
LTYPE
  2
DASHED
 70
    64
  3
__ __ __ __ __ __ __ __ __ __ __ __ __ __ __
 72
    65
 73
     2
 40
0.000003
 49
0.000002
 49
-0.000001
  0
LTYPE
  2
HIDDEN
 70
    64
  3
 _ _ _ _ _ _ _ _ _ _ _ _ _ _ _ _ _ _ _ _ _ _
 72
    65
 73
     2
 40
0.000001
 49
0.000001
 49
-0.000000
  0
LTYPE
  2
CENTER
 70
    64
  3
____ _ ____ _ ____ _ ____ _ ____ _ ____ _ ____
 72
    65
 73
     4
 40
0.000008
 49
0.000005
 49
-0.000001
 49
0.000001
 49
-0.000001
  0
LTYPE
  2
PHANTOM
 70
    64
  3
_____ _ _ _____ _ _ _____ _ _ _____ _ _ ____
 72
    65
 73
     6
 40
0.000010
 49
0.000005
 49
-0.000001
 49
0.000001
 49
-0.000001
 49
0.000001
 49
-0.000001
  0
LTYPE
  2
DOT
 70
    64
  3
...............................................
 72
    65
 73
     2
 40
0.000001
 49
0.000000
 49
-0.000001
  0
LTYPE
  2
DASHDOT
 70
    64
  3
__ . __ . __ . __ . __ . __ . __ . __ . __ . __
 72
    65
 73
     4
 40
0.000004
 49
0.000002
 49
-0.000001
 49
0.000000
 49
-0.000001
  0
LTYPE
  2
BORDER
 70
    64
  3
__ __ . __ __ . __ __ . __ __ . __ __ . __ __
 72
    65
 73
     6
 40
0.000007
 49
0.000002
 49
-0.000001
 49
0.000002
 49
-0.000001
 49
0.000000
 49
-0.000001
  0
LTYPE
  2
DIVIDE
 70
    64
  3
__ . . __ . . __ . . __ . . __ . . __ . . __
 72
    65
 73
     6
 40
0.000005
 49
0.000002
 49
-0.000001
 49
0.000000
 49
-0.000001
 49
0.000000
 49
-0.000001
  0
LTYPE
  2
DOTDOT
 70
    64
  3
 . .  . .  . .  . .  . .  . . 
 72
    65
 73
     5
 40
0.000002
 49
-0.000001
 49
0.000000
 49
-0.000001
 49
0.000000
 49
-0.000001
  0
ENDTAB
  0
TABLE
  2
STYLE
 70
     0
  0
ENDTAB
  0
TABLE
  2
LAYER
 70
     3
  0
LAYER
  2
FOREGROUND
 70
    64
 62
     7
  6
CONTINUOUS
  0
LAYER
  2
BACKGROUND
 70
    65
 62
    -7
  6
CONTINUOUS
  0
LAYER
  2
PLAN_1
 70
    64
 62
     7
  6
CONTINUOUS
  0
ENDTAB
  0
ENDSEC
  0
SECTION
  2
ENTITIES
  0
POLYLINE
  8
PLAN_1
  6
CONTINUOUS
 66
     1
 40
0.003000
 41
0.003000
  0
VERTEX
  8
PLAN_1
  6
CONTINUOUS
 10
0.372559
 20
-3.228016
  0
VERTEX
  8
PLAN_1
  6
CONTINUOUS
 10
0.215776
 20
-3.228016
  0
VERTEX
  8
PLAN_1
  6
CONTINUOUS
 10
0.215776
 20
-3.205559
  0
VERTEX
  8
PLAN_1
  6
CONTINUOUS
 10
0.337854
 20
-3.052449
  0
VERTEX
  8
PLAN_1
  6
CONTINUOUS
 10
0.224756
 20
-3.052449
  0
VERTEX
  8
PLAN_1
  6
CONTINUOUS
 10
0.224756
 20
-3.028768
  0
VERTEX
  8
PLAN_1
  6
CONTINUOUS
 10
0.372559
 20
-3.028768
  0
VERTEX
  8
PLAN_1
  6
CONTINUOUS
 10
0.372559
 20
-3.052043
  0
VERTEX
  8
PLAN_1
  6
CONTINUOUS
 10
0.250071
 20
-3.204335
  0
VERTEX
  8
PLAN_1
  6
CONTINUOUS
 10
0.372559
 20
-3.204335
  0
VERTEX
  8
PLAN_1
  6
CONTINUOUS
 10
0.372559
 20
-3.228016
  0
SEQEND
  8
0
  0
POLYLINE
  8
PLAN_1
  6
CONTINUOUS
 66
     1
 40
0.003000
 41
0.003000
  0
VERTEX
  8
PLAN_1
  6
CONTINUOUS
 10
0.539961
 20
-3.088787
  0
VERTEX
  8
PLAN_1
  6
CONTINUOUS
 10
0.538327
 20
-3.082665
  0
VERTEX
  8
PLAN_1
  6
CONTINUOUS
 10
0.536287
 20
-3.076949
  0
VERTEX
  8
PLAN_1
  6
CONTINUOUS
 10
0.533839
 20
-3.072047
  0
VERTEX
  8
PLAN_1
  6
CONTINUOUS
 10
0.530980
 20
-3.067555
  0
VERTEX
  8
PLAN_1
  6
CONTINUOUS
 10
0.527713
 20
-3.063472
  0
VERTEX
  8
PLAN_1
  6
CONTINUOUS
 10
0.524039
 20
-3.060209
  0
VERTEX
  8
PLAN_1
  6
CONTINUOUS
 10
0.520362
 20
-3.057350
  0
VERTEX
  8
PLAN_1
  6
CONTINUOUS
 10
0.516280
 20
-3.054898
  0
VERTEX
  8
PLAN_1
  6
CONTINUOUS
 10
0.512606
 20
-3.052858
  0
VERTEX
  8
PLAN_1
  6
CONTINUOUS
 10
0.508114
 20
-3.051224
  0
VERTEX
  8
PLAN_1
  6
CONTINUOUS
 10
0.504031
 20
-3.050000
  0
VERTEX
  8
PLAN_1
  6
CONTINUOUS
 10
0.499949
 20
-3.048776
  0
VERTEX
  8
PLAN_1
  6
CONTINUOUS
 10
0.491783
 20
-3.047551
  0
VERTEX
  8
PLAN_1
  6
CONTINUOUS
 10
0.484024
 20
-3.047551
  0
VERTEX
  8
PLAN_1
  6
CONTINUOUS
 10
0.477492
 20
-3.047551
  0
VERTEX
  8
PLAN_1
  6
CONTINUOUS
 10
0.470961
 20
-3.048776
  0
VERTEX
  8
PLAN_1
  6
CONTINUOUS
 10
0.464835
 20
-3.050000
  0
VERTEX
  8
PLAN_1
  6
CONTINUOUS
 10
0.458713
 20
-3.052449
  0
VERTEX
  8
PLAN_1
  6
CONTINUOUS
 10
0.452996
 20
-3.055307
  0
VERTEX
  8
PLAN_1
  6
CONTINUOUS
 10
0.447685
 20
-3.058575
  0
VERTEX
  8
PLAN_1
  6
CONTINUOUS
 10
0.442787
 20
-3.062657
  0
VERTEX
  8
PLAN_1
  6
CONTINUOUS
 10
0.437886
 20
-3.067150
  0
VERTEX
  8
PLAN_1
  6
CONTINUOUS
 10
0.433803
 20
-3.072457
  0
VERTEX
  8
PLAN_1
  6
CONTINUOUS
 10
0.430130
 20
-3.078173
  0
VERTEX
  8
PLAN_1
  6
CONTINUOUS
 10
0.426862
 20
-3.084705
  0
VERTEX
  8
PLAN_1
  6
CONTINUOUS
 10
0.424004
 20
-3.092055
  0
VERTEX
  8
PLAN_1
  6
CONTINUOUS
 10
0.421965
 20
-3.099811
  0
VERTEX
  8
PLAN_1
  6
CONTINUOUS
 10
0.420331
 20
-3.107976
  0
VERTEX
  8
PLAN_1
  6
CONTINUOUS
 10
0.419516
 20
-3.116961
  0
VERTEX
  8
PLAN_1
  6
CONTINUOUS
 10
0.419106
 20
-3.126350
  0
VERTEX
  8
PLAN_1
  6
CONTINUOUS
 10
0.419106
 20
-3.134925
  0
VERTEX
  8
PLAN_1
  6
CONTINUOUS
 10
0.419921
 20
-3.143500
  0
VERTEX
  8
PLAN_1
  6
CONTINUOUS
 10
0.420740
 20
-3.151665
  0
VERTEX
  8
PLAN_1
  6
CONTINUOUS
 10
0.422374
 20
-3.159016
  0
VERTEX
  8
PLAN_1
  6
CONTINUOUS
 10
0.424413
 20
-3.166362
  0
VERTEX
  8
PLAN_1
  6
CONTINUOUS
 10
0.426862
 20
-3.173303
  0
VERTEX
  8
PLAN_1
  6
CONTINUOUS
 10
0.429720
 20
-3.179839
  0
VERTEX
  8
PLAN_1
  6
CONTINUOUS
 10
0.433398
 20
-3.185555
  0
VERTEX
  8
PLAN_1
  6
CONTINUOUS
 10
0.435437
 20
-3.188413
  0
VERTEX
  8
PLAN_1
  6
CONTINUOUS
 10
0.437480
 20
-3.190862
  0
VERTEX
  8
PLAN_1
  6
CONTINUOUS
 10
0.439929
 20
-3.193311
  0
VERTEX
  8
PLAN_1
  6
CONTINUOUS
 10
0.442378
 20
-3.195354
  0
VERTEX
  8
PLAN_1
  6
CONTINUOUS
 10
0.445236
 20
-3.197803
  0
VERTEX
  8
PLAN_1
  6
CONTINUOUS
 10
0.447685
 20
-3.199437
  0
VERTEX
  8
PLAN_1
  6
CONTINUOUS
 10
0.450953
 20
-3.201476
  0
VERTEX
  8
PLAN_1
  6
CONTINUOUS
 10
0.453811
 20
-3.203110
  0
VERTEX
  8
PLAN_1
  6
CONTINUOUS
 10
0.457079
 20
-3.204335
  0
VERTEX
  8
PLAN_1
  6
CONTINUOUS
 10
0.460752
 20
-3.205969
  0
VERTEX
  8
PLAN_1
  6
CONTINUOUS
 10
0.464425
 20
-3.206783
  0
VERTEX
  8
PLAN_1
  6
CONTINUOUS
 10
0.468102
 20
-3.207602
  0
VERTEX
  8
PLAN_1
  6
CONTINUOUS
 10
0.472185
 20
-3.208417
  0
VERTEX
  8
PLAN_1
  6
CONTINUOUS
 10
0.476268
 20
-3.208827
  0
VERTEX
  8
PLAN_1
  6
CONTINUOUS
 10
0.480350
 20
-3.209236
  0
VERTEX
  8
PLAN_1
  6
CONTINUOUS
 10
0.485248
 20
-3.209236
  0
VERTEX
  8
PLAN_1
  6
CONTINUOUS
 10
0.488516
 20
-3.209236
  0
VERTEX
  8
PLAN_1
  6
CONTINUOUS
 10
0.492193
 20
-3.208827
  0
VERTEX
  8
PLAN_1
  6
CONTINUOUS
 10
0.495866
 20
-3.208417
  0
VERTEX
  8
PLAN_1
  6
CONTINUOUS
 10
0.499949
 20
-3.207602
  0
VERTEX
  8
PLAN_1
  6
CONTINUOUS
 10
0.504031
 20
-3.205969
  0
VERTEX
  8
PLAN_1
  6
CONTINUOUS
 10
0.508114
 20
-3.204335
  0
VERTEX
  8
PLAN_1
  6
CONTINUOUS
 10
0.512606
 20
-3.202295
  0
VERTEX
  8
PLAN_1
  6
CONTINUOUS
 10
0.516689
 20
-3.199437
  0
VERTEX
  8
PLAN_1
  6
CONTINUOUS
 10
0.520772
 20
-3.196169
  0
VERTEX
  8
PLAN_1
  6
CONTINUOUS
 10
0.524445
 20
-3.192496
  0
VERTEX
  8
PLAN_1
  6
CONTINUOUS
 10
0.528122
 20
-3.188004
  0
VERTEX
  8
PLAN_1
  6
CONTINUOUS
 10
0.531795
 20
-3.182697
  0
VERTEX
  8
PLAN_1
  6
CONTINUOUS
 10
0.534654
 20
-3.176980
  0
VERTEX
  8
PLAN_1
  6
CONTINUOUS
 10
0.537512
 20
-3.170449
  0
VERTEX
  8
PLAN_1
  6
CONTINUOUS
 10
0.539961
 20
-3.163098
  0
VERTEX
  8
PLAN_1
  6
CONTINUOUS
 10
0.542004
 20
-3.154933
  0
VERTEX
  8
PLAN_1
  6
CONTINUOUS
 10
0.568134
 20
-3.154933
  0
VERTEX
  8
PLAN_1
  6
CONTINUOUS
 10
0.566909
 20
-3.161465
  0
VERTEX
  8
PLAN_1
  6
CONTINUOUS
 10
0.565276
 20
-3.167996
  0
VERTEX
  8
PLAN_1
  6
CONTINUOUS
 10
0.563642
 20
-3.174122
  0
VERTEX
  8
PLAN_1
  6
CONTINUOUS
 10
0.561602
 20
-3.179839
  0
VERTEX
  8
PLAN_1
  6
CONTINUOUS
 10
0.559559
 20
-3.185146
  0
VERTEX
  8
PLAN_1
  6
CONTINUOUS
 10
0.557110
 20
-3.190043
  0
VERTEX
  8
PLAN_1
  6
CONTINUOUS
 10
0.554661
 20
-3.194535
  0
VERTEX
  8
PLAN_1
  6
CONTINUOUS
 10
0.551803
 20
-3.198618
  0
VERTEX
  8
PLAN_1
  6
CONTINUOUS
 10
0.548945
 20
-3.202701
  0
VERTEX
  8
PLAN_1
  6
CONTINUOUS
 10
0.546087
 20
-3.206378
  0
VERTEX
  8
PLAN_1
  6
CONTINUOUS
 10
0.542819
 20
-3.209642
  0
VERTEX
  8
PLAN_1
  6
CONTINUOUS
 10
0.539555
 20
-3.212500
  0
VERTEX
  8
PLAN_1
  6
CONTINUOUS
 10
0.536287
 20
-3.215358
  0
VERTEX
  8
PLAN_1
  6
CONTINUOUS
 10
0.532614
 20
-3.217811
  0
VERTEX
  8
PLAN_1
  6
CONTINUOUS
 10
0.529346
 20
-3.220260
  0
VERTEX
  8
PLAN_1
  6
CONTINUOUS
 10
0.526079
 20
-3.222299
  0
VERTEX
  8
PLAN_1
  6
CONTINUOUS
 10
0.519138
 20
-3.225567
  0
VERTEX
  8
PLAN_1
  6
CONTINUOUS
 10
0.512197
 20
-3.228425
  0
VERTEX
  8
PLAN_1
  6
CONTINUOUS
 10
0.505665
 20
-3.230059
  0
VERTEX
  8
PLAN_1
  6
CONTINUOUS
 10
0.499134
 20
-3.231693
  0
VERTEX
  8
PLAN_1
  6
CONTINUOUS
 10
0.493417
 20
-3.232508
  0
VERTEX
  8
PLAN_1
  6
CONTINUOUS
 10
0.488516
 20
-3.232917
  0
VERTEX
  8
PLAN_1
  6
CONTINUOUS
 10
0.484024
 20
-3.233323
  0
VERTEX
  8
PLAN_1
  6
CONTINUOUS
 10
0.480760
 20
-3.233323
  0
VERTEX
  8
PLAN_1
  6
CONTINUOUS
 10
0.472594
 20
-3.232917
  0
VERTEX
  8
PLAN_1
  6
CONTINUOUS
 10
0.464020
 20
-3.232098
  0
VERTEX
  8
PLAN_1
  6
CONTINUOUS
 10
0.455854
 20
-3.230059
  0
VERTEX
  8
PLAN_1
  6
CONTINUOUS
 10
0.447685
 20
-3.227610
  0
VERTEX
  8
PLAN_1
  6
CONTINUOUS
 10
0.444012
 20
-3.225976
  0
VERTEX
  8
PLAN_1
  6
CONTINUOUS
 10
0.439929
 20
-3.224343
  0
VERTEX
  8
PLAN_1
  6
CONTINUOUS
 10
0.436256
 20
-3.222299
  0
VERTEX
  8
PLAN_1
  6
CONTINUOUS
 10
0.432579
 20
-3.219850
  0
VERTEX
  8
PLAN_1
  6
CONTINUOUS
 10
0.428906
 20
-3.217402
  0
VERTEX
  8
PLAN_1
  6
CONTINUOUS
 10
0.425638
 20
-3.214953
  0
VERTEX
  8
PLAN_1
  6
CONTINUOUS
 10
0.422374
 20
-3.212094
  0
VERTEX
  8
PLAN_1
  6
CONTINUOUS
 10
0.419106
 20
-3.208827
  0
VERTEX
  8
PLAN_1
  6
CONTINUOUS
 10
0.415839
 20
-3.205559
  0
VERTEX
  8
PLAN_1
  6
CONTINUOUS
 10
0.412980
 20
-3.202295
  0
VERTEX
  8
PLAN_1
  6
CONTINUOUS
 10
0.410122
 20
-3.198618
  0
VERTEX
  8
PLAN_1
  6
CONTINUOUS
 10
0.407673
 20
-3.194535
  0
VERTEX
  8
PLAN_1
  6
CONTINUOUS
 10
0.405224
 20
-3.190453
  0
VERTEX
  8
PLAN_1
  6
CONTINUOUS
 10
0.402776
 20
-3.185961
  0
VERTEX
  8
PLAN_1
  6
CONTINUOUS
 10
0.400732
 20
-3.181063
  0
VERTEX
  8
PLAN_1
  6
CONTINUOUS
 10
0.398693
 20
-3.176161
  0
VERTEX
  8
PLAN_1
  6
CONTINUOUS
 10
0.397059
 20
-3.170854
  0
VERTEX
  8
PLAN_1
  6
CONTINUOUS
 10
0.395425
 20
-3.165547
  0
VERTEX
  8
PLAN_1
  6
CONTINUOUS
 10
0.394201
 20
-3.159831
  0
VERTEX
  8
PLAN_1
  6
CONTINUOUS
 10
0.393382
 20
-3.153709
  0
VERTEX
  8
PLAN_1
  6
CONTINUOUS
 10
0.392567
 20
-3.147583
  0
VERTEX
  8
PLAN_1
  6
CONTINUOUS
 10
0.391752
 20
-3.141051
  0
VERTEX
  8
PLAN_1
  6
CONTINUOUS
 10
0.391343
 20
-3.134516
  0
VERTEX
  8
PLAN_1
  6
CONTINUOUS
 10
0.391343
 20
-3.127169
  0
VERTEX
  8
PLAN_1
  6
CONTINUOUS
 10
0.391343
 20
-3.121453
  0
VERTEX
  8
PLAN_1
  6
CONTINUOUS
 10
0.391752
 20
-3.116146
  0
VERTEX
  8
PLAN_1
  6
CONTINUOUS
 10
0.392157
 20
-3.110429
  0
VERTEX
  8
PLAN_1
  6
CONTINUOUS
 10
0.392976
 20
-3.105118
  0
VERTEX
  8
PLAN_1
  6
CONTINUOUS
 10
0.393791
 20
-3.099811
  0
VERTEX
  8
PLAN_1
  6
CONTINUOUS
 10
0.395016
 20
-3.094913
  0
VERTEX
  8
PLAN_1
  6
CONTINUOUS
 10
0.396240
 20
-3.090012
  0
VERTEX
  8
PLAN_1
  6
CONTINUOUS
 10
0.397465
 20
-3.085114
  0
VERTEX
  8
PLAN_1
  6
CONTINUOUS
 10
0.399098
 20
-3.080622
  0
VERTEX
  8
PLAN_1
  6
CONTINUOUS
 10
0.401142
 20
-3.076130
  0
VERTEX
  8
PLAN_1
  6
CONTINUOUS
 10
0.403181
 20
-3.071638
  0
VERTEX
  8
PLAN_1
  6
CONTINUOUS
 10
0.405224
 20
-3.067555
  0
VERTEX
  8
PLAN_1
  6
CONTINUOUS
 10
0.407673
 20
-3.063472
  0
VERTEX
  8
PLAN_1
  6
CONTINUOUS
 10
0.410122
 20
-3.059390
  0
VERTEX
  8
PLAN_1
  6
CONTINUOUS
 10
0.412980
 20
-3.055717
  0
VERTEX
  8
PLAN_1
  6
CONTINUOUS
 10
0.415839
 20
-3.052449
  0
VERTEX
  8
PLAN_1
  6
CONTINUOUS
 10
0.419106
 20
-3.049185
  0
VERTEX
  8
PLAN_1
  6
CONTINUOUS
 10
0.422374
 20
-3.045917
  0
VERTEX
  8
PLAN_1
  6
CONTINUOUS
 10
0.425638
 20
-3.043059
  0
VERTEX
  8
PLAN_1
  6
CONTINUOUS
 10
0.429315
 20
-3.040201
  0
VERTEX
  8
PLAN_1
  6
CONTINUOUS
 10
0.432988
 20
-3.037752
  0
VERTEX
  8
PLAN_1
  6
CONTINUOUS
 10
0.437071
 20
-3.035303
  0
VERTEX
  8
PLAN_1
  6
CONTINUOUS
 10
0.441154
 20
-3.032850
  0
VERTEX
  8
PLAN_1
  6
CONTINUOUS
 10
0.445236
 20
-3.031217
  0
VERTEX
  8
PLAN_1
  6
CONTINUOUS
 10
0.449728
 20
-3.029177
  0
VERTEX
  8
PLAN_1
  6
CONTINUOUS
 10
0.454220
 20
-3.027953
  0
VERTEX
  8
PLAN_1
  6
CONTINUOUS
 10
0.458713
 20
-3.026319
  0
VERTEX
  8
PLAN_1
  6
CONTINUOUS
 10
0.463610
 20
-3.025504
  0
VERTEX
  8
PLAN_1
  6
CONTINUOUS
 10
0.468512
 20
-3.024685
  0
VERTEX
  8
PLAN_1
  6
CONTINUOUS
 10
0.473409
 20
-3.023870
  0
VERTEX
  8
PLAN_1
  6
CONTINUOUS
 10
0.478717
 20
-3.023461
  0
VERTEX
  8
PLAN_1
  6
CONTINUOUS
 10
0.484024
 20
-3.023461
  0
VERTEX
  8
PLAN_1
  6
CONTINUOUS
 10
0.493417
 20
-3.023870
  0
VERTEX
  8
PLAN_1
  6
CONTINUOUS
 10
0.502398
 20
-3.025094
  0
VERTEX
  8
PLAN_1
  6
CONTINUOUS
 10
0.510563
 20
-3.026728
  0
VERTEX
  8
PLAN_1
  6
CONTINUOUS
 10
0.518323
 20
-3.029177
  0
VERTEX
  8
PLAN_1
  6
CONTINUOUS
 10
0.525264
 20
-3.032035
  0
VERTEX
  8
PLAN_1
  6
CONTINUOUS
 10
0.531795
 20
-3.035303
  0
VERTEX
  8
PLAN_1
  6
CONTINUOUS
 10
0.537512
 20
-3.039386
  0
VERTEX
  8
PLAN_1
  6
CONTINUOUS
 10
0.542819
 20
-3.043469
  0
VERTEX
  8
PLAN_1
  6
CONTINUOUS
 10
0.547720
 20
-3.048366
  0
VERTEX
  8
PLAN_1
  6
CONTINUOUS
 10
0.552209
 20
-3.053268
  0
VERTEX
  8
PLAN_1
  6
CONTINUOUS
 10
0.555886
 20
-3.058984
  0
VERTEX
  8
PLAN_1
  6
CONTINUOUS
 10
0.558744
 20
-3.064291
  0
VERTEX
  8
PLAN_1
  6
CONTINUOUS
 10
0.561602
 20
-3.070413
  0
VERTEX
  8
PLAN_1
  6
CONTINUOUS
 10
0.563642
 20
-3.076539
  0
VERTEX
  8
PLAN_1
  6
CONTINUOUS
 10
0.565276
 20
-3.082665
  0
VERTEX
  8
PLAN_1
  6
CONTINUOUS
 10
0.566091
 20
-3.088787
  0
VERTEX
  8
PLAN_1
  6
CONTINUOUS
 10
0.539961
 20
-3.088787
  0
SEQEND
  8
0
  0
POLYLINE
  8
PLAN_1
  6
CONTINUOUS
 66
     1
 40
0.003000
 41
0.003000
  0
VERTEX
  8
PLAN_1
  6
CONTINUOUS
 10
0.627339
 20
-3.228016
  0
VERTEX
  8
PLAN_1
  6
CONTINUOUS
 10
0.600799
 20
-3.228016
  0
VERTEX
  8
PLAN_1
  6
CONTINUOUS
 10
0.600799
 20
-3.028768
  0
VERTEX
  8
PLAN_1
  6
CONTINUOUS
 10
0.627339
 20
-3.028768
  0
VERTEX
  8
PLAN_1
  6
CONTINUOUS
 10
0.627339
 20
-3.125535
  0
VERTEX
  8
PLAN_1
  6
CONTINUOUS
 10
0.724102
 20
-3.028768
  0
VERTEX
  8
PLAN_1
  6
CONTINUOUS
 10
0.761256
 20
-3.028768
  0
VERTEX
  8
PLAN_1
  6
CONTINUOUS
 10
0.678374
 20
-3.109201
  0
VERTEX
  8
PLAN_1
  6
CONTINUOUS
 10
0.763709
 20
-3.228016
  0
VERTEX
  8
PLAN_1
  6
CONTINUOUS
 10
0.728594
 20
-3.228016
  0
VERTEX
  8
PLAN_1
  6
CONTINUOUS
 10
0.658776
 20
-3.127984
  0
VERTEX
  8
PLAN_1
  6
CONTINUOUS
 10
0.627339
 20
-3.158197
  0
VERTEX
  8
PLAN_1
  6
CONTINUOUS
 10
0.627339
 20
-3.228016
  0
SEQEND
  8
0
  0
POLYLINE
  8
PLAN_1
  6
CONTINUOUS
 66
     1
 40
0.003000
 41
0.003000
  0
VERTEX
  8
PLAN_1
  6
CONTINUOUS
 10
0.787390
 20
-3.028768
  0
VERTEX
  8
PLAN_1
  6
CONTINUOUS
 10
0.867823
 20
-3.028768
  0
VERTEX
  8
PLAN_1
  6
CONTINUOUS
 10
0.872720
 20
-3.028768
  0
VERTEX
  8
PLAN_1
  6
CONTINUOUS
 10
0.877622
 20
-3.029177
  0
VERTEX
  8
PLAN_1
  6
CONTINUOUS
 10
0.882114
 20
-3.029587
  0
VERTEX
  8
PLAN_1
  6
CONTINUOUS
 10
0.886602
 20
-3.030402
  0
VERTEX
  8
PLAN_1
  6
CONTINUOUS
 10
0.890689
 20
-3.031626
  0
VERTEX
  8
PLAN_1
  6
CONTINUOUS
 10
0.894772
 20
-3.032850
  0
VERTEX
  8
PLAN_1
  6
CONTINUOUS
 10
0.898854
 20
-3.034075
  0
VERTEX
  8
PLAN_1
  6
CONTINUOUS
 10
0.902937
 20
-3.035709
  0
VERTEX
  8
PLAN_1
  6
CONTINUOUS
 10
0.906610
 20
-3.037752
  0
VERTEX
  8
PLAN_1
  6
CONTINUOUS
 10
0.910283
 20
-3.039791
  0
VERTEX
  8
PLAN_1
  6
CONTINUOUS
 10
0.913961
 20
-3.041835
  0
VERTEX
  8
PLAN_1
  6
CONTINUOUS
 10
0.917224
 20
-3.044283
  0
VERTEX
  8
PLAN_1
  6
CONTINUOUS
 10
0.920492
 20
-3.046732
  0
VERTEX
  8
PLAN_1
  6
CONTINUOUS
 10
0.923760
 20
-3.049591
  0
VERTEX
  8
PLAN_1
  6
CONTINUOUS
 10
0.926618
 20
-3.052449
  0
VERTEX
  8
PLAN_1
  6
CONTINUOUS
 10
0.929476
 20
-3.055717
  0
VERTEX
  8
PLAN_1
  6
CONTINUOUS
 10
0.931925
 20
-3.058984
  0
VERTEX
  8
PLAN_1
  6
CONTINUOUS
 10
0.934374
 20
-3.062248
  0
VERTEX
  8
PLAN_1
  6
CONTINUOUS
 10
0.936823
 20
-3.065925
  0
VERTEX
  8
PLAN_1
  6
CONTINUOUS
 10
0.938866
 20
-3.069598
  0
VERTEX
  8
PLAN_1
  6
CONTINUOUS
 10
0.940906
 20
-3.073681
  0
VERTEX
  8
PLAN_1
  6
CONTINUOUS
 10
0.942949
 20
-3.077764
  0
VERTEX
  8
PLAN_1
  6
CONTINUOUS
 10
0.944583
 20
-3.081846
  0
VERTEX
  8
PLAN_1
  6
CONTINUOUS
 10
0.945807
 20
-3.086339
  0
VERTEX
  8
PLAN_1
  6
CONTINUOUS
 10
0.948665
 20
-3.095319
  0
VERTEX
  8
PLAN_1
  6
CONTINUOUS
 10
0.950299
 20
-3.105118
  0
VERTEX
  8
PLAN_1
  6
CONTINUOUS
 10
0.951524
 20
-3.114917
  0
VERTEX
  8
PLAN_1
  6
CONTINUOUS
 10
0.951933
 20
-3.125535
  0
VERTEX
  8
PLAN_1
  6
CONTINUOUS
 10
0.951524
 20
-3.134110
  0
VERTEX
  8
PLAN_1
  6
CONTINUOUS
 10
0.950705
 20
-3.142681
  0
VERTEX
  8
PLAN_1
  6
CONTINUOUS
 10
0.949480
 20
-3.151665
  0
VERTEX
  8
PLAN_1
  6
CONTINUOUS
 10
0.947846
 20
-3.160650
  0
VERTEX
  8
PLAN_1
  6
CONTINUOUS
 10
0.945398
 20
-3.169220
  0
VERTEX
  8
PLAN_1
  6
CONTINUOUS
 10
0.942134
 20
-3.177795
  0
VERTEX
  8
PLAN_1
  6
CONTINUOUS
 10
0.940500
 20
-3.181878
  0
VERTEX
  8
PLAN_1
  6
CONTINUOUS
 10
0.938457
 20
-3.185961
  0
VERTEX
  8
PLAN_1
  6
CONTINUOUS
 10
0.936417
 20
-3.189638
  0
VERTEX
  8
PLAN_1
  6
CONTINUOUS
 10
0.933965
 20
-3.193720
  0
VERTEX
  8
PLAN_1
  6
CONTINUOUS
 10
0.931516
 20
-3.197394
  0
VERTEX
  8
PLAN_1
  6
CONTINUOUS
 10
0.928657
 20
-3.200661
  0
VERTEX
  8
PLAN_1
  6
CONTINUOUS
 10
0.925799
 20
-3.204335
  0
VERTEX
  8
PLAN_1
  6
CONTINUOUS
 10
0.922535
 20
-3.207602
  0
VERTEX
  8
PLAN_1
  6
CONTINUOUS
 10
0.919268
 20
-3.210461
  0
VERTEX
  8
PLAN_1
  6
CONTINUOUS
 10
0.915594
 20
-3.213319
  0
VERTEX
  8
PLAN_1
  6
CONTINUOUS
 10
0.911917
 20
-3.215768
  0
VERTEX
  8
PLAN_1
  6
CONTINUOUS
 10
0.907835
 20
-3.218217
  0
VERTEX
  8
PLAN_1
  6
CONTINUOUS
 10
0.903343
 20
-3.220665
  0
VERTEX
  8
PLAN_1
  6
CONTINUOUS
 10
0.898854
 20
-3.222299
  0
VERTEX
  8
PLAN_1
  6
CONTINUOUS
 10
0.894362
 20
-3.223933
  0
VERTEX
  8
PLAN_1
  6
CONTINUOUS
 10
0.889461
 20
-3.225567
  0
VERTEX
  8
PLAN_1
  6
CONTINUOUS
 10
0.884154
 20
-3.226382
  0
VERTEX
  8
PLAN_1
  6
CONTINUOUS
 10
0.878437
 20
-3.227201
  0
VERTEX
  8
PLAN_1
  6
CONTINUOUS
 10
0.872720
 20
-3.228016
  0
VERTEX
  8
PLAN_1
  6
CONTINUOUS
 10
0.867004
 20
-3.228016
  0
VERTEX
  8
PLAN_1
  6
CONTINUOUS
 10
0.787390
 20
-3.228016
  0
VERTEX
  8
PLAN_1
  6
CONTINUOUS
 10
0.787390
 20
-3.028768
  0
SEQEND
  8
0
  0
POLYLINE
  8
PLAN_1
  6
CONTINUOUS
 66
     1
 40
0.003000
 41
0.003000
  0
VERTEX
  8
PLAN_1
  6
CONTINUOUS
 10
0.813929
 20
-3.205154
  0
VERTEX
  8
PLAN_1
  6
CONTINUOUS
 10
0.866189
 20
-3.205154
  0
VERTEX
  8
PLAN_1
  6
CONTINUOUS
 10
0.872720
 20
-3.204744
  0
VERTEX
  8
PLAN_1
  6
CONTINUOUS
 10
0.878846
 20
-3.203520
  0
VERTEX
  8
PLAN_1
  6
CONTINUOUS
 10
0.884563
 20
-3.202295
  0
VERTEX
  8
PLAN_1
  6
CONTINUOUS
 10
0.889870
 20
-3.199843
  0
VERTEX
  8
PLAN_1
  6
CONTINUOUS
 10
0.895177
 20
-3.196984
  0
VERTEX
  8
PLAN_1
  6
CONTINUOUS
 10
0.900079
 20
-3.193720
  0
VERTEX
  8
PLAN_1
  6
CONTINUOUS
 10
0.904161
 20
-3.189638
  0
VERTEX
  8
PLAN_1
  6
CONTINUOUS
 10
0.908244
 20
-3.185146
  0
VERTEX
  8
PLAN_1
  6
CONTINUOUS
 10
0.911917
 20
-3.179839
  0
VERTEX
  8
PLAN_1
  6
CONTINUOUS
 10
0.915185
 20
-3.174122
  0
VERTEX
  8
PLAN_1
  6
CONTINUOUS
 10
0.917634
 20
-3.167591
  0
VERTEX
  8
PLAN_1
  6
CONTINUOUS
 10
0.920083
 20
-3.160650
  0
VERTEX
  8
PLAN_1
  6
CONTINUOUS
 10
0.921717
 20
-3.153299
  0
VERTEX
  8
PLAN_1
  6
CONTINUOUS
 10
0.922941
 20
-3.145134
  0
VERTEX
  8
PLAN_1
  6
CONTINUOUS
 10
0.923760
 20
-3.136559
  0
VERTEX
  8
PLAN_1
  6
CONTINUOUS
 10
0.924165
 20
-3.127169
  0
VERTEX
  8
PLAN_1
  6
CONTINUOUS
 10
0.923760
 20
-3.118185
  0
VERTEX
  8
PLAN_1
  6
CONTINUOUS
 10
0.922941
 20
-3.109610
  0
VERTEX
  8
PLAN_1
  6
CONTINUOUS
 10
0.921717
 20
-3.101854
  0
VERTEX
  8
PLAN_1
  6
CONTINUOUS
 10
0.919677
 20
-3.094094
  0
VERTEX
  8
PLAN_1
  6
CONTINUOUS
 10
0.917634
 20
-3.087563
  0
VERTEX
  8
PLAN_1
  6
CONTINUOUS
 10
0.914776
 20
-3.081437
  0
VERTEX
  8
PLAN_1
  6
CONTINUOUS
 10
0.911512
 20
-3.075724
  0
VERTEX
  8
PLAN_1
  6
CONTINUOUS
 10
0.907835
 20
-3.070823
  0
VERTEX
  8
PLAN_1
  6
CONTINUOUS
 10
0.903752
 20
-3.066331
  0
VERTEX
  8
PLAN_1
  6
CONTINUOUS
 10
0.899260
 20
-3.062248
  0
VERTEX
  8
PLAN_1
  6
CONTINUOUS
 10
0.894362
 20
-3.058984
  0
VERTEX
  8
PLAN_1
  6
CONTINUOUS
 10
0.889055
 20
-3.056531
  0
VERTEX
  8
PLAN_1
  6
CONTINUOUS
 10
0.883339
 20
-3.054492
  0
VERTEX
  8
PLAN_1
  6
CONTINUOUS
 10
0.877622
 20
-3.052858
  0
VERTEX
  8
PLAN_1
  6
CONTINUOUS
 10
0.871091
 20
-3.052043
  0
VERTEX
  8
PLAN_1
  6
CONTINUOUS
 10
0.864555
 20
-3.051634
  0
VERTEX
  8
PLAN_1
  6
CONTINUOUS
 10
0.813929
 20
-3.051634
  0
VERTEX
  8
PLAN_1
  6
CONTINUOUS
 10
0.813929
 20
-3.205154
  0
SEQEND
  8
0
  0
POLYLINE
  8
PLAN_1
  6
CONTINUOUS
 66
     1
 40
0.003000
 41
0.003000
  0
VERTEX
  8
PLAN_1
  6
CONTINUOUS
 10
1.065028
 20
-3.228016
  0
VERTEX
  8
PLAN_1
  6
CONTINUOUS
 10
1.038898
 20
-3.228016
  0
VERTEX
  8
PLAN_1
  6
CONTINUOUS
 10
1.038898
 20
-3.089606
  0
VERTEX
  8
PLAN_1
  6
CONTINUOUS
 10
0.993169
 20
-3.089606
  0
VERTEX
  8
PLAN_1
  6
CONTINUOUS
 10
0.993169
 20
-3.070008
  0
VERTEX
  8
PLAN_1
  6
CONTINUOUS
 10
1.004193
 20
-3.069189
  0
VERTEX
  8
PLAN_1
  6
CONTINUOUS
 10
1.013583
 20
-3.067965
  0
VERTEX
  8
PLAN_1
  6
CONTINUOUS
 10
1.017665
 20
-3.066740
  0
VERTEX
  8
PLAN_1
  6
CONTINUOUS
 10
1.021748
 20
-3.065925
  0
VERTEX
  8
PLAN_1
  6
CONTINUOUS
 10
1.025016
 20
-3.064291
  0
VERTEX
  8
PLAN_1
  6
CONTINUOUS
 10
1.028283
 20
-3.062657
  0
VERTEX
  8
PLAN_1
  6
CONTINUOUS
 10
1.031142
 20
-3.060614
  0
VERTEX
  8
PLAN_1
  6
CONTINUOUS
 10
1.034000
 20
-3.058165
  0
VERTEX
  8
PLAN_1
  6
CONTINUOUS
 10
1.036449
 20
-3.055307
  0
VERTEX
  8
PLAN_1
  6
CONTINUOUS
 10
1.038488
 20
-3.052043
  0
VERTEX
  8
PLAN_1
  6
CONTINUOUS
 10
1.040531
 20
-3.047957
  0
VERTEX
  8
PLAN_1
  6
CONTINUOUS
 10
1.042571
 20
-3.043469
  0
VERTEX
  8
PLAN_1
  6
CONTINUOUS
 10
1.044205
 20
-3.038567
  0
VERTEX
  8
PLAN_1
  6
CONTINUOUS
 10
1.045839
 20
-3.032850
  0
VERTEX
  8
PLAN_1
  6
CONTINUOUS
 10
1.065028
 20
-3.032850
  0
VERTEX
  8
PLAN_1
  6
CONTINUOUS
 10
1.065028
 20
-3.228016
  0
SEQEND
  8
0
  0
POLYLINE
  8
PLAN_1
  6
CONTINUOUS
 66
     1
 40
0.003000
 41
0.003000
  0
VERTEX
  8
PLAN_1
  6
CONTINUOUS
 10
1.196909
 20
-3.233323
  0
VERTEX
  8
PLAN_1
  6
CONTINUOUS
 10
1.191602
 20
-3.233323
  0
VERTEX
  8
PLAN_1
  6
CONTINUOUS
 10
1.186701
 20
-3.232508
  0
VERTEX
  8
PLAN_1
  6
CONTINUOUS
 10
1.182209
 20
-3.231693
  0
VERTEX
  8
PLAN_1
  6
CONTINUOUS
 10
1.177717
 20
-3.230465
  0
VERTEX
  8
PLAN_1
  6
CONTINUOUS
 10
1.173634
 20
-3.229240
  0
VERTEX
  8
PLAN_1
  6
CONTINUOUS
 10
1.169551
 20
-3.227610
  0
VERTEX
  8
PLAN_1
  6
CONTINUOUS
 10
1.165878
 20
-3.225567
  0
VERTEX
  8
PLAN_1
  6
CONTINUOUS
 10
1.162610
 20
-3.223524
  0
VERTEX
  8
PLAN_1
  6
CONTINUOUS
 10
1.159346
 20
-3.221075
  0
VERTEX
  8
PLAN_1
  6
CONTINUOUS
 10
1.156488
 20
-3.218217
  0
VERTEX
  8
PLAN_1
  6
CONTINUOUS
 10
1.153630
 20
-3.215358
  0
VERTEX
  8
PLAN_1
  6
CONTINUOUS
 10
1.150772
 20
-3.212094
  0
VERTEX
  8
PLAN_1
  6
CONTINUOUS
 10
1.148323
 20
-3.209236
  0
VERTEX
  8
PLAN_1
  6
CONTINUOUS
 10
1.146280
 20
-3.205559
  0
VERTEX
  8
PLAN_1
  6
CONTINUOUS
 10
1.144240
 20
-3.202295
  0
VERTEX
  8
PLAN_1
  6
CONTINUOUS
 10
1.142197
 20
-3.198213
  0
VERTEX
  8
PLAN_1
  6
CONTINUOUS
 10
1.138929
 20
-3.190862
  0
VERTEX
  8
PLAN_1
  6
CONTINUOUS
 10
1.136071
 20
-3.182697
  0
VERTEX
  8
PLAN_1
  6
CONTINUOUS
 10
1.134031
 20
-3.174122
  0
VERTEX
  8
PLAN_1
  6
CONTINUOUS
 10
1.132398
 20
-3.165957
  0
VERTEX
  8
PLAN_1
  6
CONTINUOUS
 10
1.131173
 20
-3.157382
  0
VERTEX
  8
PLAN_1
  6
CONTINUOUS
 10
1.130354
 20
-3.149217
  0
VERTEX
  8
PLAN_1
  6
CONTINUOUS
 10
1.129949
 20
-3.141051
  0
VERTEX
  8
PLAN_1
  6
CONTINUOUS
 10
1.129949
 20
-3.133291
  0
VERTEX
  8
PLAN_1
  6
CONTINUOUS
 10
1.129949
 20
-3.125126
  0
VERTEX
  8
PLAN_1
  6
CONTINUOUS
 10
1.130354
 20
-3.117370
  0
VERTEX
  8
PLAN_1
  6
CONTINUOUS
 10
1.131173
 20
-3.108795
  0
VERTEX
  8
PLAN_1
  6
CONTINUOUS
 10
1.132398
 20
-3.100220
  0
VERTEX
  8
PLAN_1
  6
CONTINUOUS
 10
1.134031
 20
-3.092055
  0
VERTEX
  8
PLAN_1
  6
CONTINUOUS
 10
1.136071
 20
-3.083480
  0
VERTEX
  8
PLAN_1
  6
CONTINUOUS
 10
1.138929
 20
-3.075724
  0
VERTEX
  8
PLAN_1
  6
CONTINUOUS
 10
1.142197
 20
-3.067965
  0
VERTEX
  8
PLAN_1
  6
CONTINUOUS
 10
1.144240
 20
-3.064291
  0
VERTEX
  8
PLAN_1
  6
CONTINUOUS
 10
1.146280
 20
-3.060614
  0
VERTEX
  8
PLAN_1
  6
CONTINUOUS
 10
1.148323
 20
-3.057350
  0
VERTEX
  8
PLAN_1
  6
CONTINUOUS
 10
1.150772
 20
-3.054083
  0
VERTEX
  8
PLAN_1
  6
CONTINUOUS
 10
1.153630
 20
-3.050815
  0
VERTEX
  8
PLAN_1
  6
CONTINUOUS
 10
1.156488
 20
-3.047957
  0
VERTEX
  8
PLAN_1
  6
CONTINUOUS
 10
1.159346
 20
-3.045508
  0
VERTEX
  8
PLAN_1
  6
CONTINUOUS
 10
1.162610
 20
-3.043059
  0
VERTEX
  8
PLAN_1
  6
CONTINUOUS
 10
1.165878
 20
-3.040610
  0
VERTEX
  8
PLAN_1
  6
CONTINUOUS
 10
1.169551
 20
-3.038567
  0
VERTEX
  8
PLAN_1
  6
CONTINUOUS
 10
1.173634
 20
-3.036933
  0
VERTEX
  8
PLAN_1
  6
CONTINUOUS
 10
1.177717
 20
-3.035709
  0
VERTEX
  8
PLAN_1
  6
CONTINUOUS
 10
1.182209
 20
-3.034484
  0
VERTEX
  8
PLAN_1
  6
CONTINUOUS
 10
1.186701
 20
-3.033669
  0
VERTEX
  8
PLAN_1
  6
CONTINUOUS
 10
1.191602
 20
-3.033260
  0
VERTEX
  8
PLAN_1
  6
CONTINUOUS
 10
1.196909
 20
-3.032850
  0
VERTEX
  8
PLAN_1
  6
CONTINUOUS
 10
1.201807
 20
-3.033260
  0
VERTEX
  8
PLAN_1
  6
CONTINUOUS
 10
1.206709
 20
-3.033669
  0
VERTEX
  8
PLAN_1
  6
CONTINUOUS
 10
1.211197
 20
-3.034484
  0
VERTEX
  8
PLAN_1
  6
CONTINUOUS
 10
1.215689
 20
-3.035709
  0
VERTEX
  8
PLAN_1
  6
CONTINUOUS
 10
1.219772
 20
-3.036933
  0
VERTEX
  8
PLAN_1
  6
CONTINUOUS
 10
1.223854
 20
-3.038567
  0
VERTEX
  8
PLAN_1
  6
CONTINUOUS
 10
1.227531
 20
-3.040610
  0
VERTEX
  8
PLAN_1
  6
CONTINUOUS
 10
1.230795
 20
-3.043059
  0
VERTEX
  8
PLAN_1
  6
CONTINUOUS
 10
1.234063
 20
-3.045508
  0
VERTEX
  8
PLAN_1
  6
CONTINUOUS
 10
1.236921
 20
-3.047957
  0
VERTEX
  8
PLAN_1
  6
CONTINUOUS
 10
1.239780
 20
-3.050815
  0
VERTEX
  8
PLAN_1
  6
CONTINUOUS
 10
1.242638
 20
-3.054083
  0
VERTEX
  8
PLAN_1
  6
CONTINUOUS
 10
1.245087
 20
-3.057350
  0
VERTEX
  8
PLAN_1
  6
CONTINUOUS
 10
1.247130
 20
-3.060614
  0
VERTEX
  8
PLAN_1
  6
CONTINUOUS
 10
1.249169
 20
-3.064291
  0
VERTEX
  8
PLAN_1
  6
CONTINUOUS
 10
1.251213
 20
-3.067965
  0
VERTEX
  8
PLAN_1
  6
CONTINUOUS
 10
1.254476
 20
-3.075724
  0
VERTEX
  8
PLAN_1
  6
CONTINUOUS
 10
1.257335
 20
-3.083480
  0
VERTEX
  8
PLAN_1
  6
CONTINUOUS
 10
1.259378
 20
-3.092055
  0
VERTEX
  8
PLAN_1
  6
CONTINUOUS
 10
1.261012
 20
-3.100220
  0
VERTEX
  8
PLAN_1
  6
CONTINUOUS
 10
1.262236
 20
-3.108795
  0
VERTEX
  8
PLAN_1
  6
CONTINUOUS
 10
1.263051
 20
-3.117370
  0
VERTEX
  8
PLAN_1
  6
CONTINUOUS
 10
1.263461
 20
-3.125126
  0
VERTEX
  8
PLAN_1
  6
CONTINUOUS
 10
1.263461
 20
-3.133291
  0
VERTEX
  8
PLAN_1
  6
CONTINUOUS
 10
1.263461
 20
-3.141051
  0
VERTEX
  8
PLAN_1
  6
CONTINUOUS
 10
1.263051
 20
-3.149217
  0
VERTEX
  8
PLAN_1
  6
CONTINUOUS
 10
1.262236
 20
-3.157382
  0
VERTEX
  8
PLAN_1
  6
CONTINUOUS
 10
1.261012
 20
-3.165957
  0
VERTEX
  8
PLAN_1
  6
CONTINUOUS
 10
1.259378
 20
-3.174122
  0
VERTEX
  8
PLAN_1
  6
CONTINUOUS
 10
1.257335
 20
-3.182697
  0
VERTEX
  8
PLAN_1
  6
CONTINUOUS
 10
1.254476
 20
-3.190862
  0
VERTEX
  8
PLAN_1
  6
CONTINUOUS
 10
1.251213
 20
-3.198213
  0
VERTEX
  8
PLAN_1
  6
CONTINUOUS
 10
1.249169
 20
-3.202295
  0
VERTEX
  8
PLAN_1
  6
CONTINUOUS
 10
1.247130
 20
-3.205559
  0
VERTEX
  8
PLAN_1
  6
CONTINUOUS
 10
1.245087
 20
-3.209236
  0
VERTEX
  8
PLAN_1
  6
CONTINUOUS
 10
1.242638
 20
-3.212094
  0
VERTEX
  8
PLAN_1
  6
CONTINUOUS
 10
1.239780
 20
-3.215358
  0
VERTEX
  8
PLAN_1
  6
CONTINUOUS
 10
1.236921
 20
-3.218217
  0
VERTEX
  8
PLAN_1
  6
CONTINUOUS
 10
1.234063
 20
-3.221075
  0
VERTEX
  8
PLAN_1
  6
CONTINUOUS
 10
1.230795
 20
-3.223524
  0
VERTEX
  8
PLAN_1
  6
CONTINUOUS
 10
1.227531
 20
-3.225567
  0
VERTEX
  8
PLAN_1
  6
CONTINUOUS
 10
1.223854
 20
-3.227610
  0
VERTEX
  8
PLAN_1
  6
CONTINUOUS
 10
1.219772
 20
-3.229240
  0
VERTEX
  8
PLAN_1
  6
CONTINUOUS
 10
1.215689
 20
-3.230465
  0
VERTEX
  8
PLAN_1
  6
CONTINUOUS
 10
1.211197
 20
-3.231693
  0
VERTEX
  8
PLAN_1
  6
CONTINUOUS
 10
1.206709
 20
-3.232508
  0
VERTEX
  8
PLAN_1
  6
CONTINUOUS
 10
1.201807
 20
-3.233323
  0
VERTEX
  8
PLAN_1
  6
CONTINUOUS
 10
1.196909
 20
-3.233323
  0
SEQEND
  8
0
  0
POLYLINE
  8
PLAN_1
  6
CONTINUOUS
 66
     1
 40
0.003000
 41
0.003000
  0
VERTEX
  8
PLAN_1
  6
CONTINUOUS
 10
1.196909
 20
-3.054898
  0
VERTEX
  8
PLAN_1
  6
CONTINUOUS
 10
1.191602
 20
-3.055307
  0
VERTEX
  8
PLAN_1
  6
CONTINUOUS
 10
1.187110
 20
-3.056126
  0
VERTEX
  8
PLAN_1
  6
CONTINUOUS
 10
1.182618
 20
-3.057756
  0
VERTEX
  8
PLAN_1
  6
CONTINUOUS
 10
1.178535
 20
-3.060209
  0
VERTEX
  8
PLAN_1
  6
CONTINUOUS
 10
1.174862
 20
-3.063067
  0
VERTEX
  8
PLAN_1
  6
CONTINUOUS
 10
1.171594
 20
-3.066740
  0
VERTEX
  8
PLAN_1
  6
CONTINUOUS
 10
1.168327
 20
-3.070823
  0
VERTEX
  8
PLAN_1
  6
CONTINUOUS
 10
1.165878
 20
-3.075724
  0
VERTEX
  8
PLAN_1
  6
CONTINUOUS
 10
1.163429
 20
-3.081031
  0
VERTEX
  8
PLAN_1
  6
CONTINUOUS
 10
1.161386
 20
-3.086748
  0
VERTEX
  8
PLAN_1
  6
CONTINUOUS
 10
1.159752
 20
-3.093280
  0
VERTEX
  8
PLAN_1
  6
CONTINUOUS
 10
1.158528
 20
-3.100220
  0
VERTEX
  8
PLAN_1
  6
CONTINUOUS
 10
1.157303
 20
-3.107571
  0
VERTEX
  8
PLAN_1
  6
CONTINUOUS
 10
1.156488
 20
-3.115736
  0
VERTEX
  8
PLAN_1
  6
CONTINUOUS
 10
1.156079
 20
-3.124311
  0
VERTEX
  8
PLAN_1
  6
CONTINUOUS
 10
1.156079
 20
-3.133291
  0
VERTEX
  8
PLAN_1
  6
CONTINUOUS
 10
1.156079
 20
-3.141866
  0
VERTEX
  8
PLAN_1
  6
CONTINUOUS
 10
1.156488
 20
-3.150441
  0
VERTEX
  8
PLAN_1
  6
CONTINUOUS
 10
1.157303
 20
-3.158606
  0
VERTEX
  8
PLAN_1
  6
CONTINUOUS
 10
1.158528
 20
-3.165957
  0
VERTEX
  8
PLAN_1
  6
CONTINUOUS
 10
1.159752
 20
-3.172898
  0
VERTEX
  8
PLAN_1
  6
CONTINUOUS
 10
1.161386
 20
-3.179429
  0
VERTEX
  8
PLAN_1
  6
CONTINUOUS
 10
1.163429
 20
-3.185146
  0
VERTEX
  8
PLAN_1
  6
CONTINUOUS
 10
1.165878
 20
-3.190453
  0
VERTEX
  8
PLAN_1
  6
CONTINUOUS
 10
1.168327
 20
-3.195354
  0
VERTEX
  8
PLAN_1
  6
CONTINUOUS
 10
1.171594
 20
-3.199437
  0
VERTEX
  8
PLAN_1
  6
CONTINUOUS
 10
1.174862
 20
-3.203110
  0
VERTEX
  8
PLAN_1
  6
CONTINUOUS
 10
1.178535
 20
-3.205969
  0
VERTEX
  8
PLAN_1
  6
CONTINUOUS
 10
1.182618
 20
-3.208417
  0
VERTEX
  8
PLAN_1
  6
CONTINUOUS
 10
1.187110
 20
-3.210051
  0
VERTEX
  8
PLAN_1
  6
CONTINUOUS
 10
1.191602
 20
-3.210870
  0
VERTEX
  8
PLAN_1
  6
CONTINUOUS
 10
1.196909
 20
-3.211276
  0
VERTEX
  8
PLAN_1
  6
CONTINUOUS
 10
1.201807
 20
-3.210870
  0
VERTEX
  8
PLAN_1
  6
CONTINUOUS
 10
1.206709
 20
-3.210051
  0
VERTEX
  8
PLAN_1
  6
CONTINUOUS
 10
1.210791
 20
-3.208417
  0
VERTEX
  8
PLAN_1
  6
CONTINUOUS
 10
1.214874
 20
-3.205969
  0
VERTEX
  8
PLAN_1
  6
CONTINUOUS
 10
1.218547
 20
-3.203110
  0
VERTEX
  8
PLAN_1
  6
CONTINUOUS
 10
1.221815
 20
-3.199437
  0
VERTEX
  8
PLAN_1
  6
CONTINUOUS
 10
1.225079
 20
-3.195354
  0
VERTEX
  8
PLAN_1
  6
CONTINUOUS
 10
1.227531
 20
-3.190453
  0
VERTEX
  8
PLAN_1
  6
CONTINUOUS
 10
1.229980
 20
-3.185146
  0
VERTEX
  8
PLAN_1
  6
CONTINUOUS
 10
1.232024
 20
-3.179429
  0
VERTEX
  8
PLAN_1
  6
CONTINUOUS
 10
1.233654
 20
-3.172898
  0
VERTEX
  8
PLAN_1
  6
CONTINUOUS
 10
1.235287
 20
-3.165957
  0
VERTEX
  8
PLAN_1
  6
CONTINUOUS
 10
1.236106
 20
-3.158606
  0
VERTEX
  8
PLAN_1
  6
CONTINUOUS
 10
1.236921
 20
-3.150441
  0
VERTEX
  8
PLAN_1
  6
CONTINUOUS
 10
1.237331
 20
-3.141866
  0
VERTEX
  8
PLAN_1
  6
CONTINUOUS
 10
1.237331
 20
-3.133291
  0
VERTEX
  8
PLAN_1
  6
CONTINUOUS
 10
1.237331
 20
-3.124311
  0
VERTEX
  8
PLAN_1
  6
CONTINUOUS
 10
1.236921
 20
-3.115736
  0
VERTEX
  8
PLAN_1
  6
CONTINUOUS
 10
1.236106
 20
-3.107571
  0
VERTEX
  8
PLAN_1
  6
CONTINUOUS
 10
1.235287
 20
-3.100220
  0
VERTEX
  8
PLAN_1
  6
CONTINUOUS
 10
1.233654
 20
-3.093280
  0
VERTEX
  8
PLAN_1
  6
CONTINUOUS
 10
1.232024
 20
-3.086748
  0
VERTEX
  8
PLAN_1
  6
CONTINUOUS
 10
1.229980
 20
-3.081031
  0
VERTEX
  8
PLAN_1
  6
CONTINUOUS
 10
1.227531
 20
-3.075724
  0
VERTEX
  8
PLAN_1
  6
CONTINUOUS
 10
1.225079
 20
-3.070823
  0
VERTEX
  8
PLAN_1
  6
CONTINUOUS
 10
1.221815
 20
-3.066740
  0
VERTEX
  8
PLAN_1
  6
CONTINUOUS
 10
1.218547
 20
-3.063067
  0
VERTEX
  8
PLAN_1
  6
CONTINUOUS
 10
1.214874
 20
-3.060209
  0
VERTEX
  8
PLAN_1
  6
CONTINUOUS
 10
1.210791
 20
-3.057756
  0
VERTEX
  8
PLAN_1
  6
CONTINUOUS
 10
1.206709
 20
-3.056126
  0
VERTEX
  8
PLAN_1
  6
CONTINUOUS
 10
1.201807
 20
-3.055307
  0
VERTEX
  8
PLAN_1
  6
CONTINUOUS
 10
1.196909
 20
-3.054898
  0
SEQEND
  8
0
  0
SOLID
  8
PLAN_1
 10
1.274075
 20
-3.262720
 11
1.274075
 21
-3.248839
 12
1.428413
 22
-3.262720
 13
1.428413
 23
-3.248839
  0
POLYLINE
  8
PLAN_1
  6
CONTINUOUS
 66
     1
 40
0.003000
 41
0.003000
  0
VERTEX
  8
PLAN_1
  6
CONTINUOUS
 10
1.274075
 20
-3.262720
  0
VERTEX
  8
PLAN_1
  6
CONTINUOUS
 10
1.274075
 20
-3.248839
  0
VERTEX
  8
PLAN_1
  6
CONTINUOUS
 10
1.428413
 20
-3.248839
  0
VERTEX
  8
PLAN_1
  6
CONTINUOUS
 10
1.428413
 20
-3.262720
  0
VERTEX
  8
PLAN_1
  6
CONTINUOUS
 10
1.274075
 20
-3.262720
  0
SEQEND
  8
0
  0
POLYLINE
  8
PLAN_1
  6
CONTINUOUS
 66
     1
 40
0.003000
 41
0.003000
  0
VERTEX
  8
PLAN_1
  6
CONTINUOUS
 10
1.479039
 20
-3.228016
  0
VERTEX
  8
PLAN_1
  6
CONTINUOUS
 10
1.452094
 20
-3.228016
  0
VERTEX
  8
PLAN_1
  6
CONTINUOUS
 10
1.452094
 20
-3.028768
  0
VERTEX
  8
PLAN_1
  6
CONTINUOUS
 10
1.590098
 20
-3.028768
  0
VERTEX
  8
PLAN_1
  6
CONTINUOUS
 10
1.590098
 20
-3.052449
  0
VERTEX
  8
PLAN_1
  6
CONTINUOUS
 10
1.479039
 20
-3.052449
  0
VERTEX
  8
PLAN_1
  6
CONTINUOUS
 10
1.479039
 20
-3.113693
  0
VERTEX
  8
PLAN_1
  6
CONTINUOUS
 10
1.576622
 20
-3.113693
  0
VERTEX
  8
PLAN_1
  6
CONTINUOUS
 10
1.576622
 20
-3.137374
  0
VERTEX
  8
PLAN_1
  6
CONTINUOUS
 10
1.479039
 20
-3.137374
  0
VERTEX
  8
PLAN_1
  6
CONTINUOUS
 10
1.479039
 20
-3.228016
  0
SEQEND
  8
0
  0
SOLID
  8
PLAN_1
 10
1.609287
 20
-3.228016
 11
1.580299
 21
-3.228016
 12
1.609287
 22
-3.198618
 13
1.580299
 23
-3.198618
  0
POLYLINE
  8
PLAN_1
  6
CONTINUOUS
 66
     1
 40
0.003000
 41
0.003000
  0
VERTEX
  8
PLAN_1
  6
CONTINUOUS
 10
1.609287
 20
-3.228016
  0
VERTEX
  8
PLAN_1
  6
CONTINUOUS
 10
1.580299
 20
-3.228016
  0
VERTEX
  8
PLAN_1
  6
CONTINUOUS
 10
1.580299
 20
-3.198618
  0
VERTEX
  8
PLAN_1
  6
CONTINUOUS
 10
1.609287
 20
-3.198618
  0
VERTEX
  8
PLAN_1
  6
CONTINUOUS
 10
1.609287
 20
-3.228016
  0
SEQEND
  8
0
  0
POLYLINE
  8
PLAN_1
  6
CONTINUOUS
 66
     1
 40
0.003000
 41
0.003000
  0
VERTEX
  8
PLAN_1
  6
CONTINUOUS
 10
1.804453
 20
-3.228016
  0
VERTEX
  8
PLAN_1
  6
CONTINUOUS
 10
1.657465
 20
-3.228016
  0
VERTEX
  8
PLAN_1
  6
CONTINUOUS
 10
1.657465
 20
-3.028768
  0
VERTEX
  8
PLAN_1
  6
CONTINUOUS
 10
1.802409
 20
-3.028768
  0
VERTEX
  8
PLAN_1
  6
CONTINUOUS
 10
1.802409
 20
-3.052449
  0
VERTEX
  8
PLAN_1
  6
CONTINUOUS
 10
1.684413
 20
-3.052449
  0
VERTEX
  8
PLAN_1
  6
CONTINUOUS
 10
1.684413
 20
-3.113693
  0
VERTEX
  8
PLAN_1
  6
CONTINUOUS
 10
1.793429
 20
-3.113693
  0
VERTEX
  8
PLAN_1
  6
CONTINUOUS
 10
1.793429
 20
-3.137374
  0
VERTEX
  8
PLAN_1
  6
CONTINUOUS
 10
1.684413
 20
-3.137374
  0
VERTEX
  8
PLAN_1
  6
CONTINUOUS
 10
1.684413
 20
-3.204335
  0
VERTEX
  8
PLAN_1
  6
CONTINUOUS
 10
1.804453
 20
-3.204335
  0
VERTEX
  8
PLAN_1
  6
CONTINUOUS
 10
1.804453
 20
-3.228016
  0
SEQEND
  8
0
  0
POLYLINE
  8
PLAN_1
  6
CONTINUOUS
 66
     1
 40
0.003000
 41
0.003000
  0
VERTEX
  8
PLAN_1
  6
CONTINUOUS
 10
1.869370
 20
-3.228016
  0
VERTEX
  8
PLAN_1
  6
CONTINUOUS
 10
1.842421
 20
-3.228016
  0
VERTEX
  8
PLAN_1
  6
CONTINUOUS
 10
1.842421
 20
-3.028768
  0
VERTEX
  8
PLAN_1
  6
CONTINUOUS
 10
1.932248
 20
-3.028768
  0
VERTEX
  8
PLAN_1
  6
CONTINUOUS
 10
1.938780
 20
-3.029177
  0
VERTEX
  8
PLAN_1
  6
CONTINUOUS
 10
1.945315
 20
-3.029992
  0
VERTEX
  8
PLAN_1
  6
CONTINUOUS
 10
1.951437
 20
-3.031217
  0
VERTEX
  8
PLAN_1
  6
CONTINUOUS
 10
1.957154
 20
-3.032850
  0
VERTEX
  8
PLAN_1
  6
CONTINUOUS
 10
1.962461
 20
-3.035303
  0
VERTEX
  8
PLAN_1
  6
CONTINUOUS
 10
1.966953
 20
-3.038157
  0
VERTEX
  8
PLAN_1
  6
CONTINUOUS
 10
1.971445
 20
-3.041016
  0
VERTEX
  8
PLAN_1
  6
CONTINUOUS
 10
1.975528
 20
-3.044693
  0
VERTEX
  8
PLAN_1
  6
CONTINUOUS
 10
1.979201
 20
-3.048776
  0
VERTEX
  8
PLAN_1
  6
CONTINUOUS
 10
1.982469
 20
-3.052858
  0
VERTEX
  8
PLAN_1
  6
CONTINUOUS
 10
1.984917
 20
-3.057350
  0
VERTEX
  8
PLAN_1
  6
CONTINUOUS
 10
1.987366
 20
-3.062657
  0
VERTEX
  8
PLAN_1
  6
CONTINUOUS
 10
1.989000
 20
-3.067555
  0
VERTEX
  8
PLAN_1
  6
CONTINUOUS
 10
1.990224
 20
-3.073272
  0
VERTEX
  8
PLAN_1
  6
CONTINUOUS
 10
1.991043
 20
-3.078988
  0
VERTEX
  8
PLAN_1
  6
CONTINUOUS
 10
1.991449
 20
-3.084705
  0
VERTEX
  8
PLAN_1
  6
CONTINUOUS
 10
1.991043
 20
-3.090012
  0
VERTEX
  8
PLAN_1
  6
CONTINUOUS
 10
1.990634
 20
-3.095319
  0
VERTEX
  8
PLAN_1
  6
CONTINUOUS
 10
1.989409
 20
-3.100630
  0
VERTEX
  8
PLAN_1
  6
CONTINUOUS
 10
1.988185
 20
-3.105937
  0
VERTEX
  8
PLAN_1
  6
CONTINUOUS
 10
1.986142
 20
-3.110835
  0
VERTEX
  8
PLAN_1
  6
CONTINUOUS
 10
1.984102
 20
-3.115736
  0
VERTEX
  8
PLAN_1
  6
CONTINUOUS
 10
1.981244
 20
-3.120228
  0
VERTEX
  8
PLAN_1
  6
CONTINUOUS
 10
1.977976
 20
-3.124717
  0
VERTEX
  8
PLAN_1
  6
CONTINUOUS
 10
1.974303
 20
-3.128799
  0
VERTEX
  8
PLAN_1
  6
CONTINUOUS
 10
1.969811
 20
-3.132476
  0
VERTEX
  8
PLAN_1
  6
CONTINUOUS
 10
1.964913
 20
-3.135740
  0
VERTEX
  8
PLAN_1
  6
CONTINUOUS
 10
1.959602
 20
-3.138598
  0
VERTEX
  8
PLAN_1
  6
CONTINUOUS
 10
1.953886
 20
-3.141051
  0
VERTEX
  8
PLAN_1
  6
CONTINUOUS
 10
1.947354
 20
-3.142681
  0
VERTEX
  8
PLAN_1
  6
CONTINUOUS
 10
1.940004
 20
-3.143500
  0
VERTEX
  8
PLAN_1
  6
CONTINUOUS
 10
1.932248
 20
-3.143909
  0
VERTEX
  8
PLAN_1
  6
CONTINUOUS
 10
1.869370
 20
-3.143909
  0
VERTEX
  8
PLAN_1
  6
CONTINUOUS
 10
1.869370
 20
-3.228016
  0
SEQEND
  8
0
  0
POLYLINE
  8
PLAN_1
  6
CONTINUOUS
 66
     1
 40
0.003000
 41
0.003000
  0
VERTEX
  8
PLAN_1
  6
CONTINUOUS
 10
1.869370
 20
-3.121043
  0
VERTEX
  8
PLAN_1
  6
CONTINUOUS
 10
1.922858
 20
-3.121043
  0
VERTEX
  8
PLAN_1
  6
CONTINUOUS
 10
1.927346
 20
-3.120634
  0
VERTEX
  8
PLAN_1
  6
CONTINUOUS
 10
1.931839
 20
-3.120634
  0
VERTEX
  8
PLAN_1
  6
CONTINUOUS
 10
1.935921
 20
-3.119819
  0
VERTEX
  8
PLAN_1
  6
CONTINUOUS
 10
1.939598
 20
-3.119000
  0
VERTEX
  8
PLAN_1
  6
CONTINUOUS
 10
1.943272
 20
-3.118185
  0
VERTEX
  8
PLAN_1
  6
CONTINUOUS
 10
1.946539
 20
-3.116551
  0
VERTEX
  8
PLAN_1
  6
CONTINUOUS
 10
1.949398
 20
-3.114917
  0
VERTEX
  8
PLAN_1
  6
CONTINUOUS
 10
1.952256
 20
-3.113287
  0
VERTEX
  8
PLAN_1
  6
CONTINUOUS
 10
1.954705
 20
-3.110835
  0
VERTEX
  8
PLAN_1
  6
CONTINUOUS
 10
1.957154
 20
-3.108386
  0
VERTEX
  8
PLAN_1
  6
CONTINUOUS
 10
1.959197
 20
-3.105528
  0
VERTEX
  8
PLAN_1
  6
CONTINUOUS
 10
1.960827
 20
-3.101854
  0
VERTEX
  8
PLAN_1
  6
CONTINUOUS
 10
1.962055
 20
-3.098587
  0
VERTEX
  8
PLAN_1
  6
CONTINUOUS
 10
1.962870
 20
-3.094504
  0
VERTEX
  8
PLAN_1
  6
CONTINUOUS
 10
1.963280
 20
-3.090012
  0
VERTEX
  8
PLAN_1
  6
CONTINUOUS
 10
1.963685
 20
-3.085114
  0
VERTEX
  8
PLAN_1
  6
CONTINUOUS
 10
1.963280
 20
-3.080622
  0
VERTEX
  8
PLAN_1
  6
CONTINUOUS
 10
1.962870
 20
-3.076539
  0
VERTEX
  8
PLAN_1
  6
CONTINUOUS
 10
1.961646
 20
-3.072457
  0
VERTEX
  8
PLAN_1
  6
CONTINUOUS
 10
1.960421
 20
-3.069189
  0
VERTEX
  8
PLAN_1
  6
CONTINUOUS
 10
1.958787
 20
-3.066331
  0
VERTEX
  8
PLAN_1
  6
CONTINUOUS
 10
1.957154
 20
-3.063472
  0
VERTEX
  8
PLAN_1
  6
CONTINUOUS
 10
1.954705
 20
-3.061024
  0
VERTEX
  8
PLAN_1
  6
CONTINUOUS
 10
1.952256
 20
-3.058984
  0
VERTEX
  8
PLAN_1
  6
CONTINUOUS
 10
1.949398
 20
-3.057350
  0
VERTEX
  8
PLAN_1
  6
CONTINUOUS
 10
1.946539
 20
-3.055717
  0
VERTEX
  8
PLAN_1
  6
CONTINUOUS
 10
1.943272
 20
-3.054492
  0
VERTEX
  8
PLAN_1
  6
CONTINUOUS
 10
1.939598
 20
-3.053268
  0
VERTEX
  8
PLAN_1
  6
CONTINUOUS
 10
1.935921
 20
-3.052858
  0
VERTEX
  8
PLAN_1
  6
CONTINUOUS
 10
1.932248
 20
-3.052043
  0
VERTEX
  8
PLAN_1
  6
CONTINUOUS
 10
1.928165
 20
-3.052043
  0
VERTEX
  8
PLAN_1
  6
CONTINUOUS
 10
1.924083
 20
-3.051634
  0
VERTEX
  8
PLAN_1
  6
CONTINUOUS
 10
1.869370
 20
-3.051634
  0
VERTEX
  8
PLAN_1
  6
CONTINUOUS
 10
1.869370
 20
-3.121043
  0
SEQEND
  8
0
  0
POLYLINE
  8
PLAN_1
  6
CONTINUOUS
 66
     1
 40
0.003000
 41
0.003000
  0
VERTEX
  8
PLAN_1
  6
CONTINUOUS
 10
2.145378
 20
-3.087154
  0
VERTEX
  8
PLAN_1
  6
CONTINUOUS
 10
2.144563
 20
-3.081437
  0
VERTEX
  8
PLAN_1
  6
CONTINUOUS
 10
2.143744
 20
-3.076539
  0
VERTEX
  8
PLAN_1
  6
CONTINUOUS
 10
2.142110
 20
-3.072047
  0
VERTEX
  8
PLAN_1
  6
CONTINUOUS
 10
2.140071
 20
-3.067555
  0
VERTEX
  8
PLAN_1
  6
CONTINUOUS
 10
2.137622
 20
-3.063882
  0
VERTEX
  8
PLAN_1
  6
CONTINUOUS
 10
2.134764
 20
-3.060614
  0
VERTEX
  8
PLAN_1
  6
CONTINUOUS
 10
2.131906
 20
-3.057756
  0
VERTEX
  8
PLAN_1
  6
CONTINUOUS
 10
2.128228
 20
-3.055307
  0
VERTEX
  8
PLAN_1
  6
CONTINUOUS
 10
2.124965
 20
-3.052858
  0
VERTEX
  8
PLAN_1
  6
CONTINUOUS
 10
2.120882
 20
-3.051224
  0
VERTEX
  8
PLAN_1
  6
CONTINUOUS
 10
2.116795
 20
-3.049591
  0
VERTEX
  8
PLAN_1
  6
CONTINUOUS
 10
2.112713
 20
-3.048366
  0
VERTEX
  8
PLAN_1
  6
CONTINUOUS
 10
2.108630
 20
-3.047551
  0
VERTEX
  8
PLAN_1
  6
CONTINUOUS
 10
2.104142
 20
-3.047142
  0
VERTEX
  8
PLAN_1
  6
CONTINUOUS
 10
2.100059
 20
-3.046732
  0
VERTEX
  8
PLAN_1
  6
CONTINUOUS
 10
2.095972
 20
-3.046327
  0
VERTEX
  8
PLAN_1
  6
CONTINUOUS
 10
2.089031
 20
-3.046732
  0
VERTEX
  8
PLAN_1
  6
CONTINUOUS
 10
2.081685
 20
-3.047551
  0
VERTEX
  8
PLAN_1
  6
CONTINUOUS
 10
2.077602
 20
-3.048366
  0
VERTEX
  8
PLAN_1
  6
CONTINUOUS
 10
2.073925
 20
-3.049591
  0
VERTEX
  8
PLAN_1
  6
CONTINUOUS
 10
2.070252
 20
-3.050815
  0
VERTEX
  8
PLAN_1
  6
CONTINUOUS
 10
2.066579
 20
-3.052858
  0
VERTEX
  8
PLAN_1
  6
CONTINUOUS
 10
2.063311
 20
-3.054898
  0
VERTEX
  8
PLAN_1
  6
CONTINUOUS
 10
2.060043
 20
-3.056941
  0
VERTEX
  8
PLAN_1
  6
CONTINUOUS
 10
2.057594
 20
-3.059799
  0
VERTEX
  8
PLAN_1
  6
CONTINUOUS
 10
2.055146
 20
-3.063067
  0
VERTEX
  8
PLAN_1
  6
CONTINUOUS
 10
2.053102
 20
-3.067150
  0
VERTEX
  8
PLAN_1
  6
CONTINUOUS
 10
2.051469
 20
-3.071232
  0
VERTEX
  8
PLAN_1
  6
CONTINUOUS
 10
2.050654
 20
-3.076130
  0
VERTEX
  8
PLAN_1
  6
CONTINUOUS
 10
2.050244
 20
-3.081437
  0
VERTEX
  8
PLAN_1
  6
CONTINUOUS
 10
2.050244
 20
-3.084705
  0
VERTEX
  8
PLAN_1
  6
CONTINUOUS
 10
2.050654
 20
-3.087154
  0
VERTEX
  8
PLAN_1
  6
CONTINUOUS
 10
2.051469
 20
-3.090012
  0
VERTEX
  8
PLAN_1
  6
CONTINUOUS
 10
2.052287
 20
-3.092055
  0
VERTEX
  8
PLAN_1
  6
CONTINUOUS
 10
2.053512
 20
-3.094094
  0
VERTEX
  8
PLAN_1
  6
CONTINUOUS
 10
2.054736
 20
-3.096138
  0
VERTEX
  8
PLAN_1
  6
CONTINUOUS
 10
2.055961
 20
-3.097772
  0
VERTEX
  8
PLAN_1
  6
CONTINUOUS
 10
2.057594
 20
-3.099406
  0
VERTEX
  8
PLAN_1
  6
CONTINUOUS
 10
2.061268
 20
-3.101854
  0
VERTEX
  8
PLAN_1
  6
CONTINUOUS
 10
2.065350
 20
-3.103894
  0
VERTEX
  8
PLAN_1
  6
CONTINUOUS
 10
2.069433
 20
-3.105528
  0
VERTEX
  8
PLAN_1
  6
CONTINUOUS
 10
2.073925
 20
-3.106752
  0
VERTEX
  8
PLAN_1
  6
CONTINUOUS
 10
2.130681
 20
-3.119819
  0
VERTEX
  8
PLAN_1
  6
CONTINUOUS
 10
2.135579
 20
-3.121043
  0
VERTEX
  8
PLAN_1
  6
CONTINUOUS
 10
2.140071
 20
-3.122677
  0
VERTEX
  8
PLAN_1
  6
CONTINUOUS
 10
2.144563
 20
-3.124311
  0
VERTEX
  8
PLAN_1
  6
CONTINUOUS
 10
2.148646
 20
-3.126350
  0
VERTEX
  8
PLAN_1
  6
CONTINUOUS
 10
2.152728
 20
-3.128394
  0
VERTEX
  8
PLAN_1
  6
CONTINUOUS
 10
2.156402
 20
-3.130843
  0
VERTEX
  8
PLAN_1
  6
CONTINUOUS
 10
2.160075
 20
-3.133701
  0
VERTEX
  8
PLAN_1
  6
CONTINUOUS
 10
2.162933
 20
-3.136969
  0
VERTEX
  8
PLAN_1
  6
CONTINUOUS
 10
2.165791
 20
-3.140232
  0
VERTEX
  8
PLAN_1
  6
CONTINUOUS
 10
2.168650
 20
-3.143909
  0
VERTEX
  8
PLAN_1
  6
CONTINUOUS
 10
2.170693
 20
-3.147992
  0
VERTEX
  8
PLAN_1
  6
CONTINUOUS
 10
2.172732
 20
-3.152075
  0
VERTEX
  8
PLAN_1
  6
CONTINUOUS
 10
2.173957
 20
-3.156972
  0
VERTEX
  8
PLAN_1
  6
CONTINUOUS
 10
2.175185
 20
-3.161874
  0
VERTEX
  8
PLAN_1
  6
CONTINUOUS
 10
2.175591
 20
-3.167181
  0
VERTEX
  8
PLAN_1
  6
CONTINUOUS
 10
2.176000
 20
-3.172898
  0
VERTEX
  8
PLAN_1
  6
CONTINUOUS
 10
2.176000
 20
-3.177390
  0
VERTEX
  8
PLAN_1
  6
CONTINUOUS
 10
2.175591
 20
-3.181472
  0
VERTEX
  8
PLAN_1
  6
CONTINUOUS
 10
2.174776
 20
-3.185555
  0
VERTEX
  8
PLAN_1
  6
CONTINUOUS
 10
2.173957
 20
-3.189228
  0
VERTEX
  8
PLAN_1
  6
CONTINUOUS
 10
2.173142
 20
-3.192902
  0
VERTEX
  8
PLAN_1
  6
CONTINUOUS
 10
2.171917
 20
-3.196169
  0
VERTEX
  8
PLAN_1
  6
CONTINUOUS
 10
2.170283
 20
-3.199437
  0
VERTEX
  8
PLAN_1
  6
CONTINUOUS
 10
2.168650
 20
-3.202295
  0
VERTEX
  8
PLAN_1
  6
CONTINUOUS
 10
2.166610
 20
-3.205154
  0
VERTEX
  8
PLAN_1
  6
CONTINUOUS
 10
2.164976
 20
-3.208012
  0
VERTEX
  8
PLAN_1
  6
CONTINUOUS
 10
2.162528
 20
-3.210461
  0
VERTEX
  8
PLAN_1
  6
CONTINUOUS
 10
2.160484
 20
-3.212909
  0
VERTEX
  8
PLAN_1
  6
CONTINUOUS
 10
2.155177
 20
-3.216992
  0
VERTEX
  8
PLAN_1
  6
CONTINUOUS
 10
2.149870
 20
-3.221075
  0
VERTEX
  8
PLAN_1
  6
CONTINUOUS
 10
2.143744
 20
-3.223933
  0
VERTEX
  8
PLAN_1
  6
CONTINUOUS
 10
2.137622
 20
-3.226791
  0
VERTEX
  8
PLAN_1
  6
CONTINUOUS
 10
2.131087
 20
-3.228835
  0
VERTEX
  8
PLAN_1
  6
CONTINUOUS
 10
2.124555
 20
-3.230465
  0
VERTEX
  8
PLAN_1
  6
CONTINUOUS
 10
2.118024
 20
-3.231693
  0
VERTEX
  8
PLAN_1
  6
CONTINUOUS
 10
2.111083
 20
-3.232508
  0
VERTEX
  8
PLAN_1
  6
CONTINUOUS
 10
2.104547
 20
-3.233323
  0
VERTEX
  8
PLAN_1
  6
CONTINUOUS
 10
2.098016
 20
-3.233323
  0
VERTEX
  8
PLAN_1
  6
CONTINUOUS
 10
2.091484
 20
-3.233323
  0
VERTEX
  8
PLAN_1
  6
CONTINUOUS
 10
2.085358
 20
-3.232917
  0
VERTEX
  8
PLAN_1
  6
CONTINUOUS
 10
2.079642
 20
-3.232098
  0
VERTEX
  8
PLAN_1
  6
CONTINUOUS
 10
2.074335
 20
-3.231283
  0
VERTEX
  8
PLAN_1
  6
CONTINUOUS
 10
2.069433
 20
-3.230465
  0
VERTEX
  8
PLAN_1
  6
CONTINUOUS
 10
2.064945
 20
-3.229240
  0
VERTEX
  8
PLAN_1
  6
CONTINUOUS
 10
2.060862
 20
-3.228016
  0
VERTEX
  8
PLAN_1
  6
CONTINUOUS
 10
2.057185
 20
-3.226791
  0
VERTEX
  8
PLAN_1
  6
CONTINUOUS
 10
2.051063
 20
-3.223933
  0
VERTEX
  8
PLAN_1
  6
CONTINUOUS
 10
2.045752
 20
-3.220665
  0
VERTEX
  8
PLAN_1
  6
CONTINUOUS
 10
2.041264
 20
-3.217402
  0
VERTEX
  8
PLAN_1
  6
CONTINUOUS
 10
2.037587
 20
-3.214134
  0
VERTEX
  8
PLAN_1
  6
CONTINUOUS
 10
2.034728
 20
-3.211276
  0
VERTEX
  8
PLAN_1
  6
CONTINUOUS
 10
2.031870
 20
-3.208417
  0
VERTEX
  8
PLAN_1
  6
CONTINUOUS
 10
2.029421
 20
-3.205559
  0
VERTEX
  8
PLAN_1
  6
CONTINUOUS
 10
2.027382
 20
-3.202295
  0
VERTEX
  8
PLAN_1
  6
CONTINUOUS
 10
2.025748
 20
-3.199437
  0
VERTEX
  8
PLAN_1
  6
CONTINUOUS
 10
2.024114
 20
-3.196169
  0
VERTEX
  8
PLAN_1
  6
CONTINUOUS
 10
2.022480
 20
-3.193311
  0
VERTEX
  8
PLAN_1
  6
CONTINUOUS
 10
2.021256
 20
-3.190043
  0
VERTEX
  8
PLAN_1
  6
CONTINUOUS
 10
2.019622
 20
-3.183921
  0
VERTEX
  8
PLAN_1
  6
CONTINUOUS
 10
2.018398
 20
-3.177390
  0
VERTEX
  8
PLAN_1
  6
CONTINUOUS
 10
2.017583
 20
-3.170449
  0
VERTEX
  8
PLAN_1
  6
CONTINUOUS
 10
2.017583
 20
-3.163508
  0
VERTEX
  8
PLAN_1
  6
CONTINUOUS
 10
2.042898
 20
-3.163508
  0
VERTEX
  8
PLAN_1
  6
CONTINUOUS
 10
2.043303
 20
-3.170039
  0
VERTEX
  8
PLAN_1
  6
CONTINUOUS
 10
2.044122
 20
-3.176161
  0
VERTEX
  8
PLAN_1
  6
CONTINUOUS
 10
2.045752
 20
-3.181472
  0
VERTEX
  8
PLAN_1
  6
CONTINUOUS
 10
2.047795
 20
-3.185961
  0
VERTEX
  8
PLAN_1
  6
CONTINUOUS
 10
2.050244
 20
-3.190453
  0
VERTEX
  8
PLAN_1
  6
CONTINUOUS
 10
2.053512
 20
-3.194130
  0
VERTEX
  8
PLAN_1
  6
CONTINUOUS
 10
2.056780
 20
-3.197394
  0
VERTEX
  8
PLAN_1
  6
CONTINUOUS
 10
2.060862
 20
-3.200661
  0
VERTEX
  8
PLAN_1
  6
CONTINUOUS
 10
2.064945
 20
-3.203110
  0
VERTEX
  8
PLAN_1
  6
CONTINUOUS
 10
2.069028
 20
-3.205154
  0
VERTEX
  8
PLAN_1
  6
CONTINUOUS
 10
2.073520
 20
-3.206783
  0
VERTEX
  8
PLAN_1
  6
CONTINUOUS
 10
2.078417
 20
-3.208012
  0
VERTEX
  8
PLAN_1
  6
CONTINUOUS
 10
2.083319
 20
-3.209236
  0
VERTEX
  8
PLAN_1
  6
CONTINUOUS
 10
2.088217
 20
-3.209642
  0
VERTEX
  8
PLAN_1
  6
CONTINUOUS
 10
2.092709
 20
-3.210051
  0
VERTEX
  8
PLAN_1
  6
CONTINUOUS
 10
2.097606
 20
-3.210461
  0
VERTEX
  8
PLAN_1
  6
CONTINUOUS
 10
2.105366
 20
-3.210051
  0
VERTEX
  8
PLAN_1
  6
CONTINUOUS
 10
2.113941
 20
-3.209236
  0
VERTEX
  8
PLAN_1
  6
CONTINUOUS
 10
2.118429
 20
-3.208417
  0
VERTEX
  8
PLAN_1
  6
CONTINUOUS
 10
2.122921
 20
-3.207193
  0
VERTEX
  8
PLAN_1
  6
CONTINUOUS
 10
2.127004
 20
-3.205969
  0
VERTEX
  8
PLAN_1
  6
CONTINUOUS
 10
2.131087
 20
-3.204335
  0
VERTEX
  8
PLAN_1
  6
CONTINUOUS
 10
2.134764
 20
-3.202295
  0
VERTEX
  8
PLAN_1
  6
CONTINUOUS
 10
2.138437
 20
-3.199843
  0
VERTEX
  8
PLAN_1
  6
CONTINUOUS
 10
2.141705
 20
-3.196984
  0
VERTEX
  8
PLAN_1
  6
CONTINUOUS
 10
2.144563
 20
-3.194130
  0
VERTEX
  8
PLAN_1
  6
CONTINUOUS
 10
2.146602
 20
-3.190453
  0
VERTEX
  8
PLAN_1
  6
CONTINUOUS
 10
2.148646
 20
-3.186370
  0
VERTEX
  8
PLAN_1
  6
CONTINUOUS
 10
2.149461
 20
-3.181878
  0
VERTEX
  8
PLAN_1
  6
CONTINUOUS
 10
2.149870
 20
-3.176571
  0
VERTEX
  8
PLAN_1
  6
CONTINUOUS
 10
2.149870
 20
-3.172898
  0
VERTEX
  8
PLAN_1
  6
CONTINUOUS
 10
2.149461
 20
-3.169630
  0
VERTEX
  8
PLAN_1
  6
CONTINUOUS
 10
2.148646
 20
-3.166362
  0
VERTEX
  8
PLAN_1
  6
CONTINUOUS
 10
2.147827
 20
-3.163508
  0
VERTEX
  8
PLAN_1
  6
CONTINUOUS
 10
2.146602
 20
-3.161055
  0
VERTEX
  8
PLAN_1
  6
CONTINUOUS
 10
2.144969
 20
-3.158606
  0
VERTEX
  8
PLAN_1
  6
CONTINUOUS
 10
2.143335
 20
-3.156157
  0
VERTEX
  8
PLAN_1
  6
CONTINUOUS
 10
2.140886
 20
-3.154114
  0
VERTEX
  8
PLAN_1
  6
CONTINUOUS
 10
2.138437
 20
-3.152480
  0
VERTEX
  8
PLAN_1
  6
CONTINUOUS
 10
2.135169
 20
-3.150441
  0
VERTEX
  8
PLAN_1
  6
CONTINUOUS
 10
2.131906
 20
-3.148807
  0
VERTEX
  8
PLAN_1
  6
CONTINUOUS
 10
2.127823
 20
-3.147173
  0
VERTEX
  8
PLAN_1
  6
CONTINUOUS
 10
2.118839
 20
-3.144315
  0
VERTEX
  8
PLAN_1
  6
CONTINUOUS
 10
2.107406
 20
-3.141457
  0
VERTEX
  8
PLAN_1
  6
CONTINUOUS
 10
2.066579
 20
-3.132067
  0
VERTEX
  8
PLAN_1
  6
CONTINUOUS
 10
2.061268
 20
-3.130433
  0
VERTEX
  8
PLAN_1
  6
CONTINUOUS
 10
2.054327
 20
-3.128394
  0
VERTEX
  8
PLAN_1
  6
CONTINUOUS
 10
2.051063
 20
-3.126760
  0
VERTEX
  8
PLAN_1
  6
CONTINUOUS
 10
2.047386
 20
-3.125126
  0
VERTEX
  8
PLAN_1
  6
CONTINUOUS
 10
2.044122
 20
-3.122677
  0
VERTEX
  8
PLAN_1
  6
CONTINUOUS
 10
2.040445
 20
-3.120228
  0
VERTEX
  8
PLAN_1
  6
CONTINUOUS
 10
2.037181
 20
-3.117776
  0
VERTEX
  8
PLAN_1
  6
CONTINUOUS
 10
2.034323
 20
-3.114512
  0
VERTEX
  8
PLAN_1
  6
CONTINUOUS
 10
2.031465
 20
-3.110835
  0
VERTEX
  8
PLAN_1
  6
CONTINUOUS
 10
2.029012
 20
-3.106752
  0
VERTEX
  8
PLAN_1
  6
CONTINUOUS
 10
2.026972
 20
-3.101854
  0
VERTEX
  8
PLAN_1
  6
CONTINUOUS
 10
2.025339
 20
-3.096953
  0
VERTEX
  8
PLAN_1
  6
CONTINUOUS
 10
2.024524
 20
-3.091236
  0
VERTEX
  8
PLAN_1
  6
CONTINUOUS
 10
2.024114
 20
-3.085114
  0
VERTEX
  8
PLAN_1
  6
CONTINUOUS
 10
2.024524
 20
-3.079398
  0
VERTEX
  8
PLAN_1
  6
CONTINUOUS
 10
2.025339
 20
-3.073681
  0
VERTEX
  8
PLAN_1
  6
CONTINUOUS
 10
2.026563
 20
-3.067965
  0
VERTEX
  8
PLAN_1
  6
CONTINUOUS
 10
2.028197
 20
-3.062248
  0
VERTEX
  8
PLAN_1
  6
CONTINUOUS
 10
2.030240
 20
-3.056941
  0
VERTEX
  8
PLAN_1
  6
CONTINUOUS
 10
2.033098
 20
-3.052043
  0
VERTEX
  8
PLAN_1
  6
CONTINUOUS
 10
2.036362
 20
-3.047142
  0
VERTEX
  8
PLAN_1
  6
CONTINUOUS
 10
2.040445
 20
-3.042650
  0
VERTEX
  8
PLAN_1
  6
CONTINUOUS
 10
2.044937
 20
-3.038567
  0
VERTEX
  8
PLAN_1
  6
CONTINUOUS
 10
2.049839
 20
-3.034894
  0
VERTEX
  8
PLAN_1
  6
CONTINUOUS
 10
2.055551
 20
-3.031626
  0
VERTEX
  8
PLAN_1
  6
CONTINUOUS
 10
2.061677
 20
-3.028768
  0
VERTEX
  8
PLAN_1
  6
CONTINUOUS
 10
2.068618
 20
-3.026319
  0
VERTEX
  8
PLAN_1
  6
CONTINUOUS
 10
2.075969
 20
-3.024685
  0
VERTEX
  8
PLAN_1
  6
CONTINUOUS
 10
2.084134
 20
-3.023870
  0
VERTEX
  8
PLAN_1
  6
CONTINUOUS
 10
2.092709
 20
-3.023461
  0
VERTEX
  8
PLAN_1
  6
CONTINUOUS
 10
2.099240
 20
-3.023461
  0
VERTEX
  8
PLAN_1
  6
CONTINUOUS
 10
2.104957
 20
-3.023870
  0
VERTEX
  8
PLAN_1
  6
CONTINUOUS
 10
2.110673
 20
-3.024685
  0
VERTEX
  8
PLAN_1
  6
CONTINUOUS
 10
2.115980
 20
-3.025504
  0
VERTEX
  8
PLAN_1
  6
CONTINUOUS
 10
2.120882
 20
-3.026319
  0
VERTEX
  8
PLAN_1
  6
CONTINUOUS
 10
2.125780
 20
-3.027543
  0
VERTEX
  8
PLAN_1
  6
CONTINUOUS
 10
2.129862
 20
-3.028768
  0
VERTEX
  8
PLAN_1
  6
CONTINUOUS
 10
2.133945
 20
-3.030402
  0
VERTEX
  8
PLAN_1
  6
CONTINUOUS
 10
2.138028
 20
-3.032035
  0
VERTEX
  8
PLAN_1
  6
CONTINUOUS
 10
2.141295
 20
-3.033669
  0
VERTEX
  8
PLAN_1
  6
CONTINUOUS
 10
2.144563
 20
-3.035709
  0
VERTEX
  8
PLAN_1
  6
CONTINUOUS
 10
2.147827
 20
-3.037752
  0
VERTEX
  8
PLAN_1
  6
CONTINUOUS
 10
2.150276
 20
-3.039791
  0
VERTEX
  8
PLAN_1
  6
CONTINUOUS
 10
2.152728
 20
-3.042244
  0
VERTEX
  8
PLAN_1
  6
CONTINUOUS
 10
2.155177
 20
-3.044693
  0
VERTEX
  8
PLAN_1
  6
CONTINUOUS
 10
2.157217
 20
-3.047142
  0
VERTEX
  8
PLAN_1
  6
CONTINUOUS
 10
2.160894
 20
-3.052043
  0
VERTEX
  8
PLAN_1
  6
CONTINUOUS
 10
2.163752
 20
-3.057350
  0
VERTEX
  8
PLAN_1
  6
CONTINUOUS
 10
2.165791
 20
-3.062657
  0
VERTEX
  8
PLAN_1
  6
CONTINUOUS
 10
2.167425
 20
-3.067965
  0
VERTEX
  8
PLAN_1
  6
CONTINUOUS
 10
2.168650
 20
-3.072866
  0
VERTEX
  8
PLAN_1
  6
CONTINUOUS
 10
2.169469
 20
-3.078173
  0
VERTEX
  8
PLAN_1
  6
CONTINUOUS
 10
2.170283
 20
-3.082665
  0
VERTEX
  8
PLAN_1
  6
CONTINUOUS
 10
2.170283
 20
-3.087154
  0
VERTEX
  8
PLAN_1
  6
CONTINUOUS
 10
2.145378
 20
-3.087154
  0
SEQEND
  8
0
  0
POLYLINE
  8
PLAN_1
  6
CONTINUOUS
 66
     1
 40
0.008165
 41
0.008165
  0
VERTEX
  8
PLAN_1
  6
CONTINUOUS
 10
-0.466484
 20
2.063898
  0
VERTEX
  8
PLAN_1
  6
CONTINUOUS
 10
-0.466484
 20
2.378283
  0
VERTEX
  8
PLAN_1
  6
CONTINUOUS
 10
-1.526421
 20
2.378283
  0
VERTEX
  8
PLAN_1
  6
CONTINUOUS
 10
-1.526421
 20
2.063898
  0
VERTEX
  8
PLAN_1
  6
CONTINUOUS
 10
-0.466484
 20
2.063898
  0
SEQEND
  8
0
  0
POLYLINE
  8
PLAN_1
  6
CONTINUOUS
 66
     1
 40
0.008165
 41
0.008165
  0
VERTEX
  8
PLAN_1
  6
CONTINUOUS
 10
-0.603673
 20
2.435854
  0
VERTEX
  8
PLAN_1
  6
CONTINUOUS
 10
-0.603673
 20
2.476681
  0
VERTEX
  8
PLAN_1
  6
CONTINUOUS
 10
-1.389232
 20
2.476681
  0
VERTEX
  8
PLAN_1
  6
CONTINUOUS
 10
-1.389232
 20
2.435854
  0
SEQEND
  8
0
  0
POLYLINE
  8
PLAN_1
  6
CONTINUOUS
 66
     1
 40
0.008165
 41
0.008165
  0
VERTEX
  8
PLAN_1
  6
CONTINUOUS
 10
-1.336563
 20
2.688996
  0
VERTEX
  8
PLAN_1
  6
CONTINUOUS
 10
-1.335748
 20
2.691854
  0
VERTEX
  8
PLAN_1
  6
CONTINUOUS
 10
-1.334520
 20
2.693894
  0
VERTEX
  8
PLAN_1
  6
CONTINUOUS
 10
-1.333295
 20
2.696346
  0
VERTEX
  8
PLAN_1
  6
CONTINUOUS
 10
-1.332071
 20
2.698386
  0
VERTEX
  8
PLAN_1
  6
CONTINUOUS
 10
-1.328398
 20
2.702469
  0
VERTEX
  8
PLAN_1
  6
CONTINUOUS
 10
-1.324720
 20
2.705736
  0
VERTEX
  8
PLAN_1
  6
CONTINUOUS
 10
-1.320232
 20
2.708594
  0
VERTEX
  8
PLAN_1
  6
CONTINUOUS
 10
-1.315331
 20
2.710634
  0
VERTEX
  8
PLAN_1
  6
CONTINUOUS
 10
-1.312882
 20
2.711453
  0
VERTEX
  8
PLAN_1
  6
CONTINUOUS
 10
-1.310024
 20
2.711862
  0
VERTEX
  8
PLAN_1
  6
CONTINUOUS
 10
-1.307575
 20
2.712268
  0
VERTEX
  8
PLAN_1
  6
CONTINUOUS
 10
-1.304717
 20
2.712268
  0
SEQEND
  8
0
  0
POLYLINE
  8
PLAN_1
  6
CONTINUOUS
 66
     1
 40
0.008165
 41
0.008165
  0
VERTEX
  8
PLAN_1
  6
CONTINUOUS
 10
-1.304717
 20
2.712268
  0
VERTEX
  8
PLAN_1
  6
CONTINUOUS
 10
-0.687374
 20
2.712268
  0
SEQEND
  8
0
  0
POLYLINE
  8
PLAN_1
  6
CONTINUOUS
 66
     1
 40
0.008165
 41
0.008165
  0
VERTEX
  8
PLAN_1
  6
CONTINUOUS
 10
-0.687374
 20
2.712268
  0
VERTEX
  8
PLAN_1
  6
CONTINUOUS
 10
-0.684106
 20
2.712268
  0
VERTEX
  8
PLAN_1
  6
CONTINUOUS
 10
-0.680433
 20
2.711862
  0
VERTEX
  8
PLAN_1
  6
CONTINUOUS
 10
-0.677575
 20
2.711043
  0
VERTEX
  8
PLAN_1
  6
CONTINUOUS
 10
-0.674307
 20
2.709819
  0
VERTEX
  8
PLAN_1
  6
CONTINUOUS
 10
-0.671449
 20
2.708185
  0
VERTEX
  8
PLAN_1
  6
CONTINUOUS
 10
-0.668591
 20
2.706551
  0
VERTEX
  8
PLAN_1
  6
CONTINUOUS
 10
-0.666142
 20
2.704921
  0
VERTEX
  8
PLAN_1
  6
CONTINUOUS
 10
-0.663693
 20
2.702469
  0
VERTEX
  8
PLAN_1
  6
CONTINUOUS
 10
-0.661244
 20
2.700020
  0
VERTEX
  8
PLAN_1
  6
CONTINUOUS
 10
-0.659610
 20
2.697571
  0
VERTEX
  8
PLAN_1
  6
CONTINUOUS
 10
-0.657976
 20
2.694713
  0
VERTEX
  8
PLAN_1
  6
CONTINUOUS
 10
-0.656343
 20
2.691854
  0
VERTEX
  8
PLAN_1
  6
CONTINUOUS
 10
-0.655118
 20
2.688587
  0
VERTEX
  8
PLAN_1
  6
CONTINUOUS
 10
-0.654303
 20
2.685728
  0
VERTEX
  8
PLAN_1
  6
CONTINUOUS
 10
-0.653894
 20
2.682055
  0
VERTEX
  8
PLAN_1
  6
CONTINUOUS
 10
-0.653894
 20
2.678787
  0
SEQEND
  8
0
  0
POLYLINE
  8
PLAN_1
  6
CONTINUOUS
 66
     1
 40
0.008165
 41
0.008165
  0
VERTEX
  8
PLAN_1
  6
CONTINUOUS
 10
-0.653894
 20
2.678787
  0
VERTEX
  8
PLAN_1
  6
CONTINUOUS
 10
-0.603673
 20
2.477091
  0
VERTEX
  8
PLAN_1
  6
CONTINUOUS
 10
-1.389232
 20
2.477091
  0
VERTEX
  8
PLAN_1
  6
CONTINUOUS
 10
-1.336563
 20
2.688996
  0
SEQEND
  8
0
  0
POLYLINE
  8
PLAN_1
  6
CONTINUOUS
 66
     1
 40
0.008165
 41
0.008165
  0
VERTEX
  8
PLAN_1
  6
CONTINUOUS
 10
-1.397398
 20
2.437079
  0
VERTEX
  8
PLAN_1
  6
CONTINUOUS
 10
-1.310024
 20
2.437079
  0
VERTEX
  8
PLAN_1
  6
CONTINUOUS
 10
-1.310024
 20
2.377874
  0
VERTEX
  8
PLAN_1
  6
CONTINUOUS
 10
-1.526012
 20
2.377874
  0
VERTEX
  8
PLAN_1
  6
CONTINUOUS
 10
-1.526012
 20
2.437079
  0
VERTEX
  8
PLAN_1
  6
CONTINUOUS
 10
-1.438638
 20
2.437079
  0
VERTEX
  8
PLAN_1
  6
CONTINUOUS
 10
-1.438638
 20
2.436669
  0
VERTEX
  8
PLAN_1
  6
CONTINUOUS
 10
-1.438638
 20
2.406457
  0
VERTEX
  8
PLAN_1
  6
CONTINUOUS
 10
-1.397398
 20
2.406457
  0
VERTEX
  8
PLAN_1
  6
CONTINUOUS
 10
-1.397398
 20
2.436669
  0
VERTEX
  8
PLAN_1
  6
CONTINUOUS
 10
-1.397398
 20
2.437079
  0
SEQEND
  8
0
  0
POLYLINE
  8
PLAN_1
  6
CONTINUOUS
 66
     1
 40
0.008165
 41
0.008165
  0
VERTEX
  8
PLAN_1
  6
CONTINUOUS
 10
-0.554268
 20
2.437079
  0
VERTEX
  8
PLAN_1
  6
CONTINUOUS
 10
-0.466894
 20
2.437079
  0
VERTEX
  8
PLAN_1
  6
CONTINUOUS
 10
-0.466894
 20
2.377874
  0
VERTEX
  8
PLAN_1
  6
CONTINUOUS
 10
-0.682882
 20
2.377874
  0
VERTEX
  8
PLAN_1
  6
CONTINUOUS
 10
-0.682882
 20
2.437079
  0
VERTEX
  8
PLAN_1
  6
CONTINUOUS
 10
-0.595508
 20
2.437079
  0
VERTEX
  8
PLAN_1
  6
CONTINUOUS
 10
-0.595508
 20
2.436669
  0
VERTEX
  8
PLAN_1
  6
CONTINUOUS
 10
-0.595508
 20
2.406457
  0
VERTEX
  8
PLAN_1
  6
CONTINUOUS
 10
-0.554268
 20
2.406457
  0
VERTEX
  8
PLAN_1
  6
CONTINUOUS
 10
-0.554268
 20
2.436669
  0
VERTEX
  8
PLAN_1
  6
CONTINUOUS
 10
-0.554268
 20
2.437079
  0
SEQEND
  8
0
  0
POLYLINE
  8
PLAN_1
  6
CONTINUOUS
 66
     1
 40
0.006941
 41
0.006941
  0
VERTEX
  8
PLAN_1
  6
CONTINUOUS
 10
-0.507315
 20
2.063898
  0
VERTEX
  8
PLAN_1
  6
CONTINUOUS
 10
-0.506906
 20
2.142697
  0
VERTEX
  8
PLAN_1
  6
CONTINUOUS
 10
-0.467713
 20
2.142697
  0
SEQEND
  8
0
  0
POLYLINE
  8
PLAN_1
  6
CONTINUOUS
 66
     1
 40
0.004083
 41
0.004083
  0
VERTEX
  8
PLAN_1
  6
CONTINUOUS
 10
-2.182957
 20
1.414709
  0
VERTEX
  8
PLAN_1
  6
CONTINUOUS
 10
-2.182957
 20
1.919358
  0
SEQEND
  8
0
  0
POLYLINE
  8
PLAN_1
  6
CONTINUOUS
 66
     1
 40
0.004083
 41
0.004083
  0
VERTEX
  8
PLAN_1
  6
CONTINUOUS
 10
-2.182957
 20
1.919358
  0
VERTEX
  8
PLAN_1
  6
CONTINUOUS
 10
-2.182551
 20
1.925894
  0
VERTEX
  8
PLAN_1
  6
CONTINUOUS
 10
-2.179693
 20
1.942224
  0
VERTEX
  8
PLAN_1
  6
CONTINUOUS
 10
-2.178469
 20
1.947531
  0
VERTEX
  8
PLAN_1
  6
CONTINUOUS
 10
-2.176835
 20
1.953248
  0
VERTEX
  8
PLAN_1
  6
CONTINUOUS
 10
-2.175201
 20
1.958965
  0
VERTEX
  8
PLAN_1
  6
CONTINUOUS
 10
-2.172752
 20
1.965496
  0
VERTEX
  8
PLAN_1
  6
CONTINUOUS
 10
-2.170303
 20
1.972031
  0
VERTEX
  8
PLAN_1
  6
CONTINUOUS
 10
-2.167445
 20
1.978563
  0
VERTEX
  8
PLAN_1
  6
CONTINUOUS
 10
-2.163768
 20
1.985094
  0
VERTEX
  8
PLAN_1
  6
CONTINUOUS
 10
-2.160094
 20
1.992035
  0
VERTEX
  8
PLAN_1
  6
CONTINUOUS
 10
-2.155602
 20
1.998976
  0
VERTEX
  8
PLAN_1
  6
CONTINUOUS
 10
-2.150705
 20
2.005512
  0
VERTEX
  8
PLAN_1
  6
CONTINUOUS
 10
-2.145394
 20
2.012453
  0
VERTEX
  8
PLAN_1
  6
CONTINUOUS
 10
-2.139272
 20
2.018575
  0
VERTEX
  8
PLAN_1
  6
CONTINUOUS
 10
-2.132331
 20
2.025106
  0
VERTEX
  8
PLAN_1
  6
CONTINUOUS
 10
-2.125390
 20
2.030823
  0
VERTEX
  8
PLAN_1
  6
CONTINUOUS
 10
-2.117224
 20
2.036539
  0
VERTEX
  8
PLAN_1
  6
CONTINUOUS
 10
-2.108650
 20
2.041846
  0
VERTEX
  8
PLAN_1
  6
CONTINUOUS
 10
-2.099260
 20
2.046748
  0
VERTEX
  8
PLAN_1
  6
CONTINUOUS
 10
-2.089051
 20
2.051240
  0
VERTEX
  8
PLAN_1
  6
CONTINUOUS
 10
-2.078028
 20
2.055323
  0
VERTEX
  8
PLAN_1
  6
CONTINUOUS
 10
-2.066185
 20
2.058587
  0
VERTEX
  8
PLAN_1
  6
CONTINUOUS
 10
-2.053528
 20
2.061039
  0
VERTEX
  8
PLAN_1
  6
CONTINUOUS
 10
-2.040055
 20
2.063079
  0
VERTEX
  8
PLAN_1
  6
CONTINUOUS
 10
-2.025358
 20
2.064303
  0
VERTEX
  8
PLAN_1
  6
CONTINUOUS
 10
-2.009843
 20
2.064713
  0
VERTEX
  8
PLAN_1
  6
CONTINUOUS
 10
-1.873472
 20
2.064713
  0
VERTEX
  8
PLAN_1
  6
CONTINUOUS
 10
-1.618287
 20
2.064713
  0
VERTEX
  8
PLAN_1
  6
CONTINUOUS
 10
-1.287567
 20
2.064713
  0
VERTEX
  8
PLAN_1
  6
CONTINUOUS
 10
-0.922142
 20
2.064713
  0
VERTEX
  8
PLAN_1
  6
CONTINUOUS
 10
-0.565295
 20
2.064713
  0
VERTEX
  8
PLAN_1
  6
CONTINUOUS
 10
-0.257846
 20
2.064713
  0
VERTEX
  8
PLAN_1
  6
CONTINUOUS
 10
-0.042677
 20
2.064713
  0
VERTEX
  8
PLAN_1
  6
CONTINUOUS
 10
0.038165
 20
2.064713
  0
VERTEX
  8
PLAN_1
  6
CONTINUOUS
 10
0.039799
 20
2.064713
  0
VERTEX
  8
PLAN_1
  6
CONTINUOUS
 10
0.044701
 20
2.064713
  0
VERTEX
  8
PLAN_1
  6
CONTINUOUS
 10
0.052457
 20
2.064303
  0
VERTEX
  8
PLAN_1
  6
CONTINUOUS
 10
0.062256
 20
2.063079
  0
VERTEX
  8
PLAN_1
  6
CONTINUOUS
 10
0.067563
 20
2.062264
  0
VERTEX
  8
PLAN_1
  6
CONTINUOUS
 10
0.073689
 20
2.061039
  0
VERTEX
  8
PLAN_1
  6
CONTINUOUS
 10
0.079811
 20
2.059406
  0
VERTEX
  8
PLAN_1
  6
CONTINUOUS
 10
0.086346
 20
2.057362
  0
VERTEX
  8
PLAN_1
  6
CONTINUOUS
 10
0.093287
 20
2.054913
  0
VERTEX
  8
PLAN_1
  6
CONTINUOUS
 10
0.100228
 20
2.052055
  0
VERTEX
  8
PLAN_1
  6
CONTINUOUS
 10
0.107169
 20
2.048787
  0
VERTEX
  8
PLAN_1
  6
CONTINUOUS
 10
0.114520
 20
2.044705
  0
VERTEX
  8
PLAN_1
  6
CONTINUOUS
 10
0.121461
 20
2.040217
  0
VERTEX
  8
PLAN_1
  6
CONTINUOUS
 10
0.128402
 20
2.035315
  0
VERTEX
  8
PLAN_1
  6
CONTINUOUS
 10
0.135343
 20
2.029193
  0
VERTEX
  8
PLAN_1
  6
CONTINUOUS
 10
0.142283
 20
2.022657
  0
VERTEX
  8
PLAN_1
  6
CONTINUOUS
 10
0.148815
 20
2.015717
  0
VERTEX
  8
PLAN_1
  6
CONTINUOUS
 10
0.155346
 20
2.007551
  0
VERTEX
  8
PLAN_1
  6
CONTINUOUS
 10
0.161063
 20
1.998571
  0
VERTEX
  8
PLAN_1
  6
CONTINUOUS
 10
0.166780
 20
1.988772
  0
VERTEX
  8
PLAN_1
  6
CONTINUOUS
 10
0.171681
 20
1.978154
  0
VERTEX
  8
PLAN_1
  6
CONTINUOUS
 10
0.176579
 20
1.966720
  0
VERTEX
  8
PLAN_1
  6
CONTINUOUS
 10
0.180252
 20
1.954063
  0
VERTEX
  8
PLAN_1
  6
CONTINUOUS
 10
0.183929
 20
1.940181
  0
VERTEX
  8
PLAN_1
  6
CONTINUOUS
 10
0.186787
 20
1.925484
  0
VERTEX
  8
PLAN_1
  6
CONTINUOUS
 10
0.188827
 20
1.909559
  0
VERTEX
  8
PLAN_1
  6
CONTINUOUS
 10
0.190051
 20
1.892819
  0
VERTEX
  8
PLAN_1
  6
CONTINUOUS
 10
0.190461
 20
1.874449
  0
VERTEX
  8
PLAN_1
  6
CONTINUOUS
 10
0.190461
 20
1.796870
  0
VERTEX
  8
PLAN_1
  6
CONTINUOUS
 10
0.190461
 20
1.716437
  0
VERTEX
  8
PLAN_1
  6
CONTINUOUS
 10
0.190461
 20
1.637638
  0
VERTEX
  8
PLAN_1
  6
CONTINUOUS
 10
0.190461
 20
1.564142
  0
VERTEX
  8
PLAN_1
  6
CONTINUOUS
 10
0.190461
 20
1.500039
  0
VERTEX
  8
PLAN_1
  6
CONTINUOUS
 10
0.190461
 20
1.449413
  0
VERTEX
  8
PLAN_1
  6
CONTINUOUS
 10
0.190461
 20
1.416339
  0
VERTEX
  8
PLAN_1
  6
CONTINUOUS
 10
0.190461
 20
1.404091
  0
SEQEND
  8
0
  0
POLYLINE
  8
PLAN_1
  6
CONTINUOUS
 66
     1
 40
0.008165
 41
0.008165
  0
VERTEX
  8
PLAN_1
  6
CONTINUOUS
 10
-0.535898
 20
2.019799
  0
VERTEX
  8
PLAN_1
  6
CONTINUOUS
 10
-0.535898
 20
2.064713
  0
VERTEX
  8
PLAN_1
  6
CONTINUOUS
 10
-1.459051
 20
2.064713
  0
VERTEX
  8
PLAN_1
  6
CONTINUOUS
 10
-1.459051
 20
2.019799
  0
VERTEX
  8
PLAN_1
  6
CONTINUOUS
 10
-0.535898
 20
2.019799
  0
SEQEND
  8
0
  0
POLYLINE
  8
PLAN_1
  6
CONTINUOUS
 66
     1
 40
0.008165
 41
0.008165
  0
VERTEX
  8
PLAN_1
  6
CONTINUOUS
 10
-0.587748
 20
1.763799
  0
VERTEX
  8
PLAN_1
  6
CONTINUOUS
 10
-0.624906
 20
1.726646
  0
VERTEX
  8
PLAN_1
  6
CONTINUOUS
 10
-1.366776
 20
1.726646
  0
VERTEX
  8
PLAN_1
  6
CONTINUOUS
 10
-1.403933
 20
1.763799
  0
VERTEX
  8
PLAN_1
  6
CONTINUOUS
 10
-1.403933
 20
2.019799
  0
VERTEX
  8
PLAN_1
  6
CONTINUOUS
 10
-0.587748
 20
2.019799
  0
VERTEX
  8
PLAN_1
  6
CONTINUOUS
 10
-0.587748
 20
1.763799
  0
SEQEND
  8
0
  0
POLYLINE
  8
PLAN_1
  6
CONTINUOUS
 66
     1
 40
0.008165
 41
0.008165
  0
VERTEX
  8
PLAN_1
  6
CONTINUOUS
 10
-1.317374
 20
1.726646
  0
VERTEX
  8
PLAN_1
  6
CONTINUOUS
 10
-1.268787
 20
1.542504
  0
VERTEX
  8
PLAN_1
  6
CONTINUOUS
 10
-0.729429
 20
1.542504
  0
VERTEX
  8
PLAN_1
  6
CONTINUOUS
 10
-0.669000
 20
1.726646
  0
VERTEX
  8
PLAN_1
  6
CONTINUOUS
 10
-1.317374
 20
1.726646
  0
SEQEND
  8
0
  0
POLYLINE
  8
PLAN_1
  6
CONTINUOUS
 66
     1
 40
0.006941
 41
0.006941
  0
VERTEX
  8
PLAN_1
  6
CONTINUOUS
 10
-1.274094
 20
1.724193
  0
VERTEX
  8
PLAN_1
  6
CONTINUOUS
 10
-1.227547
 20
1.542504
  0
SEQEND
  8
0
  0
POLYLINE
  8
PLAN_1
  6
CONTINUOUS
 66
     1
 40
0.006941
 41
0.006941
  0
VERTEX
  8
PLAN_1
  6
CONTINUOUS
 10
-1.243063
 20
1.724193
  0
VERTEX
  8
PLAN_1
  6
CONTINUOUS
 10
-1.196516
 20
1.542504
  0
SEQEND
  8
0
  0
POLYLINE
  8
PLAN_1
  6
CONTINUOUS
 66
     1
 40
0.006941
 41
0.006941
  0
VERTEX
  8
PLAN_1
  6
CONTINUOUS
 10
-0.729429
 20
1.725827
  0
VERTEX
  8
PLAN_1
  6
CONTINUOUS
 10
-0.775972
 20
1.544138
  0
SEQEND
  8
0
  0
POLYLINE
  8
PLAN_1
  6
CONTINUOUS
 66
     1
 40
0.006941
 41
0.006941
  0
VERTEX
  8
PLAN_1
  6
CONTINUOUS
 10
-0.760457
 20
1.725827
  0
VERTEX
  8
PLAN_1
  6
CONTINUOUS
 10
-0.807413
 20
1.544138
  0
SEQEND
  8
0
  0
POLYLINE
  8
PLAN_1
  6
CONTINUOUS
 66
     1
 40
0.008165
 41
0.008165
  0
VERTEX
  8
PLAN_1
  6
CONTINUOUS
 10
-0.800063
 20
2.947854
  0
VERTEX
  8
PLAN_1
  6
CONTINUOUS
 10
-0.809047
 20
2.955614
  0
VERTEX
  8
PLAN_1
  6
CONTINUOUS
 10
-0.818846
 20
2.962555
  0
VERTEX
  8
PLAN_1
  6
CONTINUOUS
 10
-0.828642
 20
2.969496
  0
VERTEX
  8
PLAN_1
  6
CONTINUOUS
 10
-0.839260
 20
2.976028
  0
VERTEX
  8
PLAN_1
  6
CONTINUOUS
 10
-0.850283
 20
2.981744
  0
VERTEX
  8
PLAN_1
  6
CONTINUOUS
 10
-0.861717
 20
2.987461
  0
VERTEX
  8
PLAN_1
  6
CONTINUOUS
 10
-0.873965
 20
2.992358
  0
VERTEX
  8
PLAN_1
  6
CONTINUOUS
 10
-0.886213
 20
2.997260
  0
VERTEX
  8
PLAN_1
  6
CONTINUOUS
 10
-0.898870
 20
3.001343
  0
VERTEX
  8
PLAN_1
  6
CONTINUOUS
 10
-0.911937
 20
3.005016
  0
VERTEX
  8
PLAN_1
  6
CONTINUOUS
 10
-0.925409
 20
3.008283
  0
VERTEX
  8
PLAN_1
  6
CONTINUOUS
 10
-0.938882
 20
3.010732
  0
VERTEX
  8
PLAN_1
  6
CONTINUOUS
 10
-0.953173
 20
3.012776
  0
VERTEX
  8
PLAN_1
  6
CONTINUOUS
 10
-0.967055
 20
3.014406
  0
VERTEX
  8
PLAN_1
  6
CONTINUOUS
 10
-0.981756
 20
3.015224
  0
VERTEX
  8
PLAN_1
  6
CONTINUOUS
 10
-0.996453
 20
3.015634
  0
VERTEX
  8
PLAN_1
  6
CONTINUOUS
 10
-1.011154
 20
3.015224
  0
VERTEX
  8
PLAN_1
  6
CONTINUOUS
 10
-1.025850
 20
3.014406
  0
VERTEX
  8
PLAN_1
  6
CONTINUOUS
 10
-1.040142
 20
3.012776
  0
VERTEX
  8
PLAN_1
  6
CONTINUOUS
 10
-1.054024
 20
3.010732
  0
VERTEX
  8
PLAN_1
  6
CONTINUOUS
 10
-1.067496
 20
3.008283
  0
VERTEX
  8
PLAN_1
  6
CONTINUOUS
 10
-1.080969
 20
3.005016
  0
VERTEX
  8
PLAN_1
  6
CONTINUOUS
 10
-1.094035
 20
3.001343
  0
VERTEX
  8
PLAN_1
  6
CONTINUOUS
 10
-1.106693
 20
2.997260
  0
VERTEX
  8
PLAN_1
  6
CONTINUOUS
 10
-1.119350
 20
2.992358
  0
VERTEX
  8
PLAN_1
  6
CONTINUOUS
 10
-1.131189
 20
2.987461
  0
VERTEX
  8
PLAN_1
  6
CONTINUOUS
 10
-1.142622
 20
2.981744
  0
VERTEX
  8
PLAN_1
  6
CONTINUOUS
 10
-1.153646
 20
2.976028
  0
VERTEX
  8
PLAN_1
  6
CONTINUOUS
 10
-1.164264
 20
2.969496
  0
VERTEX
  8
PLAN_1
  6
CONTINUOUS
 10
-1.174469
 20
2.962555
  0
VERTEX
  8
PLAN_1
  6
CONTINUOUS
 10
-1.183862
 20
2.955205
  0
VERTEX
  8
PLAN_1
  6
CONTINUOUS
 10
-1.192843
 20
2.947854
  0
SEQEND
  8
0
  0
POLYLINE
  8
PLAN_1
  6
CONTINUOUS
 66
     1
 40
0.008165
 41
0.008165
  0
VERTEX
  8
PLAN_1
  6
CONTINUOUS
 10
-1.192843
 20
2.947854
  0
VERTEX
  8
PLAN_1
  6
CONTINUOUS
 10
-1.192843
 20
2.712677
  0
VERTEX
  8
PLAN_1
  6
CONTINUOUS
 10
-0.800063
 20
2.712677
  0
VERTEX
  8
PLAN_1
  6
CONTINUOUS
 10
-0.800063
 20
2.947854
  0
SEQEND
  8
0
  0
POLYLINE
  8
PLAN_1
  6
CONTINUOUS
 66
     1
 40
0.008165
 41
0.008165
  0
VERTEX
  8
PLAN_1
  6
CONTINUOUS
 10
-0.800063
 20
2.948264
  0
VERTEX
  8
PLAN_1
  6
CONTINUOUS
 10
-1.192843
 20
2.948264
  0
SEQEND
  8
0
  0
POLYLINE
  8
PLAN_1
  6
CONTINUOUS
 66
     1
 40
0.006941
 41
0.006941
  0
VERTEX
  8
PLAN_1
  6
CONTINUOUS
 10
-1.487224
 20
2.063898
  0
VERTEX
  8
PLAN_1
  6
CONTINUOUS
 10
-1.487224
 20
2.142697
  0
VERTEX
  8
PLAN_1
  6
CONTINUOUS
 10
-1.526421
 20
2.142697
  0
SEQEND
  8
0
  0
POLYLINE
  8
PLAN_1
  6
CONTINUOUS
 66
     1
 40
0.008165
 41
0.008165
  0
VERTEX
  8
PLAN_1
  6
CONTINUOUS
 10
-1.403933
 20
1.763799
  0
VERTEX
  8
PLAN_1
  6
CONTINUOUS
 10
-0.587748
 20
1.763799
  0
SEQEND
  8
0
  0
POLYLINE
  8
PLAN_1
  6
CONTINUOUS
 66
     1
 40
0.004083
 41
0.004083
  0
VERTEX
  8
PLAN_1
  6
CONTINUOUS
 10
-1.993102
 20
1.875264
  0
VERTEX
  8
PLAN_1
  6
CONTINUOUS
 10
-1.722811
 20
1.875264
  0
SEQEND
  8
0
  0
POLYLINE
  8
PLAN_1
  6
CONTINUOUS
 66
     1
 40
0.004083
 41
0.004083
  0
VERTEX
  8
PLAN_1
  6
CONTINUOUS
 10
-1.856732
 20
1.751142
  0
VERTEX
  8
PLAN_1
  6
CONTINUOUS
 10
-1.857138
 20
2.000201
  0
SEQEND
  8
0
  0
POLYLINE
  8
PLAN_1
  6
CONTINUOUS
 66
     1
 40
0.003000
 41
0.003000
  0
VERTEX
  8
PLAN_1
  6
CONTINUOUS
 10
-1.855913
 20
1.907110
  0
VERTEX
  8
PLAN_1
  6
CONTINUOUS
 10
-1.859181
 20
1.906701
  0
VERTEX
  8
PLAN_1
  6
CONTINUOUS
 10
-1.862449
 20
1.906295
  0
VERTEX
  8
PLAN_1
  6
CONTINUOUS
 10
-1.865303
 20
1.905476
  0
VERTEX
  8
PLAN_1
  6
CONTINUOUS
 10
-1.868571
 20
1.904252
  0
VERTEX
  8
PLAN_1
  6
CONTINUOUS
 10
-1.871020
 20
1.903028
  0
VERTEX
  8
PLAN_1
  6
CONTINUOUS
 10
-1.873878
 20
1.901394
  0
VERTEX
  8
PLAN_1
  6
CONTINUOUS
 10
-1.876331
 20
1.899760
  0
VERTEX
  8
PLAN_1
  6
CONTINUOUS
 10
-1.878370
 20
1.897720
  0
VERTEX
  8
PLAN_1
  6
CONTINUOUS
 10
-1.880413
 20
1.895272
  0
VERTEX
  8
PLAN_1
  6
CONTINUOUS
 10
-1.882453
 20
1.892819
  0
VERTEX
  8
PLAN_1
  6
CONTINUOUS
 10
-1.884087
 20
1.890370
  0
VERTEX
  8
PLAN_1
  6
CONTINUOUS
 10
-1.885311
 20
1.887512
  0
VERTEX
  8
PLAN_1
  6
CONTINUOUS
 10
-1.886535
 20
1.884654
  0
VERTEX
  8
PLAN_1
  6
CONTINUOUS
 10
-1.886945
 20
1.881390
  0
VERTEX
  8
PLAN_1
  6
CONTINUOUS
 10
-1.887760
 20
1.878531
  0
VERTEX
  8
PLAN_1
  6
CONTINUOUS
 10
-1.887760
 20
1.875264
  0
VERTEX
  8
PLAN_1
  6
CONTINUOUS
 10
-1.887760
 20
1.871996
  0
VERTEX
  8
PLAN_1
  6
CONTINUOUS
 10
-1.886945
 20
1.868732
  0
VERTEX
  8
PLAN_1
  6
CONTINUOUS
 10
-1.886535
 20
1.865874
  0
VERTEX
  8
PLAN_1
  6
CONTINUOUS
 10
-1.885311
 20
1.862606
  0
VERTEX
  8
PLAN_1
  6
CONTINUOUS
 10
-1.884087
 20
1.860157
  0
VERTEX
  8
PLAN_1
  6
CONTINUOUS
 10
-1.882453
 20
1.857299
  0
VERTEX
  8
PLAN_1
  6
CONTINUOUS
 10
-1.880413
 20
1.854850
  0
VERTEX
  8
PLAN_1
  6
CONTINUOUS
 10
-1.878370
 20
1.852807
  0
VERTEX
  8
PLAN_1
  6
CONTINUOUS
 10
-1.876331
 20
1.850768
  0
VERTEX
  8
PLAN_1
  6
CONTINUOUS
 10
-1.873878
 20
1.848724
  0
VERTEX
  8
PLAN_1
  6
CONTINUOUS
 10
-1.871020
 20
1.847091
  0
VERTEX
  8
PLAN_1
  6
CONTINUOUS
 10
-1.868571
 20
1.845866
  0
VERTEX
  8
PLAN_1
  6
CONTINUOUS
 10
-1.865303
 20
1.844642
  0
VERTEX
  8
PLAN_1
  6
CONTINUOUS
 10
-1.862449
 20
1.843827
  0
VERTEX
  8
PLAN_1
  6
CONTINUOUS
 10
-1.859181
 20
1.843417
  0
VERTEX
  8
PLAN_1
  6
CONTINUOUS
 10
-1.855913
 20
1.843417
  0
VERTEX
  8
PLAN_1
  6
CONTINUOUS
 10
-1.852650
 20
1.843417
  0
VERTEX
  8
PLAN_1
  6
CONTINUOUS
 10
-1.849791
 20
1.843827
  0
VERTEX
  8
PLAN_1
  6
CONTINUOUS
 10
-1.846524
 20
1.844642
  0
VERTEX
  8
PLAN_1
  6
CONTINUOUS
 10
-1.843665
 20
1.845866
  0
VERTEX
  8
PLAN_1
  6
CONTINUOUS
 10
-1.840807
 20
1.847091
  0
VERTEX
  8
PLAN_1
  6
CONTINUOUS
 10
-1.838358
 20
1.848724
  0
VERTEX
  8
PLAN_1
  6
CONTINUOUS
 10
-1.835909
 20
1.850768
  0
VERTEX
  8
PLAN_1
  6
CONTINUOUS
 10
-1.833457
 20
1.852807
  0
VERTEX
  8
PLAN_1
  6
CONTINUOUS
 10
-1.831417
 20
1.854850
  0
VERTEX
  8
PLAN_1
  6
CONTINUOUS
 10
-1.829783
 20
1.857299
  0
VERTEX
  8
PLAN_1
  6
CONTINUOUS
 10
-1.828150
 20
1.860157
  0
VERTEX
  8
PLAN_1
  6
CONTINUOUS
 10
-1.826516
 20
1.862606
  0
VERTEX
  8
PLAN_1
  6
CONTINUOUS
 10
-1.825701
 20
1.865874
  0
VERTEX
  8
PLAN_1
  6
CONTINUOUS
 10
-1.824882
 20
1.868732
  0
VERTEX
  8
PLAN_1
  6
CONTINUOUS
 10
-1.824476
 20
1.871996
  0
VERTEX
  8
PLAN_1
  6
CONTINUOUS
 10
-1.824067
 20
1.875264
  0
VERTEX
  8
PLAN_1
  6
CONTINUOUS
 10
-1.824476
 20
1.878531
  0
VERTEX
  8
PLAN_1
  6
CONTINUOUS
 10
-1.824882
 20
1.881390
  0
VERTEX
  8
PLAN_1
  6
CONTINUOUS
 10
-1.825701
 20
1.884654
  0
VERTEX
  8
PLAN_1
  6
CONTINUOUS
 10
-1.826516
 20
1.887512
  0
VERTEX
  8
PLAN_1
  6
CONTINUOUS
 10
-1.828150
 20
1.890370
  0
VERTEX
  8
PLAN_1
  6
CONTINUOUS
 10
-1.829783
 20
1.892819
  0
VERTEX
  8
PLAN_1
  6
CONTINUOUS
 10
-1.831417
 20
1.895272
  0
VERTEX
  8
PLAN_1
  6
CONTINUOUS
 10
-1.833457
 20
1.897720
  0
VERTEX
  8
PLAN_1
  6
CONTINUOUS
 10
-1.835909
 20
1.899760
  0
VERTEX
  8
PLAN_1
  6
CONTINUOUS
 10
-1.838358
 20
1.901394
  0
VERTEX
  8
PLAN_1
  6
CONTINUOUS
 10
-1.840807
 20
1.903028
  0
VERTEX
  8
PLAN_1
  6
CONTINUOUS
 10
-1.843665
 20
1.904252
  0
VERTEX
  8
PLAN_1
  6
CONTINUOUS
 10
-1.846524
 20
1.905476
  0
VERTEX
  8
PLAN_1
  6
CONTINUOUS
 10
-1.849791
 20
1.906295
  0
VERTEX
  8
PLAN_1
  6
CONTINUOUS
 10
-1.852650
 20
1.906701
  0
VERTEX
  8
PLAN_1
  6
CONTINUOUS
 10
-1.855913
 20
1.907110
  0
SEQEND
  8
0
  0
POLYLINE
  8
PLAN_1
  6
CONTINUOUS
 66
     1
 40
0.004083
 41
0.004083
  0
VERTEX
  8
PLAN_1
  6
CONTINUOUS
 10
-0.250496
 20
1.875264
  0
VERTEX
  8
PLAN_1
  6
CONTINUOUS
 10
0.020201
 20
1.875264
  0
SEQEND
  8
0
  0
POLYLINE
  8
PLAN_1
  6
CONTINUOUS
 66
     1
 40
0.004083
 41
0.004083
  0
VERTEX
  8
PLAN_1
  6
CONTINUOUS
 10
-0.114126
 20
1.751142
  0
VERTEX
  8
PLAN_1
  6
CONTINUOUS
 10
-0.114535
 20
2.000201
  0
SEQEND
  8
0
  0
POLYLINE
  8
PLAN_1
  6
CONTINUOUS
 66
     1
 40
0.003000
 41
0.003000
  0
VERTEX
  8
PLAN_1
  6
CONTINUOUS
 10
-0.113311
 20
1.907110
  0
VERTEX
  8
PLAN_1
  6
CONTINUOUS
 10
-0.116579
 20
1.906701
  0
VERTEX
  8
PLAN_1
  6
CONTINUOUS
 10
-0.119843
 20
1.906295
  0
VERTEX
  8
PLAN_1
  6
CONTINUOUS
 10
-0.122701
 20
1.905476
  0
VERTEX
  8
PLAN_1
  6
CONTINUOUS
 10
-0.125559
 20
1.904252
  0
VERTEX
  8
PLAN_1
  6
CONTINUOUS
 10
-0.128417
 20
1.903028
  0
VERTEX
  8
PLAN_1
  6
CONTINUOUS
 10
-0.130866
 20
1.901394
  0
VERTEX
  8
PLAN_1
  6
CONTINUOUS
 10
-0.133319
 20
1.899760
  0
VERTEX
  8
PLAN_1
  6
CONTINUOUS
 10
-0.135768
 20
1.897720
  0
VERTEX
  8
PLAN_1
  6
CONTINUOUS
 10
-0.137807
 20
1.895272
  0
VERTEX
  8
PLAN_1
  6
CONTINUOUS
 10
-0.139441
 20
1.892819
  0
VERTEX
  8
PLAN_1
  6
CONTINUOUS
 10
-0.141075
 20
1.890370
  0
VERTEX
  8
PLAN_1
  6
CONTINUOUS
 10
-0.142709
 20
1.887512
  0
VERTEX
  8
PLAN_1
  6
CONTINUOUS
 10
-0.143524
 20
1.884654
  0
VERTEX
  8
PLAN_1
  6
CONTINUOUS
 10
-0.144343
 20
1.881390
  0
VERTEX
  8
PLAN_1
  6
CONTINUOUS
 10
-0.144748
 20
1.878531
  0
VERTEX
  8
PLAN_1
  6
CONTINUOUS
 10
-0.145157
 20
1.875264
  0
VERTEX
  8
PLAN_1
  6
CONTINUOUS
 10
-0.144748
 20
1.871996
  0
VERTEX
  8
PLAN_1
  6
CONTINUOUS
 10
-0.144343
 20
1.868732
  0
VERTEX
  8
PLAN_1
  6
CONTINUOUS
 10
-0.143524
 20
1.865874
  0
VERTEX
  8
PLAN_1
  6
CONTINUOUS
 10
-0.142709
 20
1.862606
  0
VERTEX
  8
PLAN_1
  6
CONTINUOUS
 10
-0.141075
 20
1.860157
  0
VERTEX
  8
PLAN_1
  6
CONTINUOUS
 10
-0.139441
 20
1.857299
  0
VERTEX
  8
PLAN_1
  6
CONTINUOUS
 10
-0.137807
 20
1.854850
  0
VERTEX
  8
PLAN_1
  6
CONTINUOUS
 10
-0.135768
 20
1.852807
  0
VERTEX
  8
PLAN_1
  6
CONTINUOUS
 10
-0.133319
 20
1.850768
  0
VERTEX
  8
PLAN_1
  6
CONTINUOUS
 10
-0.130866
 20
1.848724
  0
VERTEX
  8
PLAN_1
  6
CONTINUOUS
 10
-0.128417
 20
1.847091
  0
VERTEX
  8
PLAN_1
  6
CONTINUOUS
 10
-0.125559
 20
1.845866
  0
VERTEX
  8
PLAN_1
  6
CONTINUOUS
 10
-0.122701
 20
1.844642
  0
VERTEX
  8
PLAN_1
  6
CONTINUOUS
 10
-0.119843
 20
1.843827
  0
VERTEX
  8
PLAN_1
  6
CONTINUOUS
 10
-0.116579
 20
1.843417
  0
VERTEX
  8
PLAN_1
  6
CONTINUOUS
 10
-0.113311
 20
1.843417
  0
VERTEX
  8
PLAN_1
  6
CONTINUOUS
 10
-0.110043
 20
1.843417
  0
VERTEX
  8
PLAN_1
  6
CONTINUOUS
 10
-0.106780
 20
1.843827
  0
VERTEX
  8
PLAN_1
  6
CONTINUOUS
 10
-0.103921
 20
1.844642
  0
VERTEX
  8
PLAN_1
  6
CONTINUOUS
 10
-0.101063
 20
1.845866
  0
VERTEX
  8
PLAN_1
  6
CONTINUOUS
 10
-0.098205
 20
1.847091
  0
VERTEX
  8
PLAN_1
  6
CONTINUOUS
 10
-0.095346
 20
1.848724
  0
VERTEX
  8
PLAN_1
  6
CONTINUOUS
 10
-0.092898
 20
1.850768
  0
VERTEX
  8
PLAN_1
  6
CONTINUOUS
 10
-0.090854
 20
1.852807
  0
VERTEX
  8
PLAN_1
  6
CONTINUOUS
 10
-0.088811
 20
1.854850
  0
VERTEX
  8
PLAN_1
  6
CONTINUOUS
 10
-0.086772
 20
1.857299
  0
VERTEX
  8
PLAN_1
  6
CONTINUOUS
 10
-0.085138
 20
1.860157
  0
VERTEX
  8
PLAN_1
  6
CONTINUOUS
 10
-0.083913
 20
1.862606
  0
VERTEX
  8
PLAN_1
  6
CONTINUOUS
 10
-0.083098
 20
1.865874
  0
VERTEX
  8
PLAN_1
  6
CONTINUOUS
 10
-0.082280
 20
1.868732
  0
VERTEX
  8
PLAN_1
  6
CONTINUOUS
 10
-0.081465
 20
1.871996
  0
VERTEX
  8
PLAN_1
  6
CONTINUOUS
 10
-0.081465
 20
1.875264
  0
VERTEX
  8
PLAN_1
  6
CONTINUOUS
 10
-0.081465
 20
1.878531
  0
VERTEX
  8
PLAN_1
  6
CONTINUOUS
 10
-0.082280
 20
1.881390
  0
VERTEX
  8
PLAN_1
  6
CONTINUOUS
 10
-0.083098
 20
1.884654
  0
VERTEX
  8
PLAN_1
  6
CONTINUOUS
 10
-0.083913
 20
1.887512
  0
VERTEX
  8
PLAN_1
  6
CONTINUOUS
 10
-0.085138
 20
1.890370
  0
VERTEX
  8
PLAN_1
  6
CONTINUOUS
 10
-0.086772
 20
1.892819
  0
VERTEX
  8
PLAN_1
  6
CONTINUOUS
 10
-0.088811
 20
1.895272
  0
VERTEX
  8
PLAN_1
  6
CONTINUOUS
 10
-0.090854
 20
1.897720
  0
VERTEX
  8
PLAN_1
  6
CONTINUOUS
 10
-0.092898
 20
1.899760
  0
VERTEX
  8
PLAN_1
  6
CONTINUOUS
 10
-0.095346
 20
1.901394
  0
VERTEX
  8
PLAN_1
  6
CONTINUOUS
 10
-0.098205
 20
1.903028
  0
VERTEX
  8
PLAN_1
  6
CONTINUOUS
 10
-0.101063
 20
1.904252
  0
VERTEX
  8
PLAN_1
  6
CONTINUOUS
 10
-0.103921
 20
1.905476
  0
VERTEX
  8
PLAN_1
  6
CONTINUOUS
 10
-0.106780
 20
1.906295
  0
VERTEX
  8
PLAN_1
  6
CONTINUOUS
 10
-0.110043
 20
1.906701
  0
VERTEX
  8
PLAN_1
  6
CONTINUOUS
 10
-0.113311
 20
1.907110
  0
SEQEND
  8
0
  0
POLYLINE
  8
PLAN_1
 62
     2
  6
CONTINUOUS
 66
     1
 40
0.004083
 41
0.004083
  0
VERTEX
  8
PLAN_1
 62
     2
  6
CONTINUOUS
 10
-1.160181
 20
3.169559
  0
VERTEX
  8
PLAN_1
 62
     2
  6
CONTINUOUS
 10
-0.828642
 20
3.169559
  0
SEQEND
  8
0
  0
SOLID
  8
PLAN_1
 62
     2
 10
-0.799248
 20
3.169559
 11
-0.858039
 21
3.185484
 12
-0.799248
 22
3.169559
 13
-0.858039
 23
3.154043
  0
POLYLINE
  8
PLAN_1
 62
     2
  6
CONTINUOUS
 66
     1
 40
0.003000
 41
0.003000
  0
VERTEX
  8
PLAN_1
 62
     2
  6
CONTINUOUS
 10
-0.799248
 20
3.169559
  0
VERTEX
  8
PLAN_1
 62
     2
  6
CONTINUOUS
 10
-0.858039
 20
3.185484
  0
VERTEX
  8
PLAN_1
 62
     2
  6
CONTINUOUS
 10
-0.858039
 20
3.154043
  0
VERTEX
  8
PLAN_1
 62
     2
  6
CONTINUOUS
 10
-0.799248
 20
3.169559
  0
SEQEND
  8
0
  0
SOLID
  8
PLAN_1
 62
     2
 10
-1.189575
 20
3.169559
 11
-1.130783
 21
3.185484
 12
-1.189575
 22
3.169559
 13
-1.130783
 23
3.154043
  0
POLYLINE
  8
PLAN_1
 62
     2
  6
CONTINUOUS
 66
     1
 40
0.003000
 41
0.003000
  0
VERTEX
  8
PLAN_1
 62
     2
  6
CONTINUOUS
 10
-1.189575
 20
3.169559
  0
VERTEX
  8
PLAN_1
 62
     2
  6
CONTINUOUS
 10
-1.130783
 20
3.185484
  0
VERTEX
  8
PLAN_1
 62
     2
  6
CONTINUOUS
 10
-1.130783
 20
3.154043
  0
VERTEX
  8
PLAN_1
 62
     2
  6
CONTINUOUS
 10
-1.189575
 20
3.169559
  0
SEQEND
  8
0
  0
POLYLINE
  8
PLAN_1
 62
     2
  6
CONTINUOUS
 66
     1
 40
0.003000
 41
0.003000
  0
VERTEX
  8
PLAN_1
 62
     2
  6
CONTINUOUS
 10
-1.023807
 20
3.257343
  0
VERTEX
  8
PLAN_1
 62
     2
  6
CONTINUOUS
 10
-1.021768
 20
3.254484
  0
VERTEX
  8
PLAN_1
 62
     2
  6
CONTINUOUS
 10
-1.020134
 20
3.251217
  0
VERTEX
  8
PLAN_1
 62
     2
  6
CONTINUOUS
 10
-1.018500
 20
3.247543
  0
VERTEX
  8
PLAN_1
 62
     2
  6
CONTINUOUS
 10
-1.017276
 20
3.244276
  0
VERTEX
  8
PLAN_1
 62
     2
  6
CONTINUOUS
 10
-1.016461
 20
3.240602
  0
VERTEX
  8
PLAN_1
 62
     2
  6
CONTINUOUS
 10
-1.015642
 20
3.237335
  0
VERTEX
  8
PLAN_1
 62
     2
  6
CONTINUOUS
 10
-1.015642
 20
3.234071
  0
VERTEX
  8
PLAN_1
 62
     2
  6
CONTINUOUS
 10
-1.015236
 20
3.230803
  0
VERTEX
  8
PLAN_1
 62
     2
  6
CONTINUOUS
 10
-1.015642
 20
3.227535
  0
VERTEX
  8
PLAN_1
 62
     2
  6
CONTINUOUS
 10
-1.015642
 20
3.224272
  0
VERTEX
  8
PLAN_1
 62
     2
  6
CONTINUOUS
 10
-1.016461
 20
3.221004
  0
VERTEX
  8
PLAN_1
 62
     2
  6
CONTINUOUS
 10
-1.017276
 20
3.217740
  0
VERTEX
  8
PLAN_1
 62
     2
  6
CONTINUOUS
 10
-1.018094
 20
3.214472
  0
VERTEX
  8
PLAN_1
 62
     2
  6
CONTINUOUS
 10
-1.019724
 20
3.211205
  0
VERTEX
  8
PLAN_1
 62
     2
  6
CONTINUOUS
 10
-1.021358
 20
3.207941
  0
VERTEX
  8
PLAN_1
 62
     2
  6
CONTINUOUS
 10
-1.022992
 20
3.205083
  0
VERTEX
  8
PLAN_1
 62
     2
  6
CONTINUOUS
 10
-1.025441
 20
3.202224
  0
VERTEX
  8
PLAN_1
 62
     2
  6
CONTINUOUS
 10
-1.027890
 20
3.199366
  0
VERTEX
  8
PLAN_1
 62
     2
  6
CONTINUOUS
 10
-1.031157
 20
3.197323
  0
VERTEX
  8
PLAN_1
 62
     2
  6
CONTINUOUS
 10
-1.034425
 20
3.195283
  0
VERTEX
  8
PLAN_1
 62
     2
  6
CONTINUOUS
 10
-1.038098
 20
3.193650
  0
VERTEX
  8
PLAN_1
 62
     2
  6
CONTINUOUS
 10
-1.042181
 20
3.192425
  0
VERTEX
  8
PLAN_1
 62
     2
  6
CONTINUOUS
 10
-1.046673
 20
3.191606
  0
VERTEX
  8
PLAN_1
 62
     2
  6
CONTINUOUS
 10
-1.051980
 20
3.191201
  0
VERTEX
  8
PLAN_1
 62
     2
  6
CONTINUOUS
 10
-1.055657
 20
3.191606
  0
VERTEX
  8
PLAN_1
 62
     2
  6
CONTINUOUS
 10
-1.059331
 20
3.192016
  0
VERTEX
  8
PLAN_1
 62
     2
  6
CONTINUOUS
 10
-1.063004
 20
3.192831
  0
VERTEX
  8
PLAN_1
 62
     2
  6
CONTINUOUS
 10
-1.065862
 20
3.193650
  0
VERTEX
  8
PLAN_1
 62
     2
  6
CONTINUOUS
 10
-1.069130
 20
3.195283
  0
VERTEX
  8
PLAN_1
 62
     2
  6
CONTINUOUS
 10
-1.071579
 20
3.196508
  0
VERTEX
  8
PLAN_1
 62
     2
  6
CONTINUOUS
 10
-1.074028
 20
3.198547
  0
VERTEX
  8
PLAN_1
 62
     2
  6
CONTINUOUS
 10
-1.076480
 20
3.200591
  0
VERTEX
  8
PLAN_1
 62
     2
  6
CONTINUOUS
 10
-1.084646
 20
3.191201
  0
VERTEX
  8
PLAN_1
 62
     2
  6
CONTINUOUS
 10
-1.087909
 20
3.194465
  0
VERTEX
  8
PLAN_1
 62
     2
  6
CONTINUOUS
 10
-1.079339
 20
3.203449
  0
VERTEX
  8
PLAN_1
 62
     2
  6
CONTINUOUS
 10
-1.081787
 20
3.206713
  0
VERTEX
  8
PLAN_1
 62
     2
  6
CONTINUOUS
 10
-1.083421
 20
3.209980
  0
VERTEX
  8
PLAN_1
 62
     2
  6
CONTINUOUS
 10
-1.085051
 20
3.213654
  0
VERTEX
  8
PLAN_1
 62
     2
  6
CONTINUOUS
 10
-1.086280
 20
3.216921
  0
VERTEX
  8
PLAN_1
 62
     2
  6
CONTINUOUS
 10
-1.087094
 20
3.220594
  0
VERTEX
  8
PLAN_1
 62
     2
  6
CONTINUOUS
 10
-1.087909
 20
3.223862
  0
VERTEX
  8
PLAN_1
 62
     2
  6
CONTINUOUS
 10
-1.087909
 20
3.227535
  0
VERTEX
  8
PLAN_1
 62
     2
  6
CONTINUOUS
 10
-1.088319
 20
3.230803
  0
VERTEX
  8
PLAN_1
 62
     2
  6
CONTINUOUS
 10
-1.087909
 20
3.233661
  0
VERTEX
  8
PLAN_1
 62
     2
  6
CONTINUOUS
 10
-1.087909
 20
3.236929
  0
VERTEX
  8
PLAN_1
 62
     2
  6
CONTINUOUS
 10
-1.087094
 20
3.240193
  0
VERTEX
  8
PLAN_1
 62
     2
  6
CONTINUOUS
 10
-1.086280
 20
3.243461
  0
VERTEX
  8
PLAN_1
 62
     2
  6
CONTINUOUS
 10
-1.085461
 20
3.247134
  0
VERTEX
  8
PLAN_1
 62
     2
  6
CONTINUOUS
 10
-1.084236
 20
3.249992
  0
VERTEX
  8
PLAN_1
 62
     2
  6
CONTINUOUS
 10
-1.082602
 20
3.253260
  0
VERTEX
  8
PLAN_1
 62
     2
  6
CONTINUOUS
 10
-1.080563
 20
3.256528
  0
VERTEX
  8
PLAN_1
 62
     2
  6
CONTINUOUS
 10
-1.078110
 20
3.259386
  0
VERTEX
  8
PLAN_1
 62
     2
  6
CONTINUOUS
 10
-1.075661
 20
3.261835
  0
VERTEX
  8
PLAN_1
 62
     2
  6
CONTINUOUS
 10
-1.072398
 20
3.264283
  0
VERTEX
  8
PLAN_1
 62
     2
  6
CONTINUOUS
 10
-1.069130
 20
3.265917
  0
VERTEX
  8
PLAN_1
 62
     2
  6
CONTINUOUS
 10
-1.065457
 20
3.267551
  0
VERTEX
  8
PLAN_1
 62
     2
  6
CONTINUOUS
 10
-1.061370
 20
3.268776
  0
VERTEX
  8
PLAN_1
 62
     2
  6
CONTINUOUS
 10
-1.056882
 20
3.269591
  0
VERTEX
  8
PLAN_1
 62
     2
  6
CONTINUOUS
 10
-1.051980
 20
3.270000
  0
VERTEX
  8
PLAN_1
 62
     2
  6
CONTINUOUS
 10
-1.047898
 20
3.270000
  0
VERTEX
  8
PLAN_1
 62
     2
  6
CONTINUOUS
 10
-1.043815
 20
3.269185
  0
VERTEX
  8
PLAN_1
 62
     2
  6
CONTINUOUS
 10
-1.040547
 20
3.268366
  0
VERTEX
  8
PLAN_1
 62
     2
  6
CONTINUOUS
 10
-1.037283
 20
3.267551
  0
VERTEX
  8
PLAN_1
 62
     2
  6
CONTINUOUS
 10
-1.034425
 20
3.265917
  0
VERTEX
  8
PLAN_1
 62
     2
  6
CONTINUOUS
 10
-1.031567
 20
3.264693
  0
VERTEX
  8
PLAN_1
 62
     2
  6
CONTINUOUS
 10
-1.029118
 20
3.262650
  0
VERTEX
  8
PLAN_1
 62
     2
  6
CONTINUOUS
 10
-1.027075
 20
3.260610
  0
VERTEX
  8
PLAN_1
 62
     2
  6
CONTINUOUS
 10
-1.018500
 20
3.270000
  0
VERTEX
  8
PLAN_1
 62
     2
  6
CONTINUOUS
 10
-1.015236
 20
3.266732
  0
VERTEX
  8
PLAN_1
 62
     2
  6
CONTINUOUS
 10
-1.023807
 20
3.257343
  0
SEQEND
  8
0
  0
POLYLINE
  8
PLAN_1
 62
     2
  6
CONTINUOUS
 66
     1
 40
0.003000
 41
0.003000
  0
VERTEX
  8
PLAN_1
 62
     2
  6
CONTINUOUS
 10
-1.069539
 20
3.207531
  0
VERTEX
  8
PLAN_1
 62
     2
  6
CONTINUOUS
 10
-1.067906
 20
3.205898
  0
VERTEX
  8
PLAN_1
 62
     2
  6
CONTINUOUS
 10
-1.066272
 20
3.204673
  0
VERTEX
  8
PLAN_1
 62
     2
  6
CONTINUOUS
 10
-1.064228
 20
3.203449
  0
VERTEX
  8
PLAN_1
 62
     2
  6
CONTINUOUS
 10
-1.061780
 20
3.202224
  0
VERTEX
  8
PLAN_1
 62
     2
  6
CONTINUOUS
 10
-1.059740
 20
3.201406
  0
VERTEX
  8
PLAN_1
 62
     2
  6
CONTINUOUS
 10
-1.057287
 20
3.200591
  0
VERTEX
  8
PLAN_1
 62
     2
  6
CONTINUOUS
 10
-1.054429
 20
3.200591
  0
VERTEX
  8
PLAN_1
 62
     2
  6
CONTINUOUS
 10
-1.051980
 20
3.200181
  0
VERTEX
  8
PLAN_1
 62
     2
  6
CONTINUOUS
 10
-1.048717
 20
3.200591
  0
VERTEX
  8
PLAN_1
 62
     2
  6
CONTINUOUS
 10
-1.045858
 20
3.201000
  0
VERTEX
  8
PLAN_1
 62
     2
  6
CONTINUOUS
 10
-1.043406
 20
3.201406
  0
VERTEX
  8
PLAN_1
 62
     2
  6
CONTINUOUS
 10
-1.040957
 20
3.202630
  0
VERTEX
  8
PLAN_1
 62
     2
  6
CONTINUOUS
 10
-1.038508
 20
3.203854
  0
VERTEX
  8
PLAN_1
 62
     2
  6
CONTINUOUS
 10
-1.036465
 20
3.205083
  0
VERTEX
  8
PLAN_1
 62
     2
  6
CONTINUOUS
 10
-1.034425
 20
3.207122
  0
VERTEX
  8
PLAN_1
 62
     2
  6
CONTINUOUS
 10
-1.032791
 20
3.208756
  0
VERTEX
  8
PLAN_1
 62
     2
  6
CONTINUOUS
 10
-1.031157
 20
3.211205
  0
VERTEX
  8
PLAN_1
 62
     2
  6
CONTINUOUS
 10
-1.029933
 20
3.213248
  0
VERTEX
  8
PLAN_1
 62
     2
  6
CONTINUOUS
 10
-1.028709
 20
3.215697
  0
VERTEX
  8
PLAN_1
 62
     2
  6
CONTINUOUS
 10
-1.027484
 20
3.218555
  0
VERTEX
  8
PLAN_1
 62
     2
  6
CONTINUOUS
 10
-1.026665
 20
3.221413
  0
VERTEX
  8
PLAN_1
 62
     2
  6
CONTINUOUS
 10
-1.026260
 20
3.224272
  0
VERTEX
  8
PLAN_1
 62
     2
  6
CONTINUOUS
 10
-1.025850
 20
3.227535
  0
VERTEX
  8
PLAN_1
 62
     2
  6
CONTINUOUS
 10
-1.025850
 20
3.230803
  0
VERTEX
  8
PLAN_1
 62
     2
  6
CONTINUOUS
 10
-1.025850
 20
3.233252
  0
VERTEX
  8
PLAN_1
 62
     2
  6
CONTINUOUS
 10
-1.026260
 20
3.236110
  0
VERTEX
  8
PLAN_1
 62
     2
  6
CONTINUOUS
 10
-1.026665
 20
3.238563
  0
VERTEX
  8
PLAN_1
 62
     2
  6
CONTINUOUS
 10
-1.027075
 20
3.241012
  0
VERTEX
  8
PLAN_1
 62
     2
  6
CONTINUOUS
 10
-1.027890
 20
3.243461
  0
VERTEX
  8
PLAN_1
 62
     2
  6
CONTINUOUS
 10
-1.028709
 20
3.245909
  0
VERTEX
  8
PLAN_1
 62
     2
  6
CONTINUOUS
 10
-1.029524
 20
3.247953
  0
VERTEX
  8
PLAN_1
 62
     2
  6
CONTINUOUS
 10
-1.030748
 20
3.249992
  0
VERTEX
  8
PLAN_1
 62
     2
  6
CONTINUOUS
 10
-1.069539
 20
3.207531
  0
SEQEND
  8
0
  0
POLYLINE
  8
PLAN_1
 62
     2
  6
CONTINUOUS
 66
     1
 40
0.003000
 41
0.003000
  0
VERTEX
  8
PLAN_1
 62
     2
  6
CONTINUOUS
 10
-1.033606
 20
3.253260
  0
VERTEX
  8
PLAN_1
 62
     2
  6
CONTINUOUS
 10
-1.035240
 20
3.255303
  0
VERTEX
  8
PLAN_1
 62
     2
  6
CONTINUOUS
 10
-1.037283
 20
3.256528
  0
VERTEX
  8
PLAN_1
 62
     2
  6
CONTINUOUS
 10
-1.039323
 20
3.258157
  0
VERTEX
  8
PLAN_1
 62
     2
  6
CONTINUOUS
 10
-1.041366
 20
3.258976
  0
VERTEX
  8
PLAN_1
 62
     2
  6
CONTINUOUS
 10
-1.043815
 20
3.259791
  0
VERTEX
  8
PLAN_1
 62
     2
  6
CONTINUOUS
 10
-1.046264
 20
3.260610
  0
VERTEX
  8
PLAN_1
 62
     2
  6
CONTINUOUS
 10
-1.049122
 20
3.261016
  0
VERTEX
  8
PLAN_1
 62
     2
  6
CONTINUOUS
 10
-1.051980
 20
3.261016
  0
VERTEX
  8
PLAN_1
 62
     2
  6
CONTINUOUS
 10
-1.054839
 20
3.261016
  0
VERTEX
  8
PLAN_1
 62
     2
  6
CONTINUOUS
 10
-1.057697
 20
3.260610
  0
VERTEX
  8
PLAN_1
 62
     2
  6
CONTINUOUS
 10
-1.060146
 20
3.259791
  0
VERTEX
  8
PLAN_1
 62
     2
  6
CONTINUOUS
 10
-1.062598
 20
3.258567
  0
VERTEX
  8
PLAN_1
 62
     2
  6
CONTINUOUS
 10
-1.065047
 20
3.257343
  0
VERTEX
  8
PLAN_1
 62
     2
  6
CONTINUOUS
 10
-1.067087
 20
3.256118
  0
VERTEX
  8
PLAN_1
 62
     2
  6
CONTINUOUS
 10
-1.069130
 20
3.254484
  0
VERTEX
  8
PLAN_1
 62
     2
  6
CONTINUOUS
 10
-1.070764
 20
3.252445
  0
VERTEX
  8
PLAN_1
 62
     2
  6
CONTINUOUS
 10
-1.072398
 20
3.250402
  0
VERTEX
  8
PLAN_1
 62
     2
  6
CONTINUOUS
 10
-1.074028
 20
3.247953
  0
VERTEX
  8
PLAN_1
 62
     2
  6
CONTINUOUS
 10
-1.074846
 20
3.245504
  0
VERTEX
  8
PLAN_1
 62
     2
  6
CONTINUOUS
 10
-1.076071
 20
3.242646
  0
VERTEX
  8
PLAN_1
 62
     2
  6
CONTINUOUS
 10
-1.076886
 20
3.240193
  0
VERTEX
  8
PLAN_1
 62
     2
  6
CONTINUOUS
 10
-1.077295
 20
3.236929
  0
VERTEX
  8
PLAN_1
 62
     2
  6
CONTINUOUS
 10
-1.077705
 20
3.234071
  0
VERTEX
  8
PLAN_1
 62
     2
  6
CONTINUOUS
 10
-1.077705
 20
3.230803
  0
VERTEX
  8
PLAN_1
 62
     2
  6
CONTINUOUS
 10
-1.077705
 20
3.227945
  0
VERTEX
  8
PLAN_1
 62
     2
  6
CONTINUOUS
 10
-1.077295
 20
3.225087
  0
VERTEX
  8
PLAN_1
 62
     2
  6
CONTINUOUS
 10
-1.076886
 20
3.222638
  0
VERTEX
  8
PLAN_1
 62
     2
  6
CONTINUOUS
 10
-1.076480
 20
3.220189
  0
VERTEX
  8
PLAN_1
 62
     2
  6
CONTINUOUS
 10
-1.075661
 20
3.217740
  0
VERTEX
  8
PLAN_1
 62
     2
  6
CONTINUOUS
 10
-1.074846
 20
3.215287
  0
VERTEX
  8
PLAN_1
 62
     2
  6
CONTINUOUS
 10
-1.073622
 20
3.213248
  0
VERTEX
  8
PLAN_1
 62
     2
  6
CONTINUOUS
 10
-1.072398
 20
3.211205
  0
VERTEX
  8
PLAN_1
 62
     2
  6
CONTINUOUS
 10
-1.033606
 20
3.253260
  0
SEQEND
  8
0
  0
POLYLINE
  8
PLAN_1
 62
     2
  6
CONTINUOUS
 66
     1
 40
0.003000
 41
0.003000
  0
VERTEX
  8
PLAN_1
 62
     2
  6
CONTINUOUS
 10
-0.973996
 20
3.193240
  0
VERTEX
  8
PLAN_1
 62
     2
  6
CONTINUOUS
 10
-0.983795
 20
3.193240
  0
VERTEX
  8
PLAN_1
 62
     2
  6
CONTINUOUS
 10
-0.983795
 20
3.245094
  0
VERTEX
  8
PLAN_1
 62
     2
  6
CONTINUOUS
 10
-1.000945
 20
3.245094
  0
VERTEX
  8
PLAN_1
 62
     2
  6
CONTINUOUS
 10
-1.000945
 20
3.252445
  0
VERTEX
  8
PLAN_1
 62
     2
  6
CONTINUOUS
 10
-0.996453
 20
3.252850
  0
VERTEX
  8
PLAN_1
 62
     2
  6
CONTINUOUS
 10
-0.993185
 20
3.253260
  0
VERTEX
  8
PLAN_1
 62
     2
  6
CONTINUOUS
 10
-0.989921
 20
3.254075
  0
VERTEX
  8
PLAN_1
 62
     2
  6
CONTINUOUS
 10
-0.987469
 20
3.255303
  0
VERTEX
  8
PLAN_1
 62
     2
  6
CONTINUOUS
 10
-0.985429
 20
3.256933
  0
VERTEX
  8
PLAN_1
 62
     2
  6
CONTINUOUS
 10
-0.983795
 20
3.259386
  0
VERTEX
  8
PLAN_1
 62
     2
  6
CONTINUOUS
 10
-0.982161
 20
3.262650
  0
VERTEX
  8
PLAN_1
 62
     2
  6
CONTINUOUS
 10
-0.980937
 20
3.266327
  0
VERTEX
  8
PLAN_1
 62
     2
  6
CONTINUOUS
 10
-0.973996
 20
3.266327
  0
VERTEX
  8
PLAN_1
 62
     2
  6
CONTINUOUS
 10
-0.973996
 20
3.193240
  0
SEQEND
  8
0
  0
POLYLINE
  8
PLAN_1
 62
     2
  6
CONTINUOUS
 66
     1
 40
0.003000
 41
0.003000
  0
VERTEX
  8
PLAN_1
 62
     2
  6
CONTINUOUS
 10
-0.924594
 20
3.191201
  0
VERTEX
  8
PLAN_1
 62
     2
  6
CONTINUOUS
 10
-0.928268
 20
3.191606
  0
VERTEX
  8
PLAN_1
 62
     2
  6
CONTINUOUS
 10
-0.931535
 20
3.192425
  0
VERTEX
  8
PLAN_1
 62
     2
  6
CONTINUOUS
 10
-0.934394
 20
3.193650
  0
VERTEX
  8
PLAN_1
 62
     2
  6
CONTINUOUS
 10
-0.937252
 20
3.195283
  0
VERTEX
  8
PLAN_1
 62
     2
  6
CONTINUOUS
 10
-0.939701
 20
3.196913
  0
VERTEX
  8
PLAN_1
 62
     2
  6
CONTINUOUS
 10
-0.941740
 20
3.199366
  0
VERTEX
  8
PLAN_1
 62
     2
  6
CONTINUOUS
 10
-0.943374
 20
3.201815
  0
VERTEX
  8
PLAN_1
 62
     2
  6
CONTINUOUS
 10
-0.945008
 20
3.204264
  0
VERTEX
  8
PLAN_1
 62
     2
  6
CONTINUOUS
 10
-0.946232
 20
3.207122
  0
VERTEX
  8
PLAN_1
 62
     2
  6
CONTINUOUS
 10
-0.947051
 20
3.210390
  0
VERTEX
  8
PLAN_1
 62
     2
  6
CONTINUOUS
 10
-0.947866
 20
3.213654
  0
VERTEX
  8
PLAN_1
 62
     2
  6
CONTINUOUS
 10
-0.948681
 20
3.216512
  0
VERTEX
  8
PLAN_1
 62
     2
  6
CONTINUOUS
 10
-0.949500
 20
3.223047
  0
VERTEX
  8
PLAN_1
 62
     2
  6
CONTINUOUS
 10
-0.949500
 20
3.228764
  0
VERTEX
  8
PLAN_1
 62
     2
  6
CONTINUOUS
 10
-0.949500
 20
3.234886
  0
VERTEX
  8
PLAN_1
 62
     2
  6
CONTINUOUS
 10
-0.948681
 20
3.241012
  0
VERTEX
  8
PLAN_1
 62
     2
  6
CONTINUOUS
 10
-0.947866
 20
3.244276
  0
VERTEX
  8
PLAN_1
 62
     2
  6
CONTINUOUS
 10
-0.947051
 20
3.247543
  0
VERTEX
  8
PLAN_1
 62
     2
  6
CONTINUOUS
 10
-0.946232
 20
3.250402
  0
VERTEX
  8
PLAN_1
 62
     2
  6
CONTINUOUS
 10
-0.945008
 20
3.253260
  0
VERTEX
  8
PLAN_1
 62
     2
  6
CONTINUOUS
 10
-0.943374
 20
3.256118
  0
VERTEX
  8
PLAN_1
 62
     2
  6
CONTINUOUS
 10
-0.941740
 20
3.258567
  0
VERTEX
  8
PLAN_1
 62
     2
  6
CONTINUOUS
 10
-0.939701
 20
3.260610
  0
VERTEX
  8
PLAN_1
 62
     2
  6
CONTINUOUS
 10
-0.937252
 20
3.262650
  0
VERTEX
  8
PLAN_1
 62
     2
  6
CONTINUOUS
 10
-0.934394
 20
3.264283
  0
VERTEX
  8
PLAN_1
 62
     2
  6
CONTINUOUS
 10
-0.931535
 20
3.265508
  0
VERTEX
  8
PLAN_1
 62
     2
  6
CONTINUOUS
 10
-0.928268
 20
3.266327
  0
VERTEX
  8
PLAN_1
 62
     2
  6
CONTINUOUS
 10
-0.924594
 20
3.266327
  0
VERTEX
  8
PLAN_1
 62
     2
  6
CONTINUOUS
 10
-0.920512
 20
3.266327
  0
VERTEX
  8
PLAN_1
 62
     2
  6
CONTINUOUS
 10
-0.917244
 20
3.265508
  0
VERTEX
  8
PLAN_1
 62
     2
  6
CONTINUOUS
 10
-0.914386
 20
3.264283
  0
VERTEX
  8
PLAN_1
 62
     2
  6
CONTINUOUS
 10
-0.911528
 20
3.262650
  0
VERTEX
  8
PLAN_1
 62
     2
  6
CONTINUOUS
 10
-0.909484
 20
3.260610
  0
VERTEX
  8
PLAN_1
 62
     2
  6
CONTINUOUS
 10
-0.907445
 20
3.258567
  0
VERTEX
  8
PLAN_1
 62
     2
  6
CONTINUOUS
 10
-0.905402
 20
3.256118
  0
VERTEX
  8
PLAN_1
 62
     2
  6
CONTINUOUS
 10
-0.904177
 20
3.253260
  0
VERTEX
  8
PLAN_1
 62
     2
  6
CONTINUOUS
 10
-0.902953
 20
3.250402
  0
VERTEX
  8
PLAN_1
 62
     2
  6
CONTINUOUS
 10
-0.901728
 20
3.247543
  0
VERTEX
  8
PLAN_1
 62
     2
  6
CONTINUOUS
 10
-0.900913
 20
3.244276
  0
VERTEX
  8
PLAN_1
 62
     2
  6
CONTINUOUS
 10
-0.900504
 20
3.241012
  0
VERTEX
  8
PLAN_1
 62
     2
  6
CONTINUOUS
 10
-0.899689
 20
3.234886
  0
VERTEX
  8
PLAN_1
 62
     2
  6
CONTINUOUS
 10
-0.899280
 20
3.228764
  0
VERTEX
  8
PLAN_1
 62
     2
  6
CONTINUOUS
 10
-0.899689
 20
3.223047
  0
VERTEX
  8
PLAN_1
 62
     2
  6
CONTINUOUS
 10
-0.900504
 20
3.216512
  0
VERTEX
  8
PLAN_1
 62
     2
  6
CONTINUOUS
 10
-0.900913
 20
3.213654
  0
VERTEX
  8
PLAN_1
 62
     2
  6
CONTINUOUS
 10
-0.901728
 20
3.210390
  0
VERTEX
  8
PLAN_1
 62
     2
  6
CONTINUOUS
 10
-0.902953
 20
3.207122
  0
VERTEX
  8
PLAN_1
 62
     2
  6
CONTINUOUS
 10
-0.904177
 20
3.204264
  0
VERTEX
  8
PLAN_1
 62
     2
  6
CONTINUOUS
 10
-0.905402
 20
3.201815
  0
VERTEX
  8
PLAN_1
 62
     2
  6
CONTINUOUS
 10
-0.907445
 20
3.199366
  0
VERTEX
  8
PLAN_1
 62
     2
  6
CONTINUOUS
 10
-0.909484
 20
3.196913
  0
VERTEX
  8
PLAN_1
 62
     2
  6
CONTINUOUS
 10
-0.911528
 20
3.195283
  0
VERTEX
  8
PLAN_1
 62
     2
  6
CONTINUOUS
 10
-0.914386
 20
3.193650
  0
VERTEX
  8
PLAN_1
 62
     2
  6
CONTINUOUS
 10
-0.917244
 20
3.192425
  0
VERTEX
  8
PLAN_1
 62
     2
  6
CONTINUOUS
 10
-0.920512
 20
3.191606
  0
VERTEX
  8
PLAN_1
 62
     2
  6
CONTINUOUS
 10
-0.924594
 20
3.191201
  0
SEQEND
  8
0
  0
POLYLINE
  8
PLAN_1
 62
     2
  6
CONTINUOUS
 66
     1
 40
0.003000
 41
0.003000
  0
VERTEX
  8
PLAN_1
 62
     2
  6
CONTINUOUS
 10
-0.924594
 20
3.258157
  0
VERTEX
  8
PLAN_1
 62
     2
  6
CONTINUOUS
 10
-0.926224
 20
3.258157
  0
VERTEX
  8
PLAN_1
 62
     2
  6
CONTINUOUS
 10
-0.928268
 20
3.257752
  0
VERTEX
  8
PLAN_1
 62
     2
  6
CONTINUOUS
 10
-0.929902
 20
3.256933
  0
VERTEX
  8
PLAN_1
 62
     2
  6
CONTINUOUS
 10
-0.931126
 20
3.256118
  0
VERTEX
  8
PLAN_1
 62
     2
  6
CONTINUOUS
 10
-0.932760
 20
3.255303
  0
VERTEX
  8
PLAN_1
 62
     2
  6
CONTINUOUS
 10
-0.933984
 20
3.253669
  0
VERTEX
  8
PLAN_1
 62
     2
  6
CONTINUOUS
 10
-0.935209
 20
3.252035
  0
VERTEX
  8
PLAN_1
 62
     2
  6
CONTINUOUS
 10
-0.936024
 20
3.250402
  0
VERTEX
  8
PLAN_1
 62
     2
  6
CONTINUOUS
 10
-0.937657
 20
3.246319
  0
VERTEX
  8
PLAN_1
 62
     2
  6
CONTINUOUS
 10
-0.938882
 20
3.241012
  0
VERTEX
  8
PLAN_1
 62
     2
  6
CONTINUOUS
 10
-0.939701
 20
3.235295
  0
VERTEX
  8
PLAN_1
 62
     2
  6
CONTINUOUS
 10
-0.939701
 20
3.228764
  0
VERTEX
  8
PLAN_1
 62
     2
  6
CONTINUOUS
 10
-0.939701
 20
3.222228
  0
VERTEX
  8
PLAN_1
 62
     2
  6
CONTINUOUS
 10
-0.938882
 20
3.216512
  0
VERTEX
  8
PLAN_1
 62
     2
  6
CONTINUOUS
 10
-0.937657
 20
3.211614
  0
VERTEX
  8
PLAN_1
 62
     2
  6
CONTINUOUS
 10
-0.936024
 20
3.207531
  0
VERTEX
  8
PLAN_1
 62
     2
  6
CONTINUOUS
 10
-0.935209
 20
3.205488
  0
VERTEX
  8
PLAN_1
 62
     2
  6
CONTINUOUS
 10
-0.933984
 20
3.203854
  0
VERTEX
  8
PLAN_1
 62
     2
  6
CONTINUOUS
 10
-0.932760
 20
3.202630
  0
VERTEX
  8
PLAN_1
 62
     2
  6
CONTINUOUS
 10
-0.931126
 20
3.201406
  0
VERTEX
  8
PLAN_1
 62
     2
  6
CONTINUOUS
 10
-0.929902
 20
3.200591
  0
VERTEX
  8
PLAN_1
 62
     2
  6
CONTINUOUS
 10
-0.928268
 20
3.200181
  0
VERTEX
  8
PLAN_1
 62
     2
  6
CONTINUOUS
 10
-0.926224
 20
3.199772
  0
VERTEX
  8
PLAN_1
 62
     2
  6
CONTINUOUS
 10
-0.924594
 20
3.199772
  0
VERTEX
  8
PLAN_1
 62
     2
  6
CONTINUOUS
 10
-0.922551
 20
3.199772
  0
VERTEX
  8
PLAN_1
 62
     2
  6
CONTINUOUS
 10
-0.920917
 20
3.200181
  0
VERTEX
  8
PLAN_1
 62
     2
  6
CONTINUOUS
 10
-0.919283
 20
3.200591
  0
VERTEX
  8
PLAN_1
 62
     2
  6
CONTINUOUS
 10
-0.917654
 20
3.201406
  0
VERTEX
  8
PLAN_1
 62
     2
  6
CONTINUOUS
 10
-0.916425
 20
3.202630
  0
VERTEX
  8
PLAN_1
 62
     2
  6
CONTINUOUS
 10
-0.914795
 20
3.203854
  0
VERTEX
  8
PLAN_1
 62
     2
  6
CONTINUOUS
 10
-0.913976
 20
3.205488
  0
VERTEX
  8
PLAN_1
 62
     2
  6
CONTINUOUS
 10
-0.912752
 20
3.207531
  0
VERTEX
  8
PLAN_1
 62
     2
  6
CONTINUOUS
 10
-0.911118
 20
3.211614
  0
VERTEX
  8
PLAN_1
 62
     2
  6
CONTINUOUS
 10
-0.909894
 20
3.216512
  0
VERTEX
  8
PLAN_1
 62
     2
  6
CONTINUOUS
 10
-0.909484
 20
3.222228
  0
VERTEX
  8
PLAN_1
 62
     2
  6
CONTINUOUS
 10
-0.909079
 20
3.228764
  0
VERTEX
  8
PLAN_1
 62
     2
  6
CONTINUOUS
 10
-0.909484
 20
3.235295
  0
VERTEX
  8
PLAN_1
 62
     2
  6
CONTINUOUS
 10
-0.909894
 20
3.241012
  0
VERTEX
  8
PLAN_1
 62
     2
  6
CONTINUOUS
 10
-0.911118
 20
3.246319
  0
VERTEX
  8
PLAN_1
 62
     2
  6
CONTINUOUS
 10
-0.912752
 20
3.250402
  0
VERTEX
  8
PLAN_1
 62
     2
  6
CONTINUOUS
 10
-0.913976
 20
3.252035
  0
VERTEX
  8
PLAN_1
 62
     2
  6
CONTINUOUS
 10
-0.914795
 20
3.253669
  0
VERTEX
  8
PLAN_1
 62
     2
  6
CONTINUOUS
 10
-0.916425
 20
3.255303
  0
VERTEX
  8
PLAN_1
 62
     2
  6
CONTINUOUS
 10
-0.917654
 20
3.256118
  0
VERTEX
  8
PLAN_1
 62
     2
  6
CONTINUOUS
 10
-0.919283
 20
3.256933
  0
VERTEX
  8
PLAN_1
 62
     2
  6
CONTINUOUS
 10
-0.920917
 20
3.257752
  0
VERTEX
  8
PLAN_1
 62
     2
  6
CONTINUOUS
 10
-0.922551
 20
3.258157
  0
VERTEX
  8
PLAN_1
 62
     2
  6
CONTINUOUS
 10
-0.924594
 20
3.258157
  0
SEQEND
  8
0
  0
POLYLINE
  8
PLAN_1
 62
     2
  6
CONTINUOUS
 66
     1
 40
0.004083
 41
0.004083
  0
VERTEX
  8
PLAN_1
 62
     2
  6
CONTINUOUS
 10
0.347654
 20
1.903437
  0
VERTEX
  8
PLAN_1
 62
     2
  6
CONTINUOUS
 10
0.347654
 20
2.987051
  0
SEQEND
  8
0
  0
SOLID
  8
PLAN_1
 62
     2
 10
0.347654
 20
3.016449
 11
0.332138
 21
2.957244
 12
0.347654
 22
3.016449
 13
0.363579
 23
2.957244
  0
POLYLINE
  8
PLAN_1
 62
     2
  6
CONTINUOUS
 66
     1
 40
0.003000
 41
0.003000
  0
VERTEX
  8
PLAN_1
 62
     2
  6
CONTINUOUS
 10
0.347654
 20
3.016449
  0
VERTEX
  8
PLAN_1
 62
     2
  6
CONTINUOUS
 10
0.332138
 20
2.957244
  0
VERTEX
  8
PLAN_1
 62
     2
  6
CONTINUOUS
 10
0.363579
 20
2.957244
  0
VERTEX
  8
PLAN_1
 62
     2
  6
CONTINUOUS
 10
0.347654
 20
3.016449
  0
SEQEND
  8
0
  0
SOLID
  8
PLAN_1
 62
     2
 10
0.347654
 20
1.874039
 11
0.332138
 21
1.933240
 12
0.347654
 22
1.874039
 13
0.363579
 23
1.933240
  0
POLYLINE
  8
PLAN_1
 62
     2
  6
CONTINUOUS
 66
     1
 40
0.003000
 41
0.003000
  0
VERTEX
  8
PLAN_1
 62
     2
  6
CONTINUOUS
 10
0.347654
 20
1.874039
  0
VERTEX
  8
PLAN_1
 62
     2
  6
CONTINUOUS
 10
0.332138
 20
1.933240
  0
VERTEX
  8
PLAN_1
 62
     2
  6
CONTINUOUS
 10
0.363579
 20
1.933240
  0
VERTEX
  8
PLAN_1
 62
     2
  6
CONTINUOUS
 10
0.347654
 20
1.874039
  0
SEQEND
  8
0
  0
POLYLINE
  8
PLAN_1
 62
     2
  6
CONTINUOUS
 66
     1
 40
0.003000
 41
0.003000
  0
VERTEX
  8
PLAN_1
 62
     2
  6
CONTINUOUS
 10
0.282736
 20
2.410539
  0
VERTEX
  8
PLAN_1
 62
     2
  6
CONTINUOUS
 10
0.282736
 20
2.411354
  0
VERTEX
  8
PLAN_1
 62
     2
  6
CONTINUOUS
 10
0.282736
 20
2.411764
  0
VERTEX
  8
PLAN_1
 62
     2
  6
CONTINUOUS
 10
0.282736
 20
2.412579
  0
VERTEX
  8
PLAN_1
 62
     2
  6
CONTINUOUS
 10
0.282736
 20
2.412988
  0
VERTEX
  8
PLAN_1
 62
     2
  6
CONTINUOUS
 10
0.282736
 20
2.413807
  0
VERTEX
  8
PLAN_1
 62
     2
  6
CONTINUOUS
 10
0.282736
 20
2.414213
  0
VERTEX
  8
PLAN_1
 62
     2
  6
CONTINUOUS
 10
0.282736
 20
2.414622
  0
VERTEX
  8
PLAN_1
 62
     2
  6
CONTINUOUS
 10
0.282736
 20
2.415437
  0
VERTEX
  8
PLAN_1
 62
     2
  6
CONTINUOUS
 10
0.282736
 20
2.417890
  0
VERTEX
  8
PLAN_1
 62
     2
  6
CONTINUOUS
 10
0.282327
 20
2.420748
  0
VERTEX
  8
PLAN_1
 62
     2
  6
CONTINUOUS
 10
0.281512
 20
2.422787
  0
VERTEX
  8
PLAN_1
 62
     2
  6
CONTINUOUS
 10
0.280287
 20
2.424831
  0
VERTEX
  8
PLAN_1
 62
     2
  6
CONTINUOUS
 10
0.278654
 20
2.426870
  0
VERTEX
  8
PLAN_1
 62
     2
  6
CONTINUOUS
 10
0.276610
 20
2.428094
  0
VERTEX
  8
PLAN_1
 62
     2
  6
CONTINUOUS
 10
0.274161
 20
2.428913
  0
VERTEX
  8
PLAN_1
 62
     2
  6
CONTINUOUS
 10
0.270894
 20
2.429319
  0
VERTEX
  8
PLAN_1
 62
     2
  6
CONTINUOUS
 10
0.269264
 20
2.429319
  0
VERTEX
  8
PLAN_1
 62
     2
  6
CONTINUOUS
 10
0.267220
 20
2.428913
  0
VERTEX
  8
PLAN_1
 62
     2
  6
CONTINUOUS
 10
0.265177
 20
2.428094
  0
VERTEX
  8
PLAN_1
 62
     2
  6
CONTINUOUS
 10
0.263547
 20
2.426461
  0
VERTEX
  8
PLAN_1
 62
     2
  6
CONTINUOUS
 10
0.261913
 20
2.424831
  0
VERTEX
  8
PLAN_1
 62
     2
  6
CONTINUOUS
 10
0.260689
 20
2.422378
  0
VERTEX
  8
PLAN_1
 62
     2
  6
CONTINUOUS
 10
0.259465
 20
2.419520
  0
VERTEX
  8
PLAN_1
 62
     2
  6
CONTINUOUS
 10
0.259465
 20
2.415846
  0
VERTEX
  8
PLAN_1
 62
     2
  6
CONTINUOUS
 10
0.259465
 20
2.413398
  0
VERTEX
  8
PLAN_1
 62
     2
  6
CONTINUOUS
 10
0.259870
 20
2.411354
  0
VERTEX
  8
PLAN_1
 62
     2
  6
CONTINUOUS
 10
0.260280
 20
2.409720
  0
VERTEX
  8
PLAN_1
 62
     2
  6
CONTINUOUS
 10
0.261094
 20
2.408091
  0
VERTEX
  8
PLAN_1
 62
     2
  6
CONTINUOUS
 10
0.261913
 20
2.406862
  0
VERTEX
  8
PLAN_1
 62
     2
  6
CONTINUOUS
 10
0.263138
 20
2.405638
  0
VERTEX
  8
PLAN_1
 62
     2
  6
CONTINUOUS
 10
0.263953
 20
2.404823
  0
VERTEX
  8
PLAN_1
 62
     2
  6
CONTINUOUS
 10
0.265177
 20
2.404008
  0
VERTEX
  8
PLAN_1
 62
     2
  6
CONTINUOUS
 10
0.267630
 20
2.402780
  0
VERTEX
  8
PLAN_1
 62
     2
  6
CONTINUOUS
 10
0.270488
 20
2.401965
  0
VERTEX
  8
PLAN_1
 62
     2
  6
CONTINUOUS
 10
0.272937
 20
2.401555
  0
VERTEX
  8
PLAN_1
 62
     2
  6
CONTINUOUS
 10
0.274976
 20
2.401555
  0
VERTEX
  8
PLAN_1
 62
     2
  6
CONTINUOUS
 10
0.274976
 20
2.392575
  0
VERTEX
  8
PLAN_1
 62
     2
  6
CONTINUOUS
 10
0.270894
 20
2.392980
  0
VERTEX
  8
PLAN_1
 62
     2
  6
CONTINUOUS
 10
0.266811
 20
2.393799
  0
VERTEX
  8
PLAN_1
 62
     2
  6
CONTINUOUS
 10
0.264772
 20
2.394209
  0
VERTEX
  8
PLAN_1
 62
     2
  6
CONTINUOUS
 10
0.262728
 20
2.395024
  0
VERTEX
  8
PLAN_1
 62
     2
  6
CONTINUOUS
 10
0.260689
 20
2.395839
  0
VERTEX
  8
PLAN_1
 62
     2
  6
CONTINUOUS
 10
0.259055
 20
2.397067
  0
VERTEX
  8
PLAN_1
 62
     2
  6
CONTINUOUS
 10
0.257421
 20
2.398697
  0
VERTEX
  8
PLAN_1
 62
     2
  6
CONTINUOUS
 10
0.255787
 20
2.400331
  0
VERTEX
  8
PLAN_1
 62
     2
  6
CONTINUOUS
 10
0.254563
 20
2.402374
  0
VERTEX
  8
PLAN_1
 62
     2
  6
CONTINUOUS
 10
0.253339
 20
2.404413
  0
VERTEX
  8
PLAN_1
 62
     2
  6
CONTINUOUS
 10
0.252524
 20
2.406862
  0
VERTEX
  8
PLAN_1
 62
     2
  6
CONTINUOUS
 10
0.251705
 20
2.409720
  0
VERTEX
  8
PLAN_1
 62
     2
  6
CONTINUOUS
 10
0.251295
 20
2.412988
  0
VERTEX
  8
PLAN_1
 62
     2
  6
CONTINUOUS
 10
0.251295
 20
2.416256
  0
VERTEX
  8
PLAN_1
 62
     2
  6
CONTINUOUS
 10
0.251295
 20
2.421154
  0
VERTEX
  8
PLAN_1
 62
     2
  6
CONTINUOUS
 10
0.252524
 20
2.425646
  0
VERTEX
  8
PLAN_1
 62
     2
  6
CONTINUOUS
 10
0.254154
 20
2.429728
  0
VERTEX
  8
PLAN_1
 62
     2
  6
CONTINUOUS
 10
0.256606
 20
2.432996
  0
VERTEX
  8
PLAN_1
 62
     2
  6
CONTINUOUS
 10
0.257831
 20
2.434220
  0
VERTEX
  8
PLAN_1
 62
     2
  6
CONTINUOUS
 10
0.259465
 20
2.435445
  0
VERTEX
  8
PLAN_1
 62
     2
  6
CONTINUOUS
 10
0.261094
 20
2.436260
  0
VERTEX
  8
PLAN_1
 62
     2
  6
CONTINUOUS
 10
0.262728
 20
2.437079
  0
VERTEX
  8
PLAN_1
 62
     2
  6
CONTINUOUS
 10
0.266406
 20
2.438303
  0
VERTEX
  8
PLAN_1
 62
     2
  6
CONTINUOUS
 10
0.270488
 20
2.438713
  0
VERTEX
  8
PLAN_1
 62
     2
  6
CONTINUOUS
 10
0.273752
 20
2.438713
  0
VERTEX
  8
PLAN_1
 62
     2
  6
CONTINUOUS
 10
0.276610
 20
2.437894
  0
VERTEX
  8
PLAN_1
 62
     2
  6
CONTINUOUS
 10
0.279059
 20
2.436669
  0
VERTEX
  8
PLAN_1
 62
     2
  6
CONTINUOUS
 10
0.281102
 20
2.435445
  0
VERTEX
  8
PLAN_1
 62
     2
  6
CONTINUOUS
 10
0.282736
 20
2.434220
  0
VERTEX
  8
PLAN_1
 62
     2
  6
CONTINUOUS
 10
0.283961
 20
2.432587
  0
VERTEX
  8
PLAN_1
 62
     2
  6
CONTINUOUS
 10
0.284776
 20
2.430953
  0
VERTEX
  8
PLAN_1
 62
     2
  6
CONTINUOUS
 10
0.285594
 20
2.429319
  0
VERTEX
  8
PLAN_1
 62
     2
  6
CONTINUOUS
 10
0.286819
 20
2.432177
  0
VERTEX
  8
PLAN_1
 62
     2
  6
CONTINUOUS
 10
0.288043
 20
2.434220
  0
VERTEX
  8
PLAN_1
 62
     2
  6
CONTINUOUS
 10
0.289268
 20
2.436260
  0
VERTEX
  8
PLAN_1
 62
     2
  6
CONTINUOUS
 10
0.291311
 20
2.438303
  0
VERTEX
  8
PLAN_1
 62
     2
  6
CONTINUOUS
 10
0.293760
 20
2.439528
  0
VERTEX
  8
PLAN_1
 62
     2
  6
CONTINUOUS
 10
0.296209
 20
2.440752
  0
VERTEX
  8
PLAN_1
 62
     2
  6
CONTINUOUS
 10
0.299067
 20
2.441571
  0
VERTEX
  8
PLAN_1
 62
     2
  6
CONTINUOUS
 10
0.302740
 20
2.441571
  0
VERTEX
  8
PLAN_1
 62
     2
  6
CONTINUOUS
 10
0.307232
 20
2.441161
  0
VERTEX
  8
PLAN_1
 62
     2
  6
CONTINUOUS
 10
0.311315
 20
2.439937
  0
VERTEX
  8
PLAN_1
 62
     2
  6
CONTINUOUS
 10
0.313358
 20
2.439118
  0
VERTEX
  8
PLAN_1
 62
     2
  6
CONTINUOUS
 10
0.315398
 20
2.438303
  0
VERTEX
  8
PLAN_1
 62
     2
  6
CONTINUOUS
 10
0.317031
 20
2.437079
  0
VERTEX
  8
PLAN_1
 62
     2
  6
CONTINUOUS
 10
0.319075
 20
2.435445
  0
VERTEX
  8
PLAN_1
 62
     2
  6
CONTINUOUS
 10
0.320299
 20
2.433811
  0
VERTEX
  8
PLAN_1
 62
     2
  6
CONTINUOUS
 10
0.321933
 20
2.431772
  0
VERTEX
  8
PLAN_1
 62
     2
  6
CONTINUOUS
 10
0.323157
 20
2.429728
  0
VERTEX
  8
PLAN_1
 62
     2
  6
CONTINUOUS
 10
0.324382
 20
2.427280
  0
VERTEX
  8
PLAN_1
 62
     2
  6
CONTINUOUS
 10
0.325197
 20
2.424831
  0
VERTEX
  8
PLAN_1
 62
     2
  6
CONTINUOUS
 10
0.325606
 20
2.421563
  0
VERTEX
  8
PLAN_1
 62
     2
  6
CONTINUOUS
 10
0.326016
 20
2.418705
  0
VERTEX
  8
PLAN_1
 62
     2
  6
CONTINUOUS
 10
0.326016
 20
2.415437
  0
VERTEX
  8
PLAN_1
 62
     2
  6
CONTINUOUS
 10
0.326016
 20
2.413398
  0
VERTEX
  8
PLAN_1
 62
     2
  6
CONTINUOUS
 10
0.326016
 20
2.411354
  0
VERTEX
  8
PLAN_1
 62
     2
  6
CONTINUOUS
 10
0.325606
 20
2.409720
  0
VERTEX
  8
PLAN_1
 62
     2
  6
CONTINUOUS
 10
0.325197
 20
2.407681
  0
VERTEX
  8
PLAN_1
 62
     2
  6
CONTINUOUS
 10
0.324791
 20
2.406047
  0
VERTEX
  8
PLAN_1
 62
     2
  6
CONTINUOUS
 10
0.324382
 20
2.404413
  0
VERTEX
  8
PLAN_1
 62
     2
  6
CONTINUOUS
 10
0.323567
 20
2.403189
  0
VERTEX
  8
PLAN_1
 62
     2
  6
CONTINUOUS
 10
0.323157
 20
2.401965
  0
VERTEX
  8
PLAN_1
 62
     2
  6
CONTINUOUS
 10
0.321114
 20
2.399106
  0
VERTEX
  8
PLAN_1
 62
     2
  6
CONTINUOUS
 10
0.319075
 20
2.396657
  0
VERTEX
  8
PLAN_1
 62
     2
  6
CONTINUOUS
 10
0.316626
 20
2.395024
  0
VERTEX
  8
PLAN_1
 62
     2
  6
CONTINUOUS
 10
0.314173
 20
2.393390
  0
VERTEX
  8
PLAN_1
 62
     2
  6
CONTINUOUS
 10
0.311315
 20
2.392575
  0
VERTEX
  8
PLAN_1
 62
     2
  6
CONTINUOUS
 10
0.308051
 20
2.391756
  0
VERTEX
  8
PLAN_1
 62
     2
  6
CONTINUOUS
 10
0.305193
 20
2.391350
  0
VERTEX
  8
PLAN_1
 62
     2
  6
CONTINUOUS
 10
0.301925
 20
2.390941
  0
VERTEX
  8
PLAN_1
 62
     2
  6
CONTINUOUS
 10
0.301925
 20
2.400331
  0
VERTEX
  8
PLAN_1
 62
     2
  6
CONTINUOUS
 10
0.304374
 20
2.400331
  0
VERTEX
  8
PLAN_1
 62
     2
  6
CONTINUOUS
 10
0.307232
 20
2.401150
  0
VERTEX
  8
PLAN_1
 62
     2
  6
CONTINUOUS
 10
0.310091
 20
2.401965
  0
VERTEX
  8
PLAN_1
 62
     2
  6
CONTINUOUS
 10
0.312539
 20
2.403189
  0
VERTEX
  8
PLAN_1
 62
     2
  6
CONTINUOUS
 10
0.313768
 20
2.404008
  0
VERTEX
  8
PLAN_1
 62
     2
  6
CONTINUOUS
 10
0.314583
 20
2.405232
  0
VERTEX
  8
PLAN_1
 62
     2
  6
CONTINUOUS
 10
0.315807
 20
2.406457
  0
VERTEX
  8
PLAN_1
 62
     2
  6
CONTINUOUS
 10
0.316626
 20
2.407681
  0
VERTEX
  8
PLAN_1
 62
     2
  6
CONTINUOUS
 10
0.317031
 20
2.409315
  0
VERTEX
  8
PLAN_1
 62
     2
  6
CONTINUOUS
 10
0.317441
 20
2.411354
  0
VERTEX
  8
PLAN_1
 62
     2
  6
CONTINUOUS
 10
0.317850
 20
2.413398
  0
VERTEX
  8
PLAN_1
 62
     2
  6
CONTINUOUS
 10
0.317850
 20
2.415846
  0
VERTEX
  8
PLAN_1
 62
     2
  6
CONTINUOUS
 10
0.317850
 20
2.419114
  0
VERTEX
  8
PLAN_1
 62
     2
  6
CONTINUOUS
 10
0.317031
 20
2.422378
  0
VERTEX
  8
PLAN_1
 62
     2
  6
CONTINUOUS
 10
0.315807
 20
2.425236
  0
VERTEX
  8
PLAN_1
 62
     2
  6
CONTINUOUS
 10
0.314173
 20
2.427280
  0
VERTEX
  8
PLAN_1
 62
     2
  6
CONTINUOUS
 10
0.312134
 20
2.429319
  0
VERTEX
  8
PLAN_1
 62
     2
  6
CONTINUOUS
 10
0.309685
 20
2.430543
  0
VERTEX
  8
PLAN_1
 62
     2
  6
CONTINUOUS
 10
0.306827
 20
2.431362
  0
VERTEX
  8
PLAN_1
 62
     2
  6
CONTINUOUS
 10
0.303969
 20
2.431772
  0
VERTEX
  8
PLAN_1
 62
     2
  6
CONTINUOUS
 10
0.301516
 20
2.431772
  0
VERTEX
  8
PLAN_1
 62
     2
  6
CONTINUOUS
 10
0.299886
 20
2.431362
  0
VERTEX
  8
PLAN_1
 62
     2
  6
CONTINUOUS
 10
0.297843
 20
2.430953
  0
VERTEX
  8
PLAN_1
 62
     2
  6
CONTINUOUS
 10
0.296618
 20
2.430138
  0
VERTEX
  8
PLAN_1
 62
     2
  6
CONTINUOUS
 10
0.295394
 20
2.429319
  0
VERTEX
  8
PLAN_1
 62
     2
  6
CONTINUOUS
 10
0.294169
 20
2.428094
  0
VERTEX
  8
PLAN_1
 62
     2
  6
CONTINUOUS
 10
0.293350
 20
2.426870
  0
VERTEX
  8
PLAN_1
 62
     2
  6
CONTINUOUS
 10
0.292535
 20
2.425646
  0
VERTEX
  8
PLAN_1
 62
     2
  6
CONTINUOUS
 10
0.291311
 20
2.422787
  0
VERTEX
  8
PLAN_1
 62
     2
  6
CONTINUOUS
 10
0.290902
 20
2.419929
  0
VERTEX
  8
PLAN_1
 62
     2
  6
CONTINUOUS
 10
0.290492
 20
2.417480
  0
VERTEX
  8
PLAN_1
 62
     2
  6
CONTINUOUS
 10
0.290492
 20
2.414622
  0
VERTEX
  8
PLAN_1
 62
     2
  6
CONTINUOUS
 10
0.290492
 20
2.414213
  0
VERTEX
  8
PLAN_1
 62
     2
  6
CONTINUOUS
 10
0.290492
 20
2.413807
  0
VERTEX
  8
PLAN_1
 62
     2
  6
CONTINUOUS
 10
0.290492
 20
2.413398
  0
VERTEX
  8
PLAN_1
 62
     2
  6
CONTINUOUS
 10
0.290492
 20
2.412579
  0
VERTEX
  8
PLAN_1
 62
     2
  6
CONTINUOUS
 10
0.290492
 20
2.412173
  0
VERTEX
  8
PLAN_1
 62
     2
  6
CONTINUOUS
 10
0.290492
 20
2.411764
  0
VERTEX
  8
PLAN_1
 62
     2
  6
CONTINUOUS
 10
0.290492
 20
2.410949
  0
VERTEX
  8
PLAN_1
 62
     2
  6
CONTINUOUS
 10
0.290492
 20
2.410539
  0
VERTEX
  8
PLAN_1
 62
     2
  6
CONTINUOUS
 10
0.282736
 20
2.410539
  0
SEQEND
  8
0
  0
POLYLINE
  8
PLAN_1
 62
     2
  6
CONTINUOUS
 66
     1
 40
0.003000
 41
0.003000
  0
VERTEX
  8
PLAN_1
 62
     2
  6
CONTINUOUS
 10
0.326016
 20
2.474232
  0
VERTEX
  8
PLAN_1
 62
     2
  6
CONTINUOUS
 10
0.326016
 20
2.470559
  0
VERTEX
  8
PLAN_1
 62
     2
  6
CONTINUOUS
 10
0.325197
 20
2.466882
  0
VERTEX
  8
PLAN_1
 62
     2
  6
CONTINUOUS
 10
0.323972
 20
2.464024
  0
VERTEX
  8
PLAN_1
 62
     2
  6
CONTINUOUS
 10
0.322339
 20
2.461169
  0
VERTEX
  8
PLAN_1
 62
     2
  6
CONTINUOUS
 10
0.320709
 20
2.459126
  0
VERTEX
  8
PLAN_1
 62
     2
  6
CONTINUOUS
 10
0.318256
 20
2.457083
  0
VERTEX
  8
PLAN_1
 62
     2
  6
CONTINUOUS
 10
0.315807
 20
2.455043
  0
VERTEX
  8
PLAN_1
 62
     2
  6
CONTINUOUS
 10
0.312949
 20
2.453819
  0
VERTEX
  8
PLAN_1
 62
     2
  6
CONTINUOUS
 10
0.310091
 20
2.452594
  0
VERTEX
  8
PLAN_1
 62
     2
  6
CONTINUOUS
 10
0.307232
 20
2.451370
  0
VERTEX
  8
PLAN_1
 62
     2
  6
CONTINUOUS
 10
0.303969
 20
2.450551
  0
VERTEX
  8
PLAN_1
 62
     2
  6
CONTINUOUS
 10
0.301110
 20
2.450142
  0
VERTEX
  8
PLAN_1
 62
     2
  6
CONTINUOUS
 10
0.294575
 20
2.449327
  0
VERTEX
  8
PLAN_1
 62
     2
  6
CONTINUOUS
 10
0.288453
 20
2.448917
  0
VERTEX
  8
PLAN_1
 62
     2
  6
CONTINUOUS
 10
0.282736
 20
2.449327
  0
VERTEX
  8
PLAN_1
 62
     2
  6
CONTINUOUS
 10
0.276205
 20
2.450142
  0
VERTEX
  8
PLAN_1
 62
     2
  6
CONTINUOUS
 10
0.273346
 20
2.450551
  0
VERTEX
  8
PLAN_1
 62
     2
  6
CONTINUOUS
 10
0.270079
 20
2.451370
  0
VERTEX
  8
PLAN_1
 62
     2
  6
CONTINUOUS
 10
0.267220
 20
2.452594
  0
VERTEX
  8
PLAN_1
 62
     2
  6
CONTINUOUS
 10
0.264362
 20
2.453819
  0
VERTEX
  8
PLAN_1
 62
     2
  6
CONTINUOUS
 10
0.261504
 20
2.455043
  0
VERTEX
  8
PLAN_1
 62
     2
  6
CONTINUOUS
 10
0.259055
 20
2.457083
  0
VERTEX
  8
PLAN_1
 62
     2
  6
CONTINUOUS
 10
0.256606
 20
2.459126
  0
VERTEX
  8
PLAN_1
 62
     2
  6
CONTINUOUS
 10
0.254972
 20
2.461169
  0
VERTEX
  8
PLAN_1
 62
     2
  6
CONTINUOUS
 10
0.253339
 20
2.464024
  0
VERTEX
  8
PLAN_1
 62
     2
  6
CONTINUOUS
 10
0.252114
 20
2.466882
  0
VERTEX
  8
PLAN_1
 62
     2
  6
CONTINUOUS
 10
0.251295
 20
2.470559
  0
VERTEX
  8
PLAN_1
 62
     2
  6
CONTINUOUS
 10
0.251295
 20
2.474232
  0
VERTEX
  8
PLAN_1
 62
     2
  6
CONTINUOUS
 10
0.251295
 20
2.477909
  0
VERTEX
  8
PLAN_1
 62
     2
  6
CONTINUOUS
 10
0.252114
 20
2.481173
  0
VERTEX
  8
PLAN_1
 62
     2
  6
CONTINUOUS
 10
0.253339
 20
2.484031
  0
VERTEX
  8
PLAN_1
 62
     2
  6
CONTINUOUS
 10
0.254972
 20
2.486890
  0
VERTEX
  8
PLAN_1
 62
     2
  6
CONTINUOUS
 10
0.256606
 20
2.489339
  0
VERTEX
  8
PLAN_1
 62
     2
  6
CONTINUOUS
 10
0.259055
 20
2.491382
  0
VERTEX
  8
PLAN_1
 62
     2
  6
CONTINUOUS
 10
0.261504
 20
2.493016
  0
VERTEX
  8
PLAN_1
 62
     2
  6
CONTINUOUS
 10
0.264362
 20
2.494646
  0
VERTEX
  8
PLAN_1
 62
     2
  6
CONTINUOUS
 10
0.267220
 20
2.495874
  0
VERTEX
  8
PLAN_1
 62
     2
  6
CONTINUOUS
 10
0.270079
 20
2.496689
  0
VERTEX
  8
PLAN_1
 62
     2
  6
CONTINUOUS
 10
0.273346
 20
2.497504
  0
VERTEX
  8
PLAN_1
 62
     2
  6
CONTINUOUS
 10
0.276205
 20
2.498323
  0
VERTEX
  8
PLAN_1
 62
     2
  6
CONTINUOUS
 10
0.282736
 20
2.499138
  0
VERTEX
  8
PLAN_1
 62
     2
  6
CONTINUOUS
 10
0.288453
 20
2.499138
  0
VERTEX
  8
PLAN_1
 62
     2
  6
CONTINUOUS
 10
0.294575
 20
2.499138
  0
VERTEX
  8
PLAN_1
 62
     2
  6
CONTINUOUS
 10
0.301110
 20
2.498323
  0
VERTEX
  8
PLAN_1
 62
     2
  6
CONTINUOUS
 10
0.303969
 20
2.497504
  0
VERTEX
  8
PLAN_1
 62
     2
  6
CONTINUOUS
 10
0.307232
 20
2.496689
  0
VERTEX
  8
PLAN_1
 62
     2
  6
CONTINUOUS
 10
0.310091
 20
2.495874
  0
VERTEX
  8
PLAN_1
 62
     2
  6
CONTINUOUS
 10
0.312949
 20
2.494646
  0
VERTEX
  8
PLAN_1
 62
     2
  6
CONTINUOUS
 10
0.315807
 20
2.493016
  0
VERTEX
  8
PLAN_1
 62
     2
  6
CONTINUOUS
 10
0.318256
 20
2.491382
  0
VERTEX
  8
PLAN_1
 62
     2
  6
CONTINUOUS
 10
0.320709
 20
2.489339
  0
VERTEX
  8
PLAN_1
 62
     2
  6
CONTINUOUS
 10
0.322339
 20
2.486890
  0
VERTEX
  8
PLAN_1
 62
     2
  6
CONTINUOUS
 10
0.323972
 20
2.484031
  0
VERTEX
  8
PLAN_1
 62
     2
  6
CONTINUOUS
 10
0.325197
 20
2.481173
  0
VERTEX
  8
PLAN_1
 62
     2
  6
CONTINUOUS
 10
0.326016
 20
2.477909
  0
VERTEX
  8
PLAN_1
 62
     2
  6
CONTINUOUS
 10
0.326016
 20
2.474232
  0
SEQEND
  8
0
  0
POLYLINE
  8
PLAN_1
 62
     2
  6
CONTINUOUS
 66
     1
 40
0.003000
 41
0.003000
  0
VERTEX
  8
PLAN_1
 62
     2
  6
CONTINUOUS
 10
0.259465
 20
2.474232
  0
VERTEX
  8
PLAN_1
 62
     2
  6
CONTINUOUS
 10
0.259465
 20
2.472193
  0
VERTEX
  8
PLAN_1
 62
     2
  6
CONTINUOUS
 10
0.259870
 20
2.470559
  0
VERTEX
  8
PLAN_1
 62
     2
  6
CONTINUOUS
 10
0.260280
 20
2.468925
  0
VERTEX
  8
PLAN_1
 62
     2
  6
CONTINUOUS
 10
0.261504
 20
2.467291
  0
VERTEX
  8
PLAN_1
 62
     2
  6
CONTINUOUS
 10
0.262319
 20
2.466067
  0
VERTEX
  8
PLAN_1
 62
     2
  6
CONTINUOUS
 10
0.263953
 20
2.464843
  0
VERTEX
  8
PLAN_1
 62
     2
  6
CONTINUOUS
 10
0.265177
 20
2.463618
  0
VERTEX
  8
PLAN_1
 62
     2
  6
CONTINUOUS
 10
0.267220
 20
2.462394
  0
VERTEX
  8
PLAN_1
 62
     2
  6
CONTINUOUS
 10
0.271303
 20
2.460760
  0
VERTEX
  8
PLAN_1
 62
     2
  6
CONTINUOUS
 10
0.276205
 20
2.459535
  0
VERTEX
  8
PLAN_1
 62
     2
  6
CONTINUOUS
 10
0.282327
 20
2.459126
  0
VERTEX
  8
PLAN_1
 62
     2
  6
CONTINUOUS
 10
0.288453
 20
2.458717
  0
VERTEX
  8
PLAN_1
 62
     2
  6
CONTINUOUS
 10
0.294984
 20
2.459126
  0
VERTEX
  8
PLAN_1
 62
     2
  6
CONTINUOUS
 10
0.301110
 20
2.459535
  0
VERTEX
  8
PLAN_1
 62
     2
  6
CONTINUOUS
 10
0.306008
 20
2.460760
  0
VERTEX
  8
PLAN_1
 62
     2
  6
CONTINUOUS
 10
0.310091
 20
2.462394
  0
VERTEX
  8
PLAN_1
 62
     2
  6
CONTINUOUS
 10
0.312134
 20
2.463618
  0
VERTEX
  8
PLAN_1
 62
     2
  6
CONTINUOUS
 10
0.313358
 20
2.464843
  0
VERTEX
  8
PLAN_1
 62
     2
  6
CONTINUOUS
 10
0.314992
 20
2.466067
  0
VERTEX
  8
PLAN_1
 62
     2
  6
CONTINUOUS
 10
0.315807
 20
2.467291
  0
VERTEX
  8
PLAN_1
 62
     2
  6
CONTINUOUS
 10
0.317031
 20
2.468925
  0
VERTEX
  8
PLAN_1
 62
     2
  6
CONTINUOUS
 10
0.317441
 20
2.470559
  0
VERTEX
  8
PLAN_1
 62
     2
  6
CONTINUOUS
 10
0.317850
 20
2.472193
  0
VERTEX
  8
PLAN_1
 62
     2
  6
CONTINUOUS
 10
0.317850
 20
2.474232
  0
VERTEX
  8
PLAN_1
 62
     2
  6
CONTINUOUS
 10
0.317850
 20
2.475866
  0
VERTEX
  8
PLAN_1
 62
     2
  6
CONTINUOUS
 10
0.317441
 20
2.477909
  0
VERTEX
  8
PLAN_1
 62
     2
  6
CONTINUOUS
 10
0.317031
 20
2.479539
  0
VERTEX
  8
PLAN_1
 62
     2
  6
CONTINUOUS
 10
0.315807
 20
2.480764
  0
VERTEX
  8
PLAN_1
 62
     2
  6
CONTINUOUS
 10
0.314992
 20
2.482398
  0
VERTEX
  8
PLAN_1
 62
     2
  6
CONTINUOUS
 10
0.313358
 20
2.483622
  0
VERTEX
  8
PLAN_1
 62
     2
  6
CONTINUOUS
 10
0.312134
 20
2.484850
  0
VERTEX
  8
PLAN_1
 62
     2
  6
CONTINUOUS
 10
0.310091
 20
2.485665
  0
VERTEX
  8
PLAN_1
 62
     2
  6
CONTINUOUS
 10
0.306008
 20
2.487299
  0
VERTEX
  8
PLAN_1
 62
     2
  6
CONTINUOUS
 10
0.301110
 20
2.488524
  0
VERTEX
  8
PLAN_1
 62
     2
  6
CONTINUOUS
 10
0.294984
 20
2.489339
  0
VERTEX
  8
PLAN_1
 62
     2
  6
CONTINUOUS
 10
0.288453
 20
2.489339
  0
VERTEX
  8
PLAN_1
 62
     2
  6
CONTINUOUS
 10
0.282327
 20
2.489339
  0
VERTEX
  8
PLAN_1
 62
     2
  6
CONTINUOUS
 10
0.276205
 20
2.488524
  0
VERTEX
  8
PLAN_1
 62
     2
  6
CONTINUOUS
 10
0.271303
 20
2.487299
  0
VERTEX
  8
PLAN_1
 62
     2
  6
CONTINUOUS
 10
0.267220
 20
2.485665
  0
VERTEX
  8
PLAN_1
 62
     2
  6
CONTINUOUS
 10
0.265177
 20
2.484850
  0
VERTEX
  8
PLAN_1
 62
     2
  6
CONTINUOUS
 10
0.263953
 20
2.483622
  0
VERTEX
  8
PLAN_1
 62
     2
  6
CONTINUOUS
 10
0.262319
 20
2.482398
  0
VERTEX
  8
PLAN_1
 62
     2
  6
CONTINUOUS
 10
0.261504
 20
2.480764
  0
VERTEX
  8
PLAN_1
 62
     2
  6
CONTINUOUS
 10
0.260280
 20
2.479539
  0
VERTEX
  8
PLAN_1
 62
     2
  6
CONTINUOUS
 10
0.259870
 20
2.477909
  0
VERTEX
  8
PLAN_1
 62
     2
  6
CONTINUOUS
 10
0.259465
 20
2.475866
  0
VERTEX
  8
PLAN_1
 62
     2
  6
CONTINUOUS
 10
0.259465
 20
2.474232
  0
SEQEND
  8
0
  0
POLYLINE
  8
PLAN_1
 62
     2
  6
CONTINUOUS
 66
     1
 40
0.004083
 41
0.004083
  0
VERTEX
  8
PLAN_1
 62
     2
  6
CONTINUOUS
 10
-1.192843
 20
2.971535
  0
VERTEX
  8
PLAN_1
 62
     2
  6
CONTINUOUS
 10
-1.192843
 20
3.193240
  0
SEQEND
  8
0
  0
POLYLINE
  8
PLAN_1
 62
     2
  6
CONTINUOUS
 66
     1
 40
0.004083
 41
0.004083
  0
VERTEX
  8
PLAN_1
 62
     2
  6
CONTINUOUS
 10
-0.799248
 20
2.971535
  0
VERTEX
  8
PLAN_1
 62
     2
  6
CONTINUOUS
 10
-0.799248
 20
3.193240
  0
SEQEND
  8
0
  0
POLYLINE
  8
PLAN_1
 62
     2
  6
CONTINUOUS
 66
     1
 40
0.004083
 41
0.004083
  0
VERTEX
  8
PLAN_1
 62
     2
  6
CONTINUOUS
 10
0.371335
 20
3.016449
  0
VERTEX
  8
PLAN_1
 62
     2
  6
CONTINUOUS
 10
-0.775972
 20
3.016449
  0
SEQEND
  8
0
  0
POLYLINE
  8
PLAN_1
 62
     2
  6
CONTINUOUS
 66
     1
 40
0.004083
 41
0.004083
  0
VERTEX
  8
PLAN_1
 62
     2
  6
CONTINUOUS
 10
-0.823335
 20
3.016449
  0
VERTEX
  8
PLAN_1
 62
     2
  6
CONTINUOUS
 10
-0.953173
 20
3.016449
  0
SEQEND
  8
0
  0
POLYLINE
  8
PLAN_1
 62
     2
  6
CONTINUOUS
 66
     1
 40
0.004083
 41
0.004083
  0
VERTEX
  8
PLAN_1
 62
     2
  6
CONTINUOUS
 10
0.371335
 20
1.874039
  0
VERTEX
  8
PLAN_1
 62
     2
  6
CONTINUOUS
 10
0.043882
 20
1.874039
  0
SEQEND
  8
0
  0
ENDSEC
  0
EOF
