  0
SECTION
  2
HEADER
  9
$ACADVER
  1
AC1006
  9
$EXTMIN
 10
-1.816236
 20
-3.811449
  9
$EXTMAX
 10
1.818000
 20
3.808000
  9
$LTSCALE
 40
0.000394
  9
$PDMODE
 70
    35
  9
$PDSIZE
 40
0.000315
  0
ENDSEC
  0
SECTION
  2
TABLES
  0
TABLE
  2
LTYPE
 70
     9
  0
LTYPE
  2
CONTINUOUS
 70
    64
  3
Solid line
 72
    65
 73
     0
 40
0.000000
  0
LTYPE
  2
DASHED
 70
    64
  3
__ __ __ __ __ __ __ __ __ __ __ __ __ __ __
 72
    65
 73
     2
 40
0.000003
 49
0.000002
 49
-0.000001
  0
LTYPE
  2
HIDDEN
 70
    64
  3
 _ _ _ _ _ _ _ _ _ _ _ _ _ _ _ _ _ _ _ _ _ _
 72
    65
 73
     2
 40
0.000001
 49
0.000001
 49
-0.000000
  0
LTYPE
  2
CENTER
 70
    64
  3
____ _ ____ _ ____ _ ____ _ ____ _ ____ _ ____
 72
    65
 73
     4
 40
0.000008
 49
0.000005
 49
-0.000001
 49
0.000001
 49
-0.000001
  0
LTYPE
  2
PHANTOM
 70
    64
  3
_____ _ _ _____ _ _ _____ _ _ _____ _ _ ____
 72
    65
 73
     6
 40
0.000010
 49
0.000005
 49
-0.000001
 49
0.000001
 49
-0.000001
 49
0.000001
 49
-0.000001
  0
LTYPE
  2
DOT
 70
    64
  3
...............................................
 72
    65
 73
     2
 40
0.000001
 49
0.000000
 49
-0.000001
  0
LTYPE
  2
DASHDOT
 70
    64
  3
__ . __ . __ . __ . __ . __ . __ . __ . __ . __
 72
    65
 73
     4
 40
0.000004
 49
0.000002
 49
-0.000001
 49
0.000000
 49
-0.000001
  0
LTYPE
  2
BORDER
 70
    64
  3
__ __ . __ __ . __ __ . __ __ . __ __ . __ __
 72
    65
 73
     6
 40
0.000007
 49
0.000002
 49
-0.000001
 49
0.000002
 49
-0.000001
 49
0.000000
 49
-0.000001
  0
LTYPE
  2
DIVIDE
 70
    64
  3
__ . . __ . . __ . . __ . . __ . . __ . . __
 72
    65
 73
     6
 40
0.000005
 49
0.000002
 49
-0.000001
 49
0.000000
 49
-0.000001
 49
0.000000
 49
-0.000001
  0
LTYPE
  2
DOTDOT
 70
    64
  3
 . .  . .  . .  . .  . .  . . 
 72
    65
 73
     5
 40
0.000002
 49
-0.000001
 49
0.000000
 49
-0.000001
 49
0.000000
 49
-0.000001
  0
ENDTAB
  0
TABLE
  2
STYLE
 70
     0
  0
ENDTAB
  0
TABLE
  2
LAYER
 70
     3
  0
LAYER
  2
FOREGROUND
 70
    64
 62
     7
  6
CONTINUOUS
  0
LAYER
  2
BACKGROUND
 70
    65
 62
    -7
  6
CONTINUOUS
  0
LAYER
  2
PLAN_1
 70
    64
 62
     7
  6
CONTINUOUS
  0
ENDTAB
  0
ENDSEC
  0
SECTION
  2
ENTITIES
  0
POLYLINE
  8
PLAN_1
  6
CONTINUOUS
 66
     1
 40
0.003000
 41
0.003000
  0
VERTEX
  8
PLAN_1
  6
CONTINUOUS
 10
-0.057811
 20
-3.776685
  0
VERTEX
  8
PLAN_1
  6
CONTINUOUS
 10
-0.214965
 20
-3.776685
  0
VERTEX
  8
PLAN_1
  6
CONTINUOUS
 10
-0.214965
 20
-3.754299
  0
VERTEX
  8
PLAN_1
  6
CONTINUOUS
 10
-0.092575
 20
-3.601437
  0
VERTEX
  8
PLAN_1
  6
CONTINUOUS
 10
-0.205441
 20
-3.601437
  0
VERTEX
  8
PLAN_1
  6
CONTINUOUS
 10
-0.205441
 20
-3.577626
  0
VERTEX
  8
PLAN_1
  6
CONTINUOUS
 10
-0.057811
 20
-3.577626
  0
VERTEX
  8
PLAN_1
  6
CONTINUOUS
 10
-0.057811
 20
-3.600961
  0
VERTEX
  8
PLAN_1
  6
CONTINUOUS
 10
-0.180677
 20
-3.752874
  0
VERTEX
  8
PLAN_1
  6
CONTINUOUS
 10
-0.057811
 20
-3.752874
  0
VERTEX
  8
PLAN_1
  6
CONTINUOUS
 10
-0.057811
 20
-3.776685
  0
SEQEND
  8
0
  0
POLYLINE
  8
PLAN_1
  6
CONTINUOUS
 66
     1
 40
0.003000
 41
0.003000
  0
VERTEX
  8
PLAN_1
  6
CONTINUOUS
 10
0.109339
 20
-3.637630
  0
VERTEX
  8
PLAN_1
  6
CONTINUOUS
 10
0.107909
 20
-3.630961
  0
VERTEX
  8
PLAN_1
  6
CONTINUOUS
 10
0.105528
 20
-3.625724
  0
VERTEX
  8
PLAN_1
  6
CONTINUOUS
 10
0.103150
 20
-3.620484
  0
VERTEX
  8
PLAN_1
  6
CONTINUOUS
 10
0.100291
 20
-3.616197
  0
VERTEX
  8
PLAN_1
  6
CONTINUOUS
 10
0.096957
 20
-3.612390
  0
VERTEX
  8
PLAN_1
  6
CONTINUOUS
 10
0.093622
 20
-3.609055
  0
VERTEX
  8
PLAN_1
  6
CONTINUOUS
 10
0.089815
 20
-3.606197
  0
VERTEX
  8
PLAN_1
  6
CONTINUOUS
 10
0.086004
 20
-3.603819
  0
VERTEX
  8
PLAN_1
  6
CONTINUOUS
 10
0.081720
 20
-3.601437
  0
VERTEX
  8
PLAN_1
  6
CONTINUOUS
 10
0.077909
 20
-3.600008
  0
VERTEX
  8
PLAN_1
  6
CONTINUOUS
 10
0.073622
 20
-3.598579
  0
VERTEX
  8
PLAN_1
  6
CONTINUOUS
 10
0.069339
 20
-3.597626
  0
VERTEX
  8
PLAN_1
  6
CONTINUOUS
 10
0.061240
 20
-3.596197
  0
VERTEX
  8
PLAN_1
  6
CONTINUOUS
 10
0.053622
 20
-3.596197
  0
VERTEX
  8
PLAN_1
  6
CONTINUOUS
 10
0.046957
 20
-3.596197
  0
VERTEX
  8
PLAN_1
  6
CONTINUOUS
 10
0.040287
 20
-3.597150
  0
VERTEX
  8
PLAN_1
  6
CONTINUOUS
 10
0.034098
 20
-3.599055
  0
VERTEX
  8
PLAN_1
  6
CONTINUOUS
 10
0.028382
 20
-3.600961
  0
VERTEX
  8
PLAN_1
  6
CONTINUOUS
 10
0.022669
 20
-3.603819
  0
VERTEX
  8
PLAN_1
  6
CONTINUOUS
 10
0.016953
 20
-3.607150
  0
VERTEX
  8
PLAN_1
  6
CONTINUOUS
 10
0.012193
 20
-3.611437
  0
VERTEX
  8
PLAN_1
  6
CONTINUOUS
 10
0.007429
 20
-3.615724
  0
VERTEX
  8
PLAN_1
  6
CONTINUOUS
 10
0.003142
 20
-3.621437
  0
VERTEX
  8
PLAN_1
  6
CONTINUOUS
 10
-0.000665
 20
-3.627154
  0
VERTEX
  8
PLAN_1
  6
CONTINUOUS
 10
-0.003524
 20
-3.633819
  0
VERTEX
  8
PLAN_1
  6
CONTINUOUS
 10
-0.006382
 20
-3.640484
  0
VERTEX
  8
PLAN_1
  6
CONTINUOUS
 10
-0.008764
 20
-3.648583
  0
VERTEX
  8
PLAN_1
  6
CONTINUOUS
 10
-0.010193
 20
-3.656677
  0
VERTEX
  8
PLAN_1
  6
CONTINUOUS
 10
-0.011142
 20
-3.665724
  0
VERTEX
  8
PLAN_1
  6
CONTINUOUS
 10
-0.011618
 20
-3.675248
  0
VERTEX
  8
PLAN_1
  6
CONTINUOUS
 10
-0.011142
 20
-3.683823
  0
VERTEX
  8
PLAN_1
  6
CONTINUOUS
 10
-0.010665
 20
-3.692394
  0
VERTEX
  8
PLAN_1
  6
CONTINUOUS
 10
-0.009717
 20
-3.700012
  0
VERTEX
  8
PLAN_1
  6
CONTINUOUS
 10
-0.008287
 20
-3.708106
  0
VERTEX
  8
PLAN_1
  6
CONTINUOUS
 10
-0.006382
 20
-3.715252
  0
VERTEX
  8
PLAN_1
  6
CONTINUOUS
 10
-0.003524
 20
-3.721917
  0
VERTEX
  8
PLAN_1
  6
CONTINUOUS
 10
-0.000665
 20
-3.728587
  0
VERTEX
  8
PLAN_1
  6
CONTINUOUS
 10
0.003142
 20
-3.734299
  0
VERTEX
  8
PLAN_1
  6
CONTINUOUS
 10
0.006953
 20
-3.739539
  0
VERTEX
  8
PLAN_1
  6
CONTINUOUS
 10
0.011717
 20
-3.744299
  0
VERTEX
  8
PLAN_1
  6
CONTINUOUS
 10
0.017429
 20
-3.748587
  0
VERTEX
  8
PLAN_1
  6
CONTINUOUS
 10
0.023146
 20
-3.751921
  0
VERTEX
  8
PLAN_1
  6
CONTINUOUS
 10
0.030287
 20
-3.754299
  0
VERTEX
  8
PLAN_1
  6
CONTINUOUS
 10
0.037429
 20
-3.756681
  0
VERTEX
  8
PLAN_1
  6
CONTINUOUS
 10
0.045528
 20
-3.757634
  0
VERTEX
  8
PLAN_1
  6
CONTINUOUS
 10
0.054575
 20
-3.758110
  0
VERTEX
  8
PLAN_1
  6
CONTINUOUS
 10
0.057909
 20
-3.758110
  0
VERTEX
  8
PLAN_1
  6
CONTINUOUS
 10
0.061717
 20
-3.757634
  0
VERTEX
  8
PLAN_1
  6
CONTINUOUS
 10
0.065528
 20
-3.757157
  0
VERTEX
  8
PLAN_1
  6
CONTINUOUS
 10
0.069339
 20
-3.756205
  0
VERTEX
  8
PLAN_1
  6
CONTINUOUS
 10
0.073622
 20
-3.754776
  0
VERTEX
  8
PLAN_1
  6
CONTINUOUS
 10
0.077909
 20
-3.752874
  0
VERTEX
  8
PLAN_1
  6
CONTINUOUS
 10
0.081720
 20
-3.750969
  0
VERTEX
  8
PLAN_1
  6
CONTINUOUS
 10
0.086004
 20
-3.748110
  0
VERTEX
  8
PLAN_1
  6
CONTINUOUS
 10
0.090291
 20
-3.744776
  0
VERTEX
  8
PLAN_1
  6
CONTINUOUS
 10
0.094098
 20
-3.740969
  0
VERTEX
  8
PLAN_1
  6
CONTINUOUS
 10
0.097433
 20
-3.736681
  0
VERTEX
  8
PLAN_1
  6
CONTINUOUS
 10
0.101244
 20
-3.731441
  0
VERTEX
  8
PLAN_1
  6
CONTINUOUS
 10
0.104102
 20
-3.725728
  0
VERTEX
  8
PLAN_1
  6
CONTINUOUS
 10
0.106957
 20
-3.719063
  0
VERTEX
  8
PLAN_1
  6
CONTINUOUS
 10
0.109339
 20
-3.711917
  0
VERTEX
  8
PLAN_1
  6
CONTINUOUS
 10
0.111244
 20
-3.703346
  0
VERTEX
  8
PLAN_1
  6
CONTINUOUS
 10
0.137437
 20
-3.703346
  0
VERTEX
  8
PLAN_1
  6
CONTINUOUS
 10
0.136484
 20
-3.710488
  0
VERTEX
  8
PLAN_1
  6
CONTINUOUS
 10
0.135055
 20
-3.716681
  0
VERTEX
  8
PLAN_1
  6
CONTINUOUS
 10
0.133150
 20
-3.722870
  0
VERTEX
  8
PLAN_1
  6
CONTINUOUS
 10
0.131244
 20
-3.728587
  0
VERTEX
  8
PLAN_1
  6
CONTINUOUS
 10
0.128862
 20
-3.733823
  0
VERTEX
  8
PLAN_1
  6
CONTINUOUS
 10
0.126484
 20
-3.738587
  0
VERTEX
  8
PLAN_1
  6
CONTINUOUS
 10
0.124102
 20
-3.743346
  0
VERTEX
  8
PLAN_1
  6
CONTINUOUS
 10
0.121244
 20
-3.747634
  0
VERTEX
  8
PLAN_1
  6
CONTINUOUS
 10
0.118386
 20
-3.751445
  0
VERTEX
  8
PLAN_1
  6
CONTINUOUS
 10
0.115531
 20
-3.755252
  0
VERTEX
  8
PLAN_1
  6
CONTINUOUS
 10
0.112197
 20
-3.758587
  0
VERTEX
  8
PLAN_1
  6
CONTINUOUS
 10
0.108862
 20
-3.761445
  0
VERTEX
  8
PLAN_1
  6
CONTINUOUS
 10
0.102197
 20
-3.766681
  0
VERTEX
  8
PLAN_1
  6
CONTINUOUS
 10
0.095528
 20
-3.770969
  0
VERTEX
  8
PLAN_1
  6
CONTINUOUS
 10
0.088386
 20
-3.774303
  0
VERTEX
  8
PLAN_1
  6
CONTINUOUS
 10
0.081720
 20
-3.777161
  0
VERTEX
  8
PLAN_1
  6
CONTINUOUS
 10
0.075051
 20
-3.779063
  0
VERTEX
  8
PLAN_1
  6
CONTINUOUS
 10
0.068862
 20
-3.780492
  0
VERTEX
  8
PLAN_1
  6
CONTINUOUS
 10
0.057909
 20
-3.781921
  0
VERTEX
  8
PLAN_1
  6
CONTINUOUS
 10
0.050287
 20
-3.781921
  0
VERTEX
  8
PLAN_1
  6
CONTINUOUS
 10
0.041717
 20
-3.781445
  0
VERTEX
  8
PLAN_1
  6
CONTINUOUS
 10
0.033622
 20
-3.780492
  0
VERTEX
  8
PLAN_1
  6
CONTINUOUS
 10
0.025047
 20
-3.778587
  0
VERTEX
  8
PLAN_1
  6
CONTINUOUS
 10
0.017429
 20
-3.776209
  0
VERTEX
  8
PLAN_1
  6
CONTINUOUS
 10
0.009335
 20
-3.772874
  0
VERTEX
  8
PLAN_1
  6
CONTINUOUS
 10
0.002189
 20
-3.768587
  0
VERTEX
  8
PLAN_1
  6
CONTINUOUS
 10
-0.001618
 20
-3.766205
  0
VERTEX
  8
PLAN_1
  6
CONTINUOUS
 10
-0.004953
 20
-3.763827
  0
VERTEX
  8
PLAN_1
  6
CONTINUOUS
 10
-0.008287
 20
-3.760969
  0
VERTEX
  8
PLAN_1
  6
CONTINUOUS
 10
-0.011618
 20
-3.757634
  0
VERTEX
  8
PLAN_1
  6
CONTINUOUS
 10
-0.014476
 20
-3.754299
  0
VERTEX
  8
PLAN_1
  6
CONTINUOUS
 10
-0.017335
 20
-3.750969
  0
VERTEX
  8
PLAN_1
  6
CONTINUOUS
 10
-0.020193
 20
-3.747157
  0
VERTEX
  8
PLAN_1
  6
CONTINUOUS
 10
-0.023047
 20
-3.743346
  0
VERTEX
  8
PLAN_1
  6
CONTINUOUS
 10
-0.025429
 20
-3.739063
  0
VERTEX
  8
PLAN_1
  6
CONTINUOUS
 10
-0.027811
 20
-3.734776
  0
VERTEX
  8
PLAN_1
  6
CONTINUOUS
 10
-0.029717
 20
-3.730016
  0
VERTEX
  8
PLAN_1
  6
CONTINUOUS
 10
-0.031622
 20
-3.724776
  0
VERTEX
  8
PLAN_1
  6
CONTINUOUS
 10
-0.033528
 20
-3.719539
  0
VERTEX
  8
PLAN_1
  6
CONTINUOUS
 10
-0.034953
 20
-3.714299
  0
VERTEX
  8
PLAN_1
  6
CONTINUOUS
 10
-0.036382
 20
-3.708583
  0
VERTEX
  8
PLAN_1
  6
CONTINUOUS
 10
-0.037335
 20
-3.702394
  0
VERTEX
  8
PLAN_1
  6
CONTINUOUS
 10
-0.038287
 20
-3.696205
  0
VERTEX
  8
PLAN_1
  6
CONTINUOUS
 10
-0.038764
 20
-3.690012
  0
VERTEX
  8
PLAN_1
  6
CONTINUOUS
 10
-0.039240
 20
-3.682870
  0
VERTEX
  8
PLAN_1
  6
CONTINUOUS
 10
-0.039240
 20
-3.676201
  0
VERTEX
  8
PLAN_1
  6
CONTINUOUS
 10
-0.038764
 20
-3.664772
  0
VERTEX
  8
PLAN_1
  6
CONTINUOUS
 10
-0.037811
 20
-3.653819
  0
VERTEX
  8
PLAN_1
  6
CONTINUOUS
 10
-0.035906
 20
-3.643819
  0
VERTEX
  8
PLAN_1
  6
CONTINUOUS
 10
-0.033051
 20
-3.633819
  0
VERTEX
  8
PLAN_1
  6
CONTINUOUS
 10
-0.029240
 20
-3.624772
  0
VERTEX
  8
PLAN_1
  6
CONTINUOUS
 10
-0.024953
 20
-3.616197
  0
VERTEX
  8
PLAN_1
  6
CONTINUOUS
 10
-0.022571
 20
-3.612390
  0
VERTEX
  8
PLAN_1
  6
CONTINUOUS
 10
-0.020193
 20
-3.608102
  0
VERTEX
  8
PLAN_1
  6
CONTINUOUS
 10
-0.017335
 20
-3.604768
  0
VERTEX
  8
PLAN_1
  6
CONTINUOUS
 10
-0.014476
 20
-3.600961
  0
VERTEX
  8
PLAN_1
  6
CONTINUOUS
 10
-0.011618
 20
-3.597626
  0
VERTEX
  8
PLAN_1
  6
CONTINUOUS
 10
-0.008287
 20
-3.594768
  0
VERTEX
  8
PLAN_1
  6
CONTINUOUS
 10
-0.004953
 20
-3.591437
  0
VERTEX
  8
PLAN_1
  6
CONTINUOUS
 10
-0.001142
 20
-3.589055
  0
VERTEX
  8
PLAN_1
  6
CONTINUOUS
 10
0.002665
 20
-3.586197
  0
VERTEX
  8
PLAN_1
  6
CONTINUOUS
 10
0.006476
 20
-3.583815
  0
VERTEX
  8
PLAN_1
  6
CONTINUOUS
 10
0.010287
 20
-3.581909
  0
VERTEX
  8
PLAN_1
  6
CONTINUOUS
 10
0.014571
 20
-3.580008
  0
VERTEX
  8
PLAN_1
  6
CONTINUOUS
 10
0.018858
 20
-3.578102
  0
VERTEX
  8
PLAN_1
  6
CONTINUOUS
 10
0.023622
 20
-3.576673
  0
VERTEX
  8
PLAN_1
  6
CONTINUOUS
 10
0.028382
 20
-3.575244
  0
VERTEX
  8
PLAN_1
  6
CONTINUOUS
 10
0.033146
 20
-3.574291
  0
VERTEX
  8
PLAN_1
  6
CONTINUOUS
 10
0.037906
 20
-3.573339
  0
VERTEX
  8
PLAN_1
  6
CONTINUOUS
 10
0.043146
 20
-3.572862
  0
VERTEX
  8
PLAN_1
  6
CONTINUOUS
 10
0.048382
 20
-3.572386
  0
VERTEX
  8
PLAN_1
  6
CONTINUOUS
 10
0.053622
 20
-3.572386
  0
VERTEX
  8
PLAN_1
  6
CONTINUOUS
 10
0.063146
 20
-3.572386
  0
VERTEX
  8
PLAN_1
  6
CONTINUOUS
 10
0.071717
 20
-3.573815
  0
VERTEX
  8
PLAN_1
  6
CONTINUOUS
 10
0.079815
 20
-3.575244
  0
VERTEX
  8
PLAN_1
  6
CONTINUOUS
 10
0.087433
 20
-3.577626
  0
VERTEX
  8
PLAN_1
  6
CONTINUOUS
 10
0.094575
 20
-3.580484
  0
VERTEX
  8
PLAN_1
  6
CONTINUOUS
 10
0.101244
 20
-3.583815
  0
VERTEX
  8
PLAN_1
  6
CONTINUOUS
 10
0.106957
 20
-3.588102
  0
VERTEX
  8
PLAN_1
  6
CONTINUOUS
 10
0.112197
 20
-3.592390
  0
VERTEX
  8
PLAN_1
  6
CONTINUOUS
 10
0.117433
 20
-3.597150
  0
VERTEX
  8
PLAN_1
  6
CONTINUOUS
 10
0.121244
 20
-3.601913
  0
VERTEX
  8
PLAN_1
  6
CONTINUOUS
 10
0.125055
 20
-3.607626
  0
VERTEX
  8
PLAN_1
  6
CONTINUOUS
 10
0.128386
 20
-3.613343
  0
VERTEX
  8
PLAN_1
  6
CONTINUOUS
 10
0.130768
 20
-3.619055
  0
VERTEX
  8
PLAN_1
  6
CONTINUOUS
 10
0.133150
 20
-3.625248
  0
VERTEX
  8
PLAN_1
  6
CONTINUOUS
 10
0.134579
 20
-3.630961
  0
VERTEX
  8
PLAN_1
  6
CONTINUOUS
 10
0.135531
 20
-3.637630
  0
VERTEX
  8
PLAN_1
  6
CONTINUOUS
 10
0.109339
 20
-3.637630
  0
SEQEND
  8
0
  0
POLYLINE
  8
PLAN_1
  6
CONTINUOUS
 66
     1
 40
0.003000
 41
0.003000
  0
VERTEX
  8
PLAN_1
  6
CONTINUOUS
 10
0.196965
 20
-3.776685
  0
VERTEX
  8
PLAN_1
  6
CONTINUOUS
 10
0.169819
 20
-3.776685
  0
VERTEX
  8
PLAN_1
  6
CONTINUOUS
 10
0.169819
 20
-3.577626
  0
VERTEX
  8
PLAN_1
  6
CONTINUOUS
 10
0.196965
 20
-3.577626
  0
VERTEX
  8
PLAN_1
  6
CONTINUOUS
 10
0.196965
 20
-3.673819
  0
VERTEX
  8
PLAN_1
  6
CONTINUOUS
 10
0.293634
 20
-3.577626
  0
VERTEX
  8
PLAN_1
  6
CONTINUOUS
 10
0.330780
 20
-3.577626
  0
VERTEX
  8
PLAN_1
  6
CONTINUOUS
 10
0.247917
 20
-3.658106
  0
VERTEX
  8
PLAN_1
  6
CONTINUOUS
 10
0.333161
 20
-3.776685
  0
VERTEX
  8
PLAN_1
  6
CONTINUOUS
 10
0.297921
 20
-3.776685
  0
VERTEX
  8
PLAN_1
  6
CONTINUOUS
 10
0.228394
 20
-3.676677
  0
VERTEX
  8
PLAN_1
  6
CONTINUOUS
 10
0.196965
 20
-3.706681
  0
VERTEX
  8
PLAN_1
  6
CONTINUOUS
 10
0.196965
 20
-3.776685
  0
SEQEND
  8
0
  0
POLYLINE
  8
PLAN_1
  6
CONTINUOUS
 66
     1
 40
0.003000
 41
0.003000
  0
VERTEX
  8
PLAN_1
  6
CONTINUOUS
 10
0.356496
 20
-3.577626
  0
VERTEX
  8
PLAN_1
  6
CONTINUOUS
 10
0.437453
 20
-3.577626
  0
VERTEX
  8
PLAN_1
  6
CONTINUOUS
 10
0.446976
 20
-3.578102
  0
VERTEX
  8
PLAN_1
  6
CONTINUOUS
 10
0.456024
 20
-3.579055
  0
VERTEX
  8
PLAN_1
  6
CONTINUOUS
 10
0.464594
 20
-3.581433
  0
VERTEX
  8
PLAN_1
  6
CONTINUOUS
 10
0.472217
 20
-3.584291
  0
VERTEX
  8
PLAN_1
  6
CONTINUOUS
 10
0.479835
 20
-3.588579
  0
VERTEX
  8
PLAN_1
  6
CONTINUOUS
 10
0.486976
 20
-3.592862
  0
VERTEX
  8
PLAN_1
  6
CONTINUOUS
 10
0.493169
 20
-3.598102
  0
VERTEX
  8
PLAN_1
  6
CONTINUOUS
 10
0.498882
 20
-3.604291
  0
VERTEX
  8
PLAN_1
  6
CONTINUOUS
 10
0.504122
 20
-3.610961
  0
VERTEX
  8
PLAN_1
  6
CONTINUOUS
 10
0.508409
 20
-3.618579
  0
VERTEX
  8
PLAN_1
  6
CONTINUOUS
 10
0.512217
 20
-3.626201
  0
VERTEX
  8
PLAN_1
  6
CONTINUOUS
 10
0.515551
 20
-3.634772
  0
VERTEX
  8
PLAN_1
  6
CONTINUOUS
 10
0.517933
 20
-3.644295
  0
VERTEX
  8
PLAN_1
  6
CONTINUOUS
 10
0.519839
 20
-3.653819
  0
VERTEX
  8
PLAN_1
  6
CONTINUOUS
 10
0.520787
 20
-3.663819
  0
VERTEX
  8
PLAN_1
  6
CONTINUOUS
 10
0.521264
 20
-3.674295
  0
VERTEX
  8
PLAN_1
  6
CONTINUOUS
 10
0.520787
 20
-3.682870
  0
VERTEX
  8
PLAN_1
  6
CONTINUOUS
 10
0.520311
 20
-3.691441
  0
VERTEX
  8
PLAN_1
  6
CONTINUOUS
 10
0.518886
 20
-3.700488
  0
VERTEX
  8
PLAN_1
  6
CONTINUOUS
 10
0.516980
 20
-3.709059
  0
VERTEX
  8
PLAN_1
  6
CONTINUOUS
 10
0.514598
 20
-3.718110
  0
VERTEX
  8
PLAN_1
  6
CONTINUOUS
 10
0.511740
 20
-3.726205
  0
VERTEX
  8
PLAN_1
  6
CONTINUOUS
 10
0.507933
 20
-3.734776
  0
VERTEX
  8
PLAN_1
  6
CONTINUOUS
 10
0.503169
 20
-3.742398
  0
VERTEX
  8
PLAN_1
  6
CONTINUOUS
 10
0.500787
 20
-3.746205
  0
VERTEX
  8
PLAN_1
  6
CONTINUOUS
 10
0.497929
 20
-3.749539
  0
VERTEX
  8
PLAN_1
  6
CONTINUOUS
 10
0.495075
 20
-3.752874
  0
VERTEX
  8
PLAN_1
  6
CONTINUOUS
 10
0.492217
 20
-3.756205
  0
VERTEX
  8
PLAN_1
  6
CONTINUOUS
 10
0.488406
 20
-3.759063
  0
VERTEX
  8
PLAN_1
  6
CONTINUOUS
 10
0.485075
 20
-3.761921
  0
VERTEX
  8
PLAN_1
  6
CONTINUOUS
 10
0.481264
 20
-3.764780
  0
VERTEX
  8
PLAN_1
  6
CONTINUOUS
 10
0.477453
 20
-3.767157
  0
VERTEX
  8
PLAN_1
  6
CONTINUOUS
 10
0.473169
 20
-3.769063
  0
VERTEX
  8
PLAN_1
  6
CONTINUOUS
 10
0.468406
 20
-3.770969
  0
VERTEX
  8
PLAN_1
  6
CONTINUOUS
 10
0.463642
 20
-3.772874
  0
VERTEX
  8
PLAN_1
  6
CONTINUOUS
 10
0.458882
 20
-3.774303
  0
VERTEX
  8
PLAN_1
  6
CONTINUOUS
 10
0.453642
 20
-3.775256
  0
VERTEX
  8
PLAN_1
  6
CONTINUOUS
 10
0.447929
 20
-3.776209
  0
VERTEX
  8
PLAN_1
  6
CONTINUOUS
 10
0.442213
 20
-3.776685
  0
VERTEX
  8
PLAN_1
  6
CONTINUOUS
 10
0.436500
 20
-3.776685
  0
VERTEX
  8
PLAN_1
  6
CONTINUOUS
 10
0.356496
 20
-3.776685
  0
VERTEX
  8
PLAN_1
  6
CONTINUOUS
 10
0.356496
 20
-3.577626
  0
SEQEND
  8
0
  0
POLYLINE
  8
PLAN_1
  6
CONTINUOUS
 66
     1
 40
0.003000
 41
0.003000
  0
VERTEX
  8
PLAN_1
  6
CONTINUOUS
 10
0.383638
 20
-3.753827
  0
VERTEX
  8
PLAN_1
  6
CONTINUOUS
 10
0.435547
 20
-3.753827
  0
VERTEX
  8
PLAN_1
  6
CONTINUOUS
 10
0.442213
 20
-3.753350
  0
VERTEX
  8
PLAN_1
  6
CONTINUOUS
 10
0.448406
 20
-3.752398
  0
VERTEX
  8
PLAN_1
  6
CONTINUOUS
 10
0.454118
 20
-3.750969
  0
VERTEX
  8
PLAN_1
  6
CONTINUOUS
 10
0.459358
 20
-3.748587
  0
VERTEX
  8
PLAN_1
  6
CONTINUOUS
 10
0.464594
 20
-3.745728
  0
VERTEX
  8
PLAN_1
  6
CONTINUOUS
 10
0.469358
 20
-3.742398
  0
VERTEX
  8
PLAN_1
  6
CONTINUOUS
 10
0.473646
 20
-3.738110
  0
VERTEX
  8
PLAN_1
  6
CONTINUOUS
 10
0.477929
 20
-3.733823
  0
VERTEX
  8
PLAN_1
  6
CONTINUOUS
 10
0.481264
 20
-3.728587
  0
VERTEX
  8
PLAN_1
  6
CONTINUOUS
 10
0.484598
 20
-3.722870
  0
VERTEX
  8
PLAN_1
  6
CONTINUOUS
 10
0.486976
 20
-3.716205
  0
VERTEX
  8
PLAN_1
  6
CONTINUOUS
 10
0.489358
 20
-3.709535
  0
VERTEX
  8
PLAN_1
  6
CONTINUOUS
 10
0.491264
 20
-3.701917
  0
VERTEX
  8
PLAN_1
  6
CONTINUOUS
 10
0.492693
 20
-3.693823
  0
VERTEX
  8
PLAN_1
  6
CONTINUOUS
 10
0.493169
 20
-3.685248
  0
VERTEX
  8
PLAN_1
  6
CONTINUOUS
 10
0.493646
 20
-3.676201
  0
VERTEX
  8
PLAN_1
  6
CONTINUOUS
 10
0.493169
 20
-3.666677
  0
VERTEX
  8
PLAN_1
  6
CONTINUOUS
 10
0.492217
 20
-3.658106
  0
VERTEX
  8
PLAN_1
  6
CONTINUOUS
 10
0.491264
 20
-3.650484
  0
VERTEX
  8
PLAN_1
  6
CONTINUOUS
 10
0.489358
 20
-3.642866
  0
VERTEX
  8
PLAN_1
  6
CONTINUOUS
 10
0.486976
 20
-3.636201
  0
VERTEX
  8
PLAN_1
  6
CONTINUOUS
 10
0.484122
 20
-3.630008
  0
VERTEX
  8
PLAN_1
  6
CONTINUOUS
 10
0.481264
 20
-3.624295
  0
VERTEX
  8
PLAN_1
  6
CONTINUOUS
 10
0.477453
 20
-3.619531
  0
VERTEX
  8
PLAN_1
  6
CONTINUOUS
 10
0.473169
 20
-3.614772
  0
VERTEX
  8
PLAN_1
  6
CONTINUOUS
 10
0.468882
 20
-3.610961
  0
VERTEX
  8
PLAN_1
  6
CONTINUOUS
 10
0.464118
 20
-3.608102
  0
VERTEX
  8
PLAN_1
  6
CONTINUOUS
 10
0.458406
 20
-3.605244
  0
VERTEX
  8
PLAN_1
  6
CONTINUOUS
 10
0.453165
 20
-3.603343
  0
VERTEX
  8
PLAN_1
  6
CONTINUOUS
 10
0.446976
 20
-3.601913
  0
VERTEX
  8
PLAN_1
  6
CONTINUOUS
 10
0.440307
 20
-3.600961
  0
VERTEX
  8
PLAN_1
  6
CONTINUOUS
 10
0.433642
 20
-3.600484
  0
VERTEX
  8
PLAN_1
  6
CONTINUOUS
 10
0.383638
 20
-3.600484
  0
VERTEX
  8
PLAN_1
  6
CONTINUOUS
 10
0.383638
 20
-3.753827
  0
SEQEND
  8
0
  0
POLYLINE
  8
PLAN_1
  6
CONTINUOUS
 66
     1
 40
0.003000
 41
0.003000
  0
VERTEX
  8
PLAN_1
  6
CONTINUOUS
 10
0.611748
 20
-3.781921
  0
VERTEX
  8
PLAN_1
  6
CONTINUOUS
 10
0.606508
 20
-3.781921
  0
VERTEX
  8
PLAN_1
  6
CONTINUOUS
 10
0.601744
 20
-3.781445
  0
VERTEX
  8
PLAN_1
  6
CONTINUOUS
 10
0.596984
 20
-3.780492
  0
VERTEX
  8
PLAN_1
  6
CONTINUOUS
 10
0.592697
 20
-3.779539
  0
VERTEX
  8
PLAN_1
  6
CONTINUOUS
 10
0.588890
 20
-3.778110
  0
VERTEX
  8
PLAN_1
  6
CONTINUOUS
 10
0.584602
 20
-3.776209
  0
VERTEX
  8
PLAN_1
  6
CONTINUOUS
 10
0.581268
 20
-3.774303
  0
VERTEX
  8
PLAN_1
  6
CONTINUOUS
 10
0.577933
 20
-3.771921
  0
VERTEX
  8
PLAN_1
  6
CONTINUOUS
 10
0.574602
 20
-3.769539
  0
VERTEX
  8
PLAN_1
  6
CONTINUOUS
 10
0.571268
 20
-3.767157
  0
VERTEX
  8
PLAN_1
  6
CONTINUOUS
 10
0.568409
 20
-3.764303
  0
VERTEX
  8
PLAN_1
  6
CONTINUOUS
 10
0.566031
 20
-3.760969
  0
VERTEX
  8
PLAN_1
  6
CONTINUOUS
 10
0.561268
 20
-3.754299
  0
VERTEX
  8
PLAN_1
  6
CONTINUOUS
 10
0.557457
 20
-3.747157
  0
VERTEX
  8
PLAN_1
  6
CONTINUOUS
 10
0.554126
 20
-3.739539
  0
VERTEX
  8
PLAN_1
  6
CONTINUOUS
 10
0.551268
 20
-3.731441
  0
VERTEX
  8
PLAN_1
  6
CONTINUOUS
 10
0.549362
 20
-3.722870
  0
VERTEX
  8
PLAN_1
  6
CONTINUOUS
 10
0.547457
 20
-3.714776
  0
VERTEX
  8
PLAN_1
  6
CONTINUOUS
 10
0.546504
 20
-3.706205
  0
VERTEX
  8
PLAN_1
  6
CONTINUOUS
 10
0.545551
 20
-3.697630
  0
VERTEX
  8
PLAN_1
  6
CONTINUOUS
 10
0.545075
 20
-3.689535
  0
VERTEX
  8
PLAN_1
  6
CONTINUOUS
 10
0.545075
 20
-3.681917
  0
VERTEX
  8
PLAN_1
  6
CONTINUOUS
 10
0.545075
 20
-3.673819
  0
VERTEX
  8
PLAN_1
  6
CONTINUOUS
 10
0.545551
 20
-3.665724
  0
VERTEX
  8
PLAN_1
  6
CONTINUOUS
 10
0.546504
 20
-3.657630
  0
VERTEX
  8
PLAN_1
  6
CONTINUOUS
 10
0.547457
 20
-3.649059
  0
VERTEX
  8
PLAN_1
  6
CONTINUOUS
 10
0.549362
 20
-3.640484
  0
VERTEX
  8
PLAN_1
  6
CONTINUOUS
 10
0.551268
 20
-3.632390
  0
VERTEX
  8
PLAN_1
  6
CONTINUOUS
 10
0.554126
 20
-3.624295
  0
VERTEX
  8
PLAN_1
  6
CONTINUOUS
 10
0.557457
 20
-3.616673
  0
VERTEX
  8
PLAN_1
  6
CONTINUOUS
 10
0.561268
 20
-3.609531
  0
VERTEX
  8
PLAN_1
  6
CONTINUOUS
 10
0.566031
 20
-3.602866
  0
VERTEX
  8
PLAN_1
  6
CONTINUOUS
 10
0.568409
 20
-3.599531
  0
VERTEX
  8
PLAN_1
  6
CONTINUOUS
 10
0.571268
 20
-3.596673
  0
VERTEX
  8
PLAN_1
  6
CONTINUOUS
 10
0.574602
 20
-3.593815
  0
VERTEX
  8
PLAN_1
  6
CONTINUOUS
 10
0.577933
 20
-3.591437
  0
VERTEX
  8
PLAN_1
  6
CONTINUOUS
 10
0.581268
 20
-3.589531
  0
VERTEX
  8
PLAN_1
  6
CONTINUOUS
 10
0.584602
 20
-3.587626
  0
VERTEX
  8
PLAN_1
  6
CONTINUOUS
 10
0.588890
 20
-3.585720
  0
VERTEX
  8
PLAN_1
  6
CONTINUOUS
 10
0.592697
 20
-3.584291
  0
VERTEX
  8
PLAN_1
  6
CONTINUOUS
 10
0.596984
 20
-3.583339
  0
VERTEX
  8
PLAN_1
  6
CONTINUOUS
 10
0.601744
 20
-3.582386
  0
VERTEX
  8
PLAN_1
  6
CONTINUOUS
 10
0.606508
 20
-3.581909
  0
VERTEX
  8
PLAN_1
  6
CONTINUOUS
 10
0.611748
 20
-3.581433
  0
VERTEX
  8
PLAN_1
  6
CONTINUOUS
 10
0.616984
 20
-3.581909
  0
VERTEX
  8
PLAN_1
  6
CONTINUOUS
 10
0.621748
 20
-3.582386
  0
VERTEX
  8
PLAN_1
  6
CONTINUOUS
 10
0.626508
 20
-3.583339
  0
VERTEX
  8
PLAN_1
  6
CONTINUOUS
 10
0.630795
 20
-3.584291
  0
VERTEX
  8
PLAN_1
  6
CONTINUOUS
 10
0.635083
 20
-3.585720
  0
VERTEX
  8
PLAN_1
  6
CONTINUOUS
 10
0.638890
 20
-3.587626
  0
VERTEX
  8
PLAN_1
  6
CONTINUOUS
 10
0.642701
 20
-3.589531
  0
VERTEX
  8
PLAN_1
  6
CONTINUOUS
 10
0.646035
 20
-3.591437
  0
VERTEX
  8
PLAN_1
  6
CONTINUOUS
 10
0.649366
 20
-3.593815
  0
VERTEX
  8
PLAN_1
  6
CONTINUOUS
 10
0.652224
 20
-3.596673
  0
VERTEX
  8
PLAN_1
  6
CONTINUOUS
 10
0.655083
 20
-3.599531
  0
VERTEX
  8
PLAN_1
  6
CONTINUOUS
 10
0.657465
 20
-3.602866
  0
VERTEX
  8
PLAN_1
  6
CONTINUOUS
 10
0.662224
 20
-3.609531
  0
VERTEX
  8
PLAN_1
  6
CONTINUOUS
 10
0.666512
 20
-3.616673
  0
VERTEX
  8
PLAN_1
  6
CONTINUOUS
 10
0.669846
 20
-3.624295
  0
VERTEX
  8
PLAN_1
  6
CONTINUOUS
 10
0.672224
 20
-3.632390
  0
VERTEX
  8
PLAN_1
  6
CONTINUOUS
 10
0.674606
 20
-3.640484
  0
VERTEX
  8
PLAN_1
  6
CONTINUOUS
 10
0.676035
 20
-3.649059
  0
VERTEX
  8
PLAN_1
  6
CONTINUOUS
 10
0.677465
 20
-3.657630
  0
VERTEX
  8
PLAN_1
  6
CONTINUOUS
 10
0.677941
 20
-3.665724
  0
VERTEX
  8
PLAN_1
  6
CONTINUOUS
 10
0.678417
 20
-3.673819
  0
VERTEX
  8
PLAN_1
  6
CONTINUOUS
 10
0.678894
 20
-3.681917
  0
VERTEX
  8
PLAN_1
  6
CONTINUOUS
 10
0.678417
 20
-3.689535
  0
VERTEX
  8
PLAN_1
  6
CONTINUOUS
 10
0.677941
 20
-3.697630
  0
VERTEX
  8
PLAN_1
  6
CONTINUOUS
 10
0.677465
 20
-3.706205
  0
VERTEX
  8
PLAN_1
  6
CONTINUOUS
 10
0.676035
 20
-3.714776
  0
VERTEX
  8
PLAN_1
  6
CONTINUOUS
 10
0.674606
 20
-3.722870
  0
VERTEX
  8
PLAN_1
  6
CONTINUOUS
 10
0.672224
 20
-3.731441
  0
VERTEX
  8
PLAN_1
  6
CONTINUOUS
 10
0.669846
 20
-3.739539
  0
VERTEX
  8
PLAN_1
  6
CONTINUOUS
 10
0.666512
 20
-3.747157
  0
VERTEX
  8
PLAN_1
  6
CONTINUOUS
 10
0.662224
 20
-3.754299
  0
VERTEX
  8
PLAN_1
  6
CONTINUOUS
 10
0.657465
 20
-3.760969
  0
VERTEX
  8
PLAN_1
  6
CONTINUOUS
 10
0.655083
 20
-3.764303
  0
VERTEX
  8
PLAN_1
  6
CONTINUOUS
 10
0.652224
 20
-3.767157
  0
VERTEX
  8
PLAN_1
  6
CONTINUOUS
 10
0.649366
 20
-3.769539
  0
VERTEX
  8
PLAN_1
  6
CONTINUOUS
 10
0.646035
 20
-3.771921
  0
VERTEX
  8
PLAN_1
  6
CONTINUOUS
 10
0.642701
 20
-3.774303
  0
VERTEX
  8
PLAN_1
  6
CONTINUOUS
 10
0.638890
 20
-3.776209
  0
VERTEX
  8
PLAN_1
  6
CONTINUOUS
 10
0.635083
 20
-3.778110
  0
VERTEX
  8
PLAN_1
  6
CONTINUOUS
 10
0.630795
 20
-3.779539
  0
VERTEX
  8
PLAN_1
  6
CONTINUOUS
 10
0.626508
 20
-3.780492
  0
VERTEX
  8
PLAN_1
  6
CONTINUOUS
 10
0.621748
 20
-3.781445
  0
VERTEX
  8
PLAN_1
  6
CONTINUOUS
 10
0.616984
 20
-3.781921
  0
VERTEX
  8
PLAN_1
  6
CONTINUOUS
 10
0.611748
 20
-3.781921
  0
SEQEND
  8
0
  0
POLYLINE
  8
PLAN_1
  6
CONTINUOUS
 66
     1
 40
0.003000
 41
0.003000
  0
VERTEX
  8
PLAN_1
  6
CONTINUOUS
 10
0.611748
 20
-3.603343
  0
VERTEX
  8
PLAN_1
  6
CONTINUOUS
 10
0.606984
 20
-3.603819
  0
VERTEX
  8
PLAN_1
  6
CONTINUOUS
 10
0.602220
 20
-3.604768
  0
VERTEX
  8
PLAN_1
  6
CONTINUOUS
 10
0.597461
 20
-3.606673
  0
VERTEX
  8
PLAN_1
  6
CONTINUOUS
 10
0.593650
 20
-3.609055
  0
VERTEX
  8
PLAN_1
  6
CONTINUOUS
 10
0.589839
 20
-3.611913
  0
VERTEX
  8
PLAN_1
  6
CONTINUOUS
 10
0.586508
 20
-3.615248
  0
VERTEX
  8
PLAN_1
  6
CONTINUOUS
 10
0.583650
 20
-3.619531
  0
VERTEX
  8
PLAN_1
  6
CONTINUOUS
 10
0.580791
 20
-3.624295
  0
VERTEX
  8
PLAN_1
  6
CONTINUOUS
 10
0.578409
 20
-3.629531
  0
VERTEX
  8
PLAN_1
  6
CONTINUOUS
 10
0.576508
 20
-3.635724
  0
VERTEX
  8
PLAN_1
  6
CONTINUOUS
 10
0.575079
 20
-3.641913
  0
VERTEX
  8
PLAN_1
  6
CONTINUOUS
 10
0.573650
 20
-3.649059
  0
VERTEX
  8
PLAN_1
  6
CONTINUOUS
 10
0.572220
 20
-3.656677
  0
VERTEX
  8
PLAN_1
  6
CONTINUOUS
 10
0.571744
 20
-3.664295
  0
VERTEX
  8
PLAN_1
  6
CONTINUOUS
 10
0.571268
 20
-3.672870
  0
VERTEX
  8
PLAN_1
  6
CONTINUOUS
 10
0.571268
 20
-3.681917
  0
VERTEX
  8
PLAN_1
  6
CONTINUOUS
 10
0.571268
 20
-3.690965
  0
VERTEX
  8
PLAN_1
  6
CONTINUOUS
 10
0.571744
 20
-3.699059
  0
VERTEX
  8
PLAN_1
  6
CONTINUOUS
 10
0.572220
 20
-3.707157
  0
VERTEX
  8
PLAN_1
  6
CONTINUOUS
 10
0.573650
 20
-3.714776
  0
VERTEX
  8
PLAN_1
  6
CONTINUOUS
 10
0.575079
 20
-3.721441
  0
VERTEX
  8
PLAN_1
  6
CONTINUOUS
 10
0.576508
 20
-3.728110
  0
VERTEX
  8
PLAN_1
  6
CONTINUOUS
 10
0.578409
 20
-3.733823
  0
VERTEX
  8
PLAN_1
  6
CONTINUOUS
 10
0.580791
 20
-3.739063
  0
VERTEX
  8
PLAN_1
  6
CONTINUOUS
 10
0.583650
 20
-3.743823
  0
VERTEX
  8
PLAN_1
  6
CONTINUOUS
 10
0.586508
 20
-3.748110
  0
VERTEX
  8
PLAN_1
  6
CONTINUOUS
 10
0.589839
 20
-3.751921
  0
VERTEX
  8
PLAN_1
  6
CONTINUOUS
 10
0.593650
 20
-3.754776
  0
VERTEX
  8
PLAN_1
  6
CONTINUOUS
 10
0.597461
 20
-3.757157
  0
VERTEX
  8
PLAN_1
  6
CONTINUOUS
 10
0.602220
 20
-3.758587
  0
VERTEX
  8
PLAN_1
  6
CONTINUOUS
 10
0.606984
 20
-3.759539
  0
VERTEX
  8
PLAN_1
  6
CONTINUOUS
 10
0.611748
 20
-3.760016
  0
VERTEX
  8
PLAN_1
  6
CONTINUOUS
 10
0.616984
 20
-3.759539
  0
VERTEX
  8
PLAN_1
  6
CONTINUOUS
 10
0.621748
 20
-3.758587
  0
VERTEX
  8
PLAN_1
  6
CONTINUOUS
 10
0.626031
 20
-3.757157
  0
VERTEX
  8
PLAN_1
  6
CONTINUOUS
 10
0.629843
 20
-3.754776
  0
VERTEX
  8
PLAN_1
  6
CONTINUOUS
 10
0.633654
 20
-3.751921
  0
VERTEX
  8
PLAN_1
  6
CONTINUOUS
 10
0.636984
 20
-3.748110
  0
VERTEX
  8
PLAN_1
  6
CONTINUOUS
 10
0.639843
 20
-3.743823
  0
VERTEX
  8
PLAN_1
  6
CONTINUOUS
 10
0.642701
 20
-3.739063
  0
VERTEX
  8
PLAN_1
  6
CONTINUOUS
 10
0.645083
 20
-3.733823
  0
VERTEX
  8
PLAN_1
  6
CONTINUOUS
 10
0.646988
 20
-3.728110
  0
VERTEX
  8
PLAN_1
  6
CONTINUOUS
 10
0.648890
 20
-3.721441
  0
VERTEX
  8
PLAN_1
  6
CONTINUOUS
 10
0.650319
 20
-3.714776
  0
VERTEX
  8
PLAN_1
  6
CONTINUOUS
 10
0.651272
 20
-3.707157
  0
VERTEX
  8
PLAN_1
  6
CONTINUOUS
 10
0.652224
 20
-3.699059
  0
VERTEX
  8
PLAN_1
  6
CONTINUOUS
 10
0.652701
 20
-3.690965
  0
VERTEX
  8
PLAN_1
  6
CONTINUOUS
 10
0.652701
 20
-3.681917
  0
VERTEX
  8
PLAN_1
  6
CONTINUOUS
 10
0.652701
 20
-3.672870
  0
VERTEX
  8
PLAN_1
  6
CONTINUOUS
 10
0.652224
 20
-3.664295
  0
VERTEX
  8
PLAN_1
  6
CONTINUOUS
 10
0.651272
 20
-3.656677
  0
VERTEX
  8
PLAN_1
  6
CONTINUOUS
 10
0.650319
 20
-3.649059
  0
VERTEX
  8
PLAN_1
  6
CONTINUOUS
 10
0.648890
 20
-3.641913
  0
VERTEX
  8
PLAN_1
  6
CONTINUOUS
 10
0.646988
 20
-3.635724
  0
VERTEX
  8
PLAN_1
  6
CONTINUOUS
 10
0.645083
 20
-3.629531
  0
VERTEX
  8
PLAN_1
  6
CONTINUOUS
 10
0.642701
 20
-3.624295
  0
VERTEX
  8
PLAN_1
  6
CONTINUOUS
 10
0.639843
 20
-3.619531
  0
VERTEX
  8
PLAN_1
  6
CONTINUOUS
 10
0.636984
 20
-3.615248
  0
VERTEX
  8
PLAN_1
  6
CONTINUOUS
 10
0.633654
 20
-3.611913
  0
VERTEX
  8
PLAN_1
  6
CONTINUOUS
 10
0.629843
 20
-3.609055
  0
VERTEX
  8
PLAN_1
  6
CONTINUOUS
 10
0.626031
 20
-3.606673
  0
VERTEX
  8
PLAN_1
  6
CONTINUOUS
 10
0.621748
 20
-3.604768
  0
VERTEX
  8
PLAN_1
  6
CONTINUOUS
 10
0.616984
 20
-3.603819
  0
VERTEX
  8
PLAN_1
  6
CONTINUOUS
 10
0.611748
 20
-3.603343
  0
SEQEND
  8
0
  0
POLYLINE
  8
PLAN_1
  6
CONTINUOUS
 66
     1
 40
0.003000
 41
0.003000
  0
VERTEX
  8
PLAN_1
  6
CONTINUOUS
 10
0.804614
 20
-3.633343
  0
VERTEX
  8
PLAN_1
  6
CONTINUOUS
 10
0.803185
 20
-3.627154
  0
VERTEX
  8
PLAN_1
  6
CONTINUOUS
 10
0.801280
 20
-3.621437
  0
VERTEX
  8
PLAN_1
  6
CONTINUOUS
 10
0.799850
 20
-3.619055
  0
VERTEX
  8
PLAN_1
  6
CONTINUOUS
 10
0.798421
 20
-3.616673
  0
VERTEX
  8
PLAN_1
  6
CONTINUOUS
 10
0.796520
 20
-3.614295
  0
VERTEX
  8
PLAN_1
  6
CONTINUOUS
 10
0.794614
 20
-3.611913
  0
VERTEX
  8
PLAN_1
  6
CONTINUOUS
 10
0.792709
 20
-3.610008
  0
VERTEX
  8
PLAN_1
  6
CONTINUOUS
 10
0.790327
 20
-3.608579
  0
VERTEX
  8
PLAN_1
  6
CONTINUOUS
 10
0.787945
 20
-3.607150
  0
VERTEX
  8
PLAN_1
  6
CONTINUOUS
 10
0.785091
 20
-3.605720
  0
VERTEX
  8
PLAN_1
  6
CONTINUOUS
 10
0.781756
 20
-3.604768
  0
VERTEX
  8
PLAN_1
  6
CONTINUOUS
 10
0.778421
 20
-3.604291
  0
VERTEX
  8
PLAN_1
  6
CONTINUOUS
 10
0.775087
 20
-3.603819
  0
VERTEX
  8
PLAN_1
  6
CONTINUOUS
 10
0.771280
 20
-3.603343
  0
VERTEX
  8
PLAN_1
  6
CONTINUOUS
 10
0.767469
 20
-3.603819
  0
VERTEX
  8
PLAN_1
  6
CONTINUOUS
 10
0.764610
 20
-3.604291
  0
VERTEX
  8
PLAN_1
  6
CONTINUOUS
 10
0.761280
 20
-3.604768
  0
VERTEX
  8
PLAN_1
  6
CONTINUOUS
 10
0.758421
 20
-3.605720
  0
VERTEX
  8
PLAN_1
  6
CONTINUOUS
 10
0.755563
 20
-3.607150
  0
VERTEX
  8
PLAN_1
  6
CONTINUOUS
 10
0.752705
 20
-3.608579
  0
VERTEX
  8
PLAN_1
  6
CONTINUOUS
 10
0.750327
 20
-3.610008
  0
VERTEX
  8
PLAN_1
  6
CONTINUOUS
 10
0.747945
 20
-3.611913
  0
VERTEX
  8
PLAN_1
  6
CONTINUOUS
 10
0.743657
 20
-3.616197
  0
VERTEX
  8
PLAN_1
  6
CONTINUOUS
 10
0.739846
 20
-3.620961
  0
VERTEX
  8
PLAN_1
  6
CONTINUOUS
 10
0.736516
 20
-3.626201
  0
VERTEX
  8
PLAN_1
  6
CONTINUOUS
 10
0.733657
 20
-3.631913
  0
VERTEX
  8
PLAN_1
  6
CONTINUOUS
 10
0.731276
 20
-3.637630
  0
VERTEX
  8
PLAN_1
  6
CONTINUOUS
 10
0.729370
 20
-3.643819
  0
VERTEX
  8
PLAN_1
  6
CONTINUOUS
 10
0.727941
 20
-3.650012
  0
VERTEX
  8
PLAN_1
  6
CONTINUOUS
 10
0.726516
 20
-3.655724
  0
VERTEX
  8
PLAN_1
  6
CONTINUOUS
 10
0.725087
 20
-3.666677
  0
VERTEX
  8
PLAN_1
  6
CONTINUOUS
 10
0.725087
 20
-3.675724
  0
VERTEX
  8
PLAN_1
  6
CONTINUOUS
 10
0.725563
 20
-3.676201
  0
VERTEX
  8
PLAN_1
  6
CONTINUOUS
 10
0.727941
 20
-3.672394
  0
VERTEX
  8
PLAN_1
  6
CONTINUOUS
 10
0.731276
 20
-3.668106
  0
VERTEX
  8
PLAN_1
  6
CONTINUOUS
 10
0.735563
 20
-3.664295
  0
VERTEX
  8
PLAN_1
  6
CONTINUOUS
 10
0.740799
 20
-3.660488
  0
VERTEX
  8
PLAN_1
  6
CONTINUOUS
 10
0.743657
 20
-3.658583
  0
VERTEX
  8
PLAN_1
  6
CONTINUOUS
 10
0.746992
 20
-3.657154
  0
VERTEX
  8
PLAN_1
  6
CONTINUOUS
 10
0.750327
 20
-3.655724
  0
VERTEX
  8
PLAN_1
  6
CONTINUOUS
 10
0.754134
 20
-3.654772
  0
VERTEX
  8
PLAN_1
  6
CONTINUOUS
 10
0.757945
 20
-3.653819
  0
VERTEX
  8
PLAN_1
  6
CONTINUOUS
 10
0.762232
 20
-3.652866
  0
VERTEX
  8
PLAN_1
  6
CONTINUOUS
 10
0.766992
 20
-3.652390
  0
VERTEX
  8
PLAN_1
  6
CONTINUOUS
 10
0.771756
 20
-3.652390
  0
VERTEX
  8
PLAN_1
  6
CONTINUOUS
 10
0.776516
 20
-3.652390
  0
VERTEX
  8
PLAN_1
  6
CONTINUOUS
 10
0.781280
 20
-3.653343
  0
VERTEX
  8
PLAN_1
  6
CONTINUOUS
 10
0.786039
 20
-3.654295
  0
VERTEX
  8
PLAN_1
  6
CONTINUOUS
 10
0.791280
 20
-3.655724
  0
VERTEX
  8
PLAN_1
  6
CONTINUOUS
 10
0.796520
 20
-3.657154
  0
VERTEX
  8
PLAN_1
  6
CONTINUOUS
 10
0.801756
 20
-3.659535
  0
VERTEX
  8
PLAN_1
  6
CONTINUOUS
 10
0.806520
 20
-3.662390
  0
VERTEX
  8
PLAN_1
  6
CONTINUOUS
 10
0.811280
 20
-3.665724
  0
VERTEX
  8
PLAN_1
  6
CONTINUOUS
 10
0.815567
 20
-3.669535
  0
VERTEX
  8
PLAN_1
  6
CONTINUOUS
 10
0.819854
 20
-3.674295
  0
VERTEX
  8
PLAN_1
  6
CONTINUOUS
 10
0.823661
 20
-3.679059
  0
VERTEX
  8
PLAN_1
  6
CONTINUOUS
 10
0.826520
 20
-3.684776
  0
VERTEX
  8
PLAN_1
  6
CONTINUOUS
 10
0.829378
 20
-3.691441
  0
VERTEX
  8
PLAN_1
  6
CONTINUOUS
 10
0.831283
 20
-3.698106
  0
VERTEX
  8
PLAN_1
  6
CONTINUOUS
 10
0.832232
 20
-3.705728
  0
VERTEX
  8
PLAN_1
  6
CONTINUOUS
 10
0.832709
 20
-3.714299
  0
VERTEX
  8
PLAN_1
  6
CONTINUOUS
 10
0.832709
 20
-3.721441
  0
VERTEX
  8
PLAN_1
  6
CONTINUOUS
 10
0.831756
 20
-3.728110
  0
VERTEX
  8
PLAN_1
  6
CONTINUOUS
 10
0.830331
 20
-3.734776
  0
VERTEX
  8
PLAN_1
  6
CONTINUOUS
 10
0.828425
 20
-3.740969
  0
VERTEX
  8
PLAN_1
  6
CONTINUOUS
 10
0.826043
 20
-3.746681
  0
VERTEX
  8
PLAN_1
  6
CONTINUOUS
 10
0.822709
 20
-3.752398
  0
VERTEX
  8
PLAN_1
  6
CONTINUOUS
 10
0.818902
 20
-3.757634
  0
VERTEX
  8
PLAN_1
  6
CONTINUOUS
 10
0.814138
 20
-3.763350
  0
VERTEX
  8
PLAN_1
  6
CONTINUOUS
 10
0.810327
 20
-3.767157
  0
VERTEX
  8
PLAN_1
  6
CONTINUOUS
 10
0.806043
 20
-3.770969
  0
VERTEX
  8
PLAN_1
  6
CONTINUOUS
 10
0.801280
 20
-3.774303
  0
VERTEX
  8
PLAN_1
  6
CONTINUOUS
 10
0.796043
 20
-3.776685
  0
VERTEX
  8
PLAN_1
  6
CONTINUOUS
 10
0.789850
 20
-3.779063
  0
VERTEX
  8
PLAN_1
  6
CONTINUOUS
 10
0.782709
 20
-3.780492
  0
VERTEX
  8
PLAN_1
  6
CONTINUOUS
 10
0.774610
 20
-3.781921
  0
VERTEX
  8
PLAN_1
  6
CONTINUOUS
 10
0.764610
 20
-3.781921
  0
VERTEX
  8
PLAN_1
  6
CONTINUOUS
 10
0.758898
 20
-3.781921
  0
VERTEX
  8
PLAN_1
  6
CONTINUOUS
 10
0.752705
 20
-3.780492
  0
VERTEX
  8
PLAN_1
  6
CONTINUOUS
 10
0.746039
 20
-3.778587
  0
VERTEX
  8
PLAN_1
  6
CONTINUOUS
 10
0.739370
 20
-3.776209
  0
VERTEX
  8
PLAN_1
  6
CONTINUOUS
 10
0.736039
 20
-3.774303
  0
VERTEX
  8
PLAN_1
  6
CONTINUOUS
 10
0.732705
 20
-3.772398
  0
VERTEX
  8
PLAN_1
  6
CONTINUOUS
 10
0.729370
 20
-3.770016
  0
VERTEX
  8
PLAN_1
  6
CONTINUOUS
 10
0.726039
 20
-3.767157
  0
VERTEX
  8
PLAN_1
  6
CONTINUOUS
 10
0.723181
 20
-3.764303
  0
VERTEX
  8
PLAN_1
  6
CONTINUOUS
 10
0.720323
 20
-3.760969
  0
VERTEX
  8
PLAN_1
  6
CONTINUOUS
 10
0.717465
 20
-3.757634
  0
VERTEX
  8
PLAN_1
  6
CONTINUOUS
 10
0.714610
 20
-3.753827
  0
VERTEX
  8
PLAN_1
  6
CONTINUOUS
 10
0.710799
 20
-3.746681
  0
VERTEX
  8
PLAN_1
  6
CONTINUOUS
 10
0.707465
 20
-3.739063
  0
VERTEX
  8
PLAN_1
  6
CONTINUOUS
 10
0.704610
 20
-3.730969
  0
VERTEX
  8
PLAN_1
  6
CONTINUOUS
 10
0.702705
 20
-3.722394
  0
VERTEX
  8
PLAN_1
  6
CONTINUOUS
 10
0.701276
 20
-3.713823
  0
VERTEX
  8
PLAN_1
  6
CONTINUOUS
 10
0.700323
 20
-3.704776
  0
VERTEX
  8
PLAN_1
  6
CONTINUOUS
 10
0.699846
 20
-3.695252
  0
VERTEX
  8
PLAN_1
  6
CONTINUOUS
 10
0.699370
 20
-3.686201
  0
VERTEX
  8
PLAN_1
  6
CONTINUOUS
 10
0.699846
 20
-3.677630
  0
VERTEX
  8
PLAN_1
  6
CONTINUOUS
 10
0.700323
 20
-3.669059
  0
VERTEX
  8
PLAN_1
  6
CONTINUOUS
 10
0.701276
 20
-3.660488
  0
VERTEX
  8
PLAN_1
  6
CONTINUOUS
 10
0.702705
 20
-3.651437
  0
VERTEX
  8
PLAN_1
  6
CONTINUOUS
 10
0.704610
 20
-3.642866
  0
VERTEX
  8
PLAN_1
  6
CONTINUOUS
 10
0.706988
 20
-3.634295
  0
VERTEX
  8
PLAN_1
  6
CONTINUOUS
 10
0.710323
 20
-3.625724
  0
VERTEX
  8
PLAN_1
  6
CONTINUOUS
 10
0.713657
 20
-3.617626
  0
VERTEX
  8
PLAN_1
  6
CONTINUOUS
 10
0.718417
 20
-3.610484
  0
VERTEX
  8
PLAN_1
  6
CONTINUOUS
 10
0.723181
 20
-3.603343
  0
VERTEX
  8
PLAN_1
  6
CONTINUOUS
 10
0.726039
 20
-3.600008
  0
VERTEX
  8
PLAN_1
  6
CONTINUOUS
 10
0.729370
 20
-3.597150
  0
VERTEX
  8
PLAN_1
  6
CONTINUOUS
 10
0.732228
 20
-3.594291
  0
VERTEX
  8
PLAN_1
  6
CONTINUOUS
 10
0.736039
 20
-3.591913
  0
VERTEX
  8
PLAN_1
  6
CONTINUOUS
 10
0.739370
 20
-3.589531
  0
VERTEX
  8
PLAN_1
  6
CONTINUOUS
 10
0.743657
 20
-3.587626
  0
VERTEX
  8
PLAN_1
  6
CONTINUOUS
 10
0.747469
 20
-3.585720
  0
VERTEX
  8
PLAN_1
  6
CONTINUOUS
 10
0.751752
 20
-3.584291
  0
VERTEX
  8
PLAN_1
  6
CONTINUOUS
 10
0.756516
 20
-3.583339
  0
VERTEX
  8
PLAN_1
  6
CONTINUOUS
 10
0.761280
 20
-3.582386
  0
VERTEX
  8
PLAN_1
  6
CONTINUOUS
 10
0.766516
 20
-3.581909
  0
VERTEX
  8
PLAN_1
  6
CONTINUOUS
 10
0.771756
 20
-3.581433
  0
VERTEX
  8
PLAN_1
  6
CONTINUOUS
 10
0.776039
 20
-3.581909
  0
VERTEX
  8
PLAN_1
  6
CONTINUOUS
 10
0.780327
 20
-3.582386
  0
VERTEX
  8
PLAN_1
  6
CONTINUOUS
 10
0.785091
 20
-3.582862
  0
VERTEX
  8
PLAN_1
  6
CONTINUOUS
 10
0.789850
 20
-3.584291
  0
VERTEX
  8
PLAN_1
  6
CONTINUOUS
 10
0.794614
 20
-3.585720
  0
VERTEX
  8
PLAN_1
  6
CONTINUOUS
 10
0.798898
 20
-3.587626
  0
VERTEX
  8
PLAN_1
  6
CONTINUOUS
 10
0.803661
 20
-3.590008
  0
VERTEX
  8
PLAN_1
  6
CONTINUOUS
 10
0.807472
 20
-3.592862
  0
VERTEX
  8
PLAN_1
  6
CONTINUOUS
 10
0.811756
 20
-3.595720
  0
VERTEX
  8
PLAN_1
  6
CONTINUOUS
 10
0.815567
 20
-3.599531
  0
VERTEX
  8
PLAN_1
  6
CONTINUOUS
 10
0.818902
 20
-3.603819
  0
VERTEX
  8
PLAN_1
  6
CONTINUOUS
 10
0.821756
 20
-3.608579
  0
VERTEX
  8
PLAN_1
  6
CONTINUOUS
 10
0.824614
 20
-3.613819
  0
VERTEX
  8
PLAN_1
  6
CONTINUOUS
 10
0.826520
 20
-3.620008
  0
VERTEX
  8
PLAN_1
  6
CONTINUOUS
 10
0.827949
 20
-3.626201
  0
VERTEX
  8
PLAN_1
  6
CONTINUOUS
 10
0.828902
 20
-3.633343
  0
VERTEX
  8
PLAN_1
  6
CONTINUOUS
 10
0.804614
 20
-3.633343
  0
SEQEND
  8
0
  0
POLYLINE
  8
PLAN_1
  6
CONTINUOUS
 66
     1
 40
0.003000
 41
0.003000
  0
VERTEX
  8
PLAN_1
  6
CONTINUOUS
 10
0.769374
 20
-3.760016
  0
VERTEX
  8
PLAN_1
  6
CONTINUOUS
 10
0.773661
 20
-3.760016
  0
VERTEX
  8
PLAN_1
  6
CONTINUOUS
 10
0.777469
 20
-3.759063
  0
VERTEX
  8
PLAN_1
  6
CONTINUOUS
 10
0.781280
 20
-3.758110
  0
VERTEX
  8
PLAN_1
  6
CONTINUOUS
 10
0.785091
 20
-3.756681
  0
VERTEX
  8
PLAN_1
  6
CONTINUOUS
 10
0.788421
 20
-3.755252
  0
VERTEX
  8
PLAN_1
  6
CONTINUOUS
 10
0.791756
 20
-3.752874
  0
VERTEX
  8
PLAN_1
  6
CONTINUOUS
 10
0.794614
 20
-3.750492
  0
VERTEX
  8
PLAN_1
  6
CONTINUOUS
 10
0.796996
 20
-3.747634
  0
VERTEX
  8
PLAN_1
  6
CONTINUOUS
 10
0.799374
 20
-3.744776
  0
VERTEX
  8
PLAN_1
  6
CONTINUOUS
 10
0.801756
 20
-3.740969
  0
VERTEX
  8
PLAN_1
  6
CONTINUOUS
 10
0.803185
 20
-3.737634
  0
VERTEX
  8
PLAN_1
  6
CONTINUOUS
 10
0.805091
 20
-3.733346
  0
VERTEX
  8
PLAN_1
  6
CONTINUOUS
 10
0.806043
 20
-3.729539
  0
VERTEX
  8
PLAN_1
  6
CONTINUOUS
 10
0.806996
 20
-3.724776
  0
VERTEX
  8
PLAN_1
  6
CONTINUOUS
 10
0.807472
 20
-3.720488
  0
VERTEX
  8
PLAN_1
  6
CONTINUOUS
 10
0.807472
 20
-3.715252
  0
VERTEX
  8
PLAN_1
  6
CONTINUOUS
 10
0.806996
 20
-3.708583
  0
VERTEX
  8
PLAN_1
  6
CONTINUOUS
 10
0.805567
 20
-3.701917
  0
VERTEX
  8
PLAN_1
  6
CONTINUOUS
 10
0.804614
 20
-3.698106
  0
VERTEX
  8
PLAN_1
  6
CONTINUOUS
 10
0.803185
 20
-3.694776
  0
VERTEX
  8
PLAN_1
  6
CONTINUOUS
 10
0.801280
 20
-3.691441
  0
VERTEX
  8
PLAN_1
  6
CONTINUOUS
 10
0.799374
 20
-3.688583
  0
VERTEX
  8
PLAN_1
  6
CONTINUOUS
 10
0.796520
 20
-3.685724
  0
VERTEX
  8
PLAN_1
  6
CONTINUOUS
 10
0.794138
 20
-3.682870
  0
VERTEX
  8
PLAN_1
  6
CONTINUOUS
 10
0.790803
 20
-3.680488
  0
VERTEX
  8
PLAN_1
  6
CONTINUOUS
 10
0.786992
 20
-3.678106
  0
VERTEX
  8
PLAN_1
  6
CONTINUOUS
 10
0.783185
 20
-3.676677
  0
VERTEX
  8
PLAN_1
  6
CONTINUOUS
 10
0.778421
 20
-3.675248
  0
VERTEX
  8
PLAN_1
  6
CONTINUOUS
 10
0.773661
 20
-3.674772
  0
VERTEX
  8
PLAN_1
  6
CONTINUOUS
 10
0.767945
 20
-3.674295
  0
VERTEX
  8
PLAN_1
  6
CONTINUOUS
 10
0.763181
 20
-3.674772
  0
VERTEX
  8
PLAN_1
  6
CONTINUOUS
 10
0.758898
 20
-3.675248
  0
VERTEX
  8
PLAN_1
  6
CONTINUOUS
 10
0.754610
 20
-3.676201
  0
VERTEX
  8
PLAN_1
  6
CONTINUOUS
 10
0.750327
 20
-3.677630
  0
VERTEX
  8
PLAN_1
  6
CONTINUOUS
 10
0.746992
 20
-3.679535
  0
VERTEX
  8
PLAN_1
  6
CONTINUOUS
 10
0.743657
 20
-3.681917
  0
VERTEX
  8
PLAN_1
  6
CONTINUOUS
 10
0.740799
 20
-3.684299
  0
VERTEX
  8
PLAN_1
  6
CONTINUOUS
 10
0.737945
 20
-3.687154
  0
VERTEX
  8
PLAN_1
  6
CONTINUOUS
 10
0.735563
 20
-3.690012
  0
VERTEX
  8
PLAN_1
  6
CONTINUOUS
 10
0.733657
 20
-3.693346
  0
VERTEX
  8
PLAN_1
  6
CONTINUOUS
 10
0.732228
 20
-3.696677
  0
VERTEX
  8
PLAN_1
  6
CONTINUOUS
 10
0.730799
 20
-3.700488
  0
VERTEX
  8
PLAN_1
  6
CONTINUOUS
 10
0.729370
 20
-3.704299
  0
VERTEX
  8
PLAN_1
  6
CONTINUOUS
 10
0.728894
 20
-3.708583
  0
VERTEX
  8
PLAN_1
  6
CONTINUOUS
 10
0.728417
 20
-3.712394
  0
VERTEX
  8
PLAN_1
  6
CONTINUOUS
 10
0.728417
 20
-3.716681
  0
VERTEX
  8
PLAN_1
  6
CONTINUOUS
 10
0.728417
 20
-3.720488
  0
VERTEX
  8
PLAN_1
  6
CONTINUOUS
 10
0.728894
 20
-3.724776
  0
VERTEX
  8
PLAN_1
  6
CONTINUOUS
 10
0.729370
 20
-3.728587
  0
VERTEX
  8
PLAN_1
  6
CONTINUOUS
 10
0.730799
 20
-3.732394
  0
VERTEX
  8
PLAN_1
  6
CONTINUOUS
 10
0.731752
 20
-3.736205
  0
VERTEX
  8
PLAN_1
  6
CONTINUOUS
 10
0.733657
 20
-3.739539
  0
VERTEX
  8
PLAN_1
  6
CONTINUOUS
 10
0.735563
 20
-3.742870
  0
VERTEX
  8
PLAN_1
  6
CONTINUOUS
 10
0.737945
 20
-3.746205
  0
VERTEX
  8
PLAN_1
  6
CONTINUOUS
 10
0.740799
 20
-3.749063
  0
VERTEX
  8
PLAN_1
  6
CONTINUOUS
 10
0.743657
 20
-3.751921
  0
VERTEX
  8
PLAN_1
  6
CONTINUOUS
 10
0.746992
 20
-3.754299
  0
VERTEX
  8
PLAN_1
  6
CONTINUOUS
 10
0.750803
 20
-3.756205
  0
VERTEX
  8
PLAN_1
  6
CONTINUOUS
 10
0.755087
 20
-3.758110
  0
VERTEX
  8
PLAN_1
  6
CONTINUOUS
 10
0.759374
 20
-3.759063
  0
VERTEX
  8
PLAN_1
  6
CONTINUOUS
 10
0.764134
 20
-3.760016
  0
VERTEX
  8
PLAN_1
  6
CONTINUOUS
 10
0.769374
 20
-3.760016
  0
SEQEND
  8
0
  0
SOLID
  8
PLAN_1
 10
0.843661
 20
-3.811449
 11
0.843661
 21
-3.797638
 12
0.997957
 22
-3.811449
 13
0.997957
 23
-3.797638
  0
POLYLINE
  8
PLAN_1
  6
CONTINUOUS
 66
     1
 40
0.003000
 41
0.003000
  0
VERTEX
  8
PLAN_1
  6
CONTINUOUS
 10
0.843661
 20
-3.811449
  0
VERTEX
  8
PLAN_1
  6
CONTINUOUS
 10
0.843661
 20
-3.797638
  0
VERTEX
  8
PLAN_1
  6
CONTINUOUS
 10
0.997957
 20
-3.797638
  0
VERTEX
  8
PLAN_1
  6
CONTINUOUS
 10
0.997957
 20
-3.811449
  0
VERTEX
  8
PLAN_1
  6
CONTINUOUS
 10
0.843661
 20
-3.811449
  0
SEQEND
  8
0
  0
POLYLINE
  8
PLAN_1
  6
CONTINUOUS
 66
     1
 40
0.003000
 41
0.003000
  0
VERTEX
  8
PLAN_1
  6
CONTINUOUS
 10
1.049390
 20
-3.776685
  0
VERTEX
  8
PLAN_1
  6
CONTINUOUS
 10
1.022244
 20
-3.776685
  0
VERTEX
  8
PLAN_1
  6
CONTINUOUS
 10
1.022244
 20
-3.577626
  0
VERTEX
  8
PLAN_1
  6
CONTINUOUS
 10
1.114630
 20
-3.577626
  0
VERTEX
  8
PLAN_1
  6
CONTINUOUS
 10
1.120343
 20
-3.577626
  0
VERTEX
  8
PLAN_1
  6
CONTINUOUS
 10
1.126535
 20
-3.578102
  0
VERTEX
  8
PLAN_1
  6
CONTINUOUS
 10
1.132724
 20
-3.578579
  0
VERTEX
  8
PLAN_1
  6
CONTINUOUS
 10
1.138441
 20
-3.580008
  0
VERTEX
  8
PLAN_1
  6
CONTINUOUS
 10
1.144154
 20
-3.581433
  0
VERTEX
  8
PLAN_1
  6
CONTINUOUS
 10
1.149394
 20
-3.583339
  0
VERTEX
  8
PLAN_1
  6
CONTINUOUS
 10
1.154634
 20
-3.585720
  0
VERTEX
  8
PLAN_1
  6
CONTINUOUS
 10
1.159394
 20
-3.588579
  0
VERTEX
  8
PLAN_1
  6
CONTINUOUS
 10
1.163681
 20
-3.591913
  0
VERTEX
  8
PLAN_1
  6
CONTINUOUS
 10
1.167965
 20
-3.595720
  0
VERTEX
  8
PLAN_1
  6
CONTINUOUS
 10
1.171299
 20
-3.600008
  0
VERTEX
  8
PLAN_1
  6
CONTINUOUS
 10
1.174157
 20
-3.604768
  0
VERTEX
  8
PLAN_1
  6
CONTINUOUS
 10
1.176539
 20
-3.610484
  0
VERTEX
  8
PLAN_1
  6
CONTINUOUS
 10
1.178441
 20
-3.616673
  0
VERTEX
  8
PLAN_1
  6
CONTINUOUS
 10
1.179394
 20
-3.623343
  0
VERTEX
  8
PLAN_1
  6
CONTINUOUS
 10
1.179870
 20
-3.630961
  0
VERTEX
  8
PLAN_1
  6
CONTINUOUS
 10
1.179870
 20
-3.636201
  0
VERTEX
  8
PLAN_1
  6
CONTINUOUS
 10
1.179394
 20
-3.641437
  0
VERTEX
  8
PLAN_1
  6
CONTINUOUS
 10
1.178441
 20
-3.645724
  0
VERTEX
  8
PLAN_1
  6
CONTINUOUS
 10
1.177492
 20
-3.650012
  0
VERTEX
  8
PLAN_1
  6
CONTINUOUS
 10
1.176063
 20
-3.653819
  0
VERTEX
  8
PLAN_1
  6
CONTINUOUS
 10
1.174634
 20
-3.657154
  0
VERTEX
  8
PLAN_1
  6
CONTINUOUS
 10
1.172728
 20
-3.660488
  0
VERTEX
  8
PLAN_1
  6
CONTINUOUS
 10
1.170823
 20
-3.663343
  0
VERTEX
  8
PLAN_1
  6
CONTINUOUS
 10
1.166535
 20
-3.668106
  0
VERTEX
  8
PLAN_1
  6
CONTINUOUS
 10
1.161776
 20
-3.672394
  0
VERTEX
  8
PLAN_1
  6
CONTINUOUS
 10
1.157012
 20
-3.675724
  0
VERTEX
  8
PLAN_1
  6
CONTINUOUS
 10
1.152252
 20
-3.678583
  0
VERTEX
  8
PLAN_1
  6
CONTINUOUS
 10
1.156535
 20
-3.680488
  0
VERTEX
  8
PLAN_1
  6
CONTINUOUS
 10
1.160346
 20
-3.682870
  0
VERTEX
  8
PLAN_1
  6
CONTINUOUS
 10
1.164157
 20
-3.685248
  0
VERTEX
  8
PLAN_1
  6
CONTINUOUS
 10
1.167965
 20
-3.689059
  0
VERTEX
  8
PLAN_1
  6
CONTINUOUS
 10
1.169394
 20
-3.690965
  0
VERTEX
  8
PLAN_1
  6
CONTINUOUS
 10
1.170823
 20
-3.693346
  0
VERTEX
  8
PLAN_1
  6
CONTINUOUS
 10
1.172252
 20
-3.696205
  0
VERTEX
  8
PLAN_1
  6
CONTINUOUS
 10
1.173205
 20
-3.699535
  0
VERTEX
  8
PLAN_1
  6
CONTINUOUS
 10
1.174157
 20
-3.702870
  0
VERTEX
  8
PLAN_1
  6
CONTINUOUS
 10
1.175110
 20
-3.706681
  0
VERTEX
  8
PLAN_1
  6
CONTINUOUS
 10
1.175587
 20
-3.711441
  0
VERTEX
  8
PLAN_1
  6
CONTINUOUS
 10
1.176063
 20
-3.716205
  0
VERTEX
  8
PLAN_1
  6
CONTINUOUS
 10
1.177492
 20
-3.752398
  0
VERTEX
  8
PLAN_1
  6
CONTINUOUS
 10
1.177965
 20
-3.756205
  0
VERTEX
  8
PLAN_1
  6
CONTINUOUS
 10
1.177965
 20
-3.759539
  0
VERTEX
  8
PLAN_1
  6
CONTINUOUS
 10
1.178917
 20
-3.762398
  0
VERTEX
  8
PLAN_1
  6
CONTINUOUS
 10
1.179870
 20
-3.764780
  0
VERTEX
  8
PLAN_1
  6
CONTINUOUS
 10
1.180823
 20
-3.766681
  0
VERTEX
  8
PLAN_1
  6
CONTINUOUS
 10
1.182728
 20
-3.768587
  0
VERTEX
  8
PLAN_1
  6
CONTINUOUS
 10
1.184634
 20
-3.770492
  0
VERTEX
  8
PLAN_1
  6
CONTINUOUS
 10
1.187492
 20
-3.772398
  0
VERTEX
  8
PLAN_1
  6
CONTINUOUS
 10
1.187492
 20
-3.776685
  0
VERTEX
  8
PLAN_1
  6
CONTINUOUS
 10
1.154634
 20
-3.776685
  0
VERTEX
  8
PLAN_1
  6
CONTINUOUS
 10
1.153205
 20
-3.771445
  0
VERTEX
  8
PLAN_1
  6
CONTINUOUS
 10
1.152252
 20
-3.764780
  0
VERTEX
  8
PLAN_1
  6
CONTINUOUS
 10
1.151299
 20
-3.757634
  0
VERTEX
  8
PLAN_1
  6
CONTINUOUS
 10
1.150823
 20
-3.750016
  0
VERTEX
  8
PLAN_1
  6
CONTINUOUS
 10
1.150346
 20
-3.742870
  0
VERTEX
  8
PLAN_1
  6
CONTINUOUS
 10
1.149870
 20
-3.736205
  0
VERTEX
  8
PLAN_1
  6
CONTINUOUS
 10
1.149870
 20
-3.730492
  0
VERTEX
  8
PLAN_1
  6
CONTINUOUS
 10
1.149870
 20
-3.726681
  0
VERTEX
  8
PLAN_1
  6
CONTINUOUS
 10
1.149870
 20
-3.720488
  0
VERTEX
  8
PLAN_1
  6
CONTINUOUS
 10
1.148917
 20
-3.714299
  0
VERTEX
  8
PLAN_1
  6
CONTINUOUS
 10
1.147965
 20
-3.711441
  0
VERTEX
  8
PLAN_1
  6
CONTINUOUS
 10
1.147012
 20
-3.708583
  0
VERTEX
  8
PLAN_1
  6
CONTINUOUS
 10
1.146059
 20
-3.705728
  0
VERTEX
  8
PLAN_1
  6
CONTINUOUS
 10
1.144154
 20
-3.702870
  0
VERTEX
  8
PLAN_1
  6
CONTINUOUS
 10
1.142252
 20
-3.700488
  0
VERTEX
  8
PLAN_1
  6
CONTINUOUS
 10
1.139870
 20
-3.698106
  0
VERTEX
  8
PLAN_1
  6
CONTINUOUS
 10
1.137012
 20
-3.696205
  0
VERTEX
  8
PLAN_1
  6
CONTINUOUS
 10
1.133677
 20
-3.694299
  0
VERTEX
  8
PLAN_1
  6
CONTINUOUS
 10
1.129394
 20
-3.693346
  0
VERTEX
  8
PLAN_1
  6
CONTINUOUS
 10
1.125106
 20
-3.691917
  0
VERTEX
  8
PLAN_1
  6
CONTINUOUS
 10
1.119870
 20
-3.691441
  0
VERTEX
  8
PLAN_1
  6
CONTINUOUS
 10
1.114630
 20
-3.691441
  0
VERTEX
  8
PLAN_1
  6
CONTINUOUS
 10
1.049390
 20
-3.691441
  0
VERTEX
  8
PLAN_1
  6
CONTINUOUS
 10
1.049390
 20
-3.776685
  0
SEQEND
  8
0
  0
POLYLINE
  8
PLAN_1
  6
CONTINUOUS
 66
     1
 40
0.003000
 41
0.003000
  0
VERTEX
  8
PLAN_1
  6
CONTINUOUS
 10
1.049390
 20
-3.668106
  0
VERTEX
  8
PLAN_1
  6
CONTINUOUS
 10
1.111772
 20
-3.668106
  0
VERTEX
  8
PLAN_1
  6
CONTINUOUS
 10
1.118917
 20
-3.668106
  0
VERTEX
  8
PLAN_1
  6
CONTINUOUS
 10
1.126059
 20
-3.667154
  0
VERTEX
  8
PLAN_1
  6
CONTINUOUS
 10
1.129870
 20
-3.666201
  0
VERTEX
  8
PLAN_1
  6
CONTINUOUS
 10
1.133201
 20
-3.665248
  0
VERTEX
  8
PLAN_1
  6
CONTINUOUS
 10
1.136059
 20
-3.663819
  0
VERTEX
  8
PLAN_1
  6
CONTINUOUS
 10
1.139394
 20
-3.661913
  0
VERTEX
  8
PLAN_1
  6
CONTINUOUS
 10
1.141776
 20
-3.660012
  0
VERTEX
  8
PLAN_1
  6
CONTINUOUS
 10
1.144630
 20
-3.657630
  0
VERTEX
  8
PLAN_1
  6
CONTINUOUS
 10
1.146535
 20
-3.654772
  0
VERTEX
  8
PLAN_1
  6
CONTINUOUS
 10
1.148441
 20
-3.651437
  0
VERTEX
  8
PLAN_1
  6
CONTINUOUS
 10
1.149870
 20
-3.648106
  0
VERTEX
  8
PLAN_1
  6
CONTINUOUS
 10
1.151299
 20
-3.643819
  0
VERTEX
  8
PLAN_1
  6
CONTINUOUS
 10
1.151776
 20
-3.639055
  0
VERTEX
  8
PLAN_1
  6
CONTINUOUS
 10
1.152252
 20
-3.633819
  0
VERTEX
  8
PLAN_1
  6
CONTINUOUS
 10
1.151776
 20
-3.628579
  0
VERTEX
  8
PLAN_1
  6
CONTINUOUS
 10
1.151299
 20
-3.623343
  0
VERTEX
  8
PLAN_1
  6
CONTINUOUS
 10
1.149870
 20
-3.619531
  0
VERTEX
  8
PLAN_1
  6
CONTINUOUS
 10
1.148441
 20
-3.615724
  0
VERTEX
  8
PLAN_1
  6
CONTINUOUS
 10
1.146535
 20
-3.612390
  0
VERTEX
  8
PLAN_1
  6
CONTINUOUS
 10
1.144154
 20
-3.609531
  0
VERTEX
  8
PLAN_1
  6
CONTINUOUS
 10
1.141776
 20
-3.607626
  0
VERTEX
  8
PLAN_1
  6
CONTINUOUS
 10
1.139394
 20
-3.605720
  0
VERTEX
  8
PLAN_1
  6
CONTINUOUS
 10
1.136535
 20
-3.604291
  0
VERTEX
  8
PLAN_1
  6
CONTINUOUS
 10
1.133677
 20
-3.602866
  0
VERTEX
  8
PLAN_1
  6
CONTINUOUS
 10
1.130346
 20
-3.601913
  0
VERTEX
  8
PLAN_1
  6
CONTINUOUS
 10
1.127488
 20
-3.601437
  0
VERTEX
  8
PLAN_1
  6
CONTINUOUS
 10
1.121772
 20
-3.600484
  0
VERTEX
  8
PLAN_1
  6
CONTINUOUS
 10
1.116535
 20
-3.600484
  0
VERTEX
  8
PLAN_1
  6
CONTINUOUS
 10
1.049390
 20
-3.600484
  0
VERTEX
  8
PLAN_1
  6
CONTINUOUS
 10
1.049390
 20
-3.668106
  0
SEQEND
  8
0
  0
SOLID
  8
PLAN_1
 10
1.251303
 20
-3.776685
 11
1.222256
 21
-3.776685
 12
1.251303
 22
-3.747157
 13
1.222256
 23
-3.747157
  0
POLYLINE
  8
PLAN_1
  6
CONTINUOUS
 66
     1
 40
0.003000
 41
0.003000
  0
VERTEX
  8
PLAN_1
  6
CONTINUOUS
 10
1.251303
 20
-3.776685
  0
VERTEX
  8
PLAN_1
  6
CONTINUOUS
 10
1.222256
 20
-3.776685
  0
VERTEX
  8
PLAN_1
  6
CONTINUOUS
 10
1.222256
 20
-3.747157
  0
VERTEX
  8
PLAN_1
  6
CONTINUOUS
 10
1.251303
 20
-3.747157
  0
VERTEX
  8
PLAN_1
  6
CONTINUOUS
 10
1.251303
 20
-3.776685
  0
SEQEND
  8
0
  0
POLYLINE
  8
PLAN_1
  6
CONTINUOUS
 66
     1
 40
0.003000
 41
0.003000
  0
VERTEX
  8
PLAN_1
  6
CONTINUOUS
 10
1.446551
 20
-3.776685
  0
VERTEX
  8
PLAN_1
  6
CONTINUOUS
 10
1.299402
 20
-3.776685
  0
VERTEX
  8
PLAN_1
  6
CONTINUOUS
 10
1.299402
 20
-3.577626
  0
VERTEX
  8
PLAN_1
  6
CONTINUOUS
 10
1.444646
 20
-3.577626
  0
VERTEX
  8
PLAN_1
  6
CONTINUOUS
 10
1.444646
 20
-3.601437
  0
VERTEX
  8
PLAN_1
  6
CONTINUOUS
 10
1.326071
 20
-3.601437
  0
VERTEX
  8
PLAN_1
  6
CONTINUOUS
 10
1.326071
 20
-3.662390
  0
VERTEX
  8
PLAN_1
  6
CONTINUOUS
 10
1.435122
 20
-3.662390
  0
VERTEX
  8
PLAN_1
  6
CONTINUOUS
 10
1.435122
 20
-3.686201
  0
VERTEX
  8
PLAN_1
  6
CONTINUOUS
 10
1.326071
 20
-3.686201
  0
VERTEX
  8
PLAN_1
  6
CONTINUOUS
 10
1.326071
 20
-3.752874
  0
VERTEX
  8
PLAN_1
  6
CONTINUOUS
 10
1.446551
 20
-3.752874
  0
VERTEX
  8
PLAN_1
  6
CONTINUOUS
 10
1.446551
 20
-3.776685
  0
SEQEND
  8
0
  0
POLYLINE
  8
PLAN_1
  6
CONTINUOUS
 66
     1
 40
0.003000
 41
0.003000
  0
VERTEX
  8
PLAN_1
  6
CONTINUOUS
 10
1.511319
 20
-3.776685
  0
VERTEX
  8
PLAN_1
  6
CONTINUOUS
 10
1.484650
 20
-3.776685
  0
VERTEX
  8
PLAN_1
  6
CONTINUOUS
 10
1.484650
 20
-3.577626
  0
VERTEX
  8
PLAN_1
  6
CONTINUOUS
 10
1.574177
 20
-3.577626
  0
VERTEX
  8
PLAN_1
  6
CONTINUOUS
 10
1.580846
 20
-3.577626
  0
VERTEX
  8
PLAN_1
  6
CONTINUOUS
 10
1.587512
 20
-3.578579
  0
VERTEX
  8
PLAN_1
  6
CONTINUOUS
 10
1.593224
 20
-3.580008
  0
VERTEX
  8
PLAN_1
  6
CONTINUOUS
 10
1.598941
 20
-3.581909
  0
VERTEX
  8
PLAN_1
  6
CONTINUOUS
 10
1.604181
 20
-3.583815
  0
VERTEX
  8
PLAN_1
  6
CONTINUOUS
 10
1.608941
 20
-3.586673
  0
VERTEX
  8
PLAN_1
  6
CONTINUOUS
 10
1.613705
 20
-3.590008
  0
VERTEX
  8
PLAN_1
  6
CONTINUOUS
 10
1.617512
 20
-3.593339
  0
VERTEX
  8
PLAN_1
  6
CONTINUOUS
 10
1.621323
 20
-3.597150
  0
VERTEX
  8
PLAN_1
  6
CONTINUOUS
 10
1.624181
 20
-3.601437
  0
VERTEX
  8
PLAN_1
  6
CONTINUOUS
 10
1.627039
 20
-3.606197
  0
VERTEX
  8
PLAN_1
  6
CONTINUOUS
 10
1.629417
 20
-3.610961
  0
VERTEX
  8
PLAN_1
  6
CONTINUOUS
 10
1.630846
 20
-3.616197
  0
VERTEX
  8
PLAN_1
  6
CONTINUOUS
 10
1.632276
 20
-3.621913
  0
VERTEX
  8
PLAN_1
  6
CONTINUOUS
 10
1.633228
 20
-3.627626
  0
VERTEX
  8
PLAN_1
  6
CONTINUOUS
 10
1.633228
 20
-3.633343
  0
VERTEX
  8
PLAN_1
  6
CONTINUOUS
 10
1.633228
 20
-3.638583
  0
VERTEX
  8
PLAN_1
  6
CONTINUOUS
 10
1.632752
 20
-3.643819
  0
VERTEX
  8
PLAN_1
  6
CONTINUOUS
 10
1.631799
 20
-3.649535
  0
VERTEX
  8
PLAN_1
  6
CONTINUOUS
 10
1.630370
 20
-3.654295
  0
VERTEX
  8
PLAN_1
  6
CONTINUOUS
 10
1.628465
 20
-3.659535
  0
VERTEX
  8
PLAN_1
  6
CONTINUOUS
 10
1.626087
 20
-3.664295
  0
VERTEX
  8
PLAN_1
  6
CONTINUOUS
 10
1.623228
 20
-3.669059
  0
VERTEX
  8
PLAN_1
  6
CONTINUOUS
 10
1.619894
 20
-3.673346
  0
VERTEX
  8
PLAN_1
  6
CONTINUOUS
 10
1.616087
 20
-3.677630
  0
VERTEX
  8
PLAN_1
  6
CONTINUOUS
 10
1.611799
 20
-3.681441
  0
VERTEX
  8
PLAN_1
  6
CONTINUOUS
 10
1.607035
 20
-3.684776
  0
VERTEX
  8
PLAN_1
  6
CONTINUOUS
 10
1.601799
 20
-3.687154
  0
VERTEX
  8
PLAN_1
  6
CONTINUOUS
 10
1.595606
 20
-3.689535
  0
VERTEX
  8
PLAN_1
  6
CONTINUOUS
 10
1.588941
 20
-3.691441
  0
VERTEX
  8
PLAN_1
  6
CONTINUOUS
 10
1.581795
 20
-3.692394
  0
VERTEX
  8
PLAN_1
  6
CONTINUOUS
 10
1.574177
 20
-3.692870
  0
VERTEX
  8
PLAN_1
  6
CONTINUOUS
 10
1.511319
 20
-3.692870
  0
VERTEX
  8
PLAN_1
  6
CONTINUOUS
 10
1.511319
 20
-3.776685
  0
SEQEND
  8
0
  0
POLYLINE
  8
PLAN_1
  6
CONTINUOUS
 66
     1
 40
0.003000
 41
0.003000
  0
VERTEX
  8
PLAN_1
  6
CONTINUOUS
 10
1.511319
 20
-3.669535
  0
VERTEX
  8
PLAN_1
  6
CONTINUOUS
 10
1.565130
 20
-3.669535
  0
VERTEX
  8
PLAN_1
  6
CONTINUOUS
 10
1.569417
 20
-3.669535
  0
VERTEX
  8
PLAN_1
  6
CONTINUOUS
 10
1.573701
 20
-3.669059
  0
VERTEX
  8
PLAN_1
  6
CONTINUOUS
 10
1.577512
 20
-3.668583
  0
VERTEX
  8
PLAN_1
  6
CONTINUOUS
 10
1.581795
 20
-3.667630
  0
VERTEX
  8
PLAN_1
  6
CONTINUOUS
 10
1.585130
 20
-3.666677
  0
VERTEX
  8
PLAN_1
  6
CONTINUOUS
 10
1.588465
 20
-3.665248
  0
VERTEX
  8
PLAN_1
  6
CONTINUOUS
 10
1.591323
 20
-3.663819
  0
VERTEX
  8
PLAN_1
  6
CONTINUOUS
 10
1.594177
 20
-3.661913
  0
VERTEX
  8
PLAN_1
  6
CONTINUOUS
 10
1.597035
 20
-3.659535
  0
VERTEX
  8
PLAN_1
  6
CONTINUOUS
 10
1.598941
 20
-3.657154
  0
VERTEX
  8
PLAN_1
  6
CONTINUOUS
 10
1.600846
 20
-3.653819
  0
VERTEX
  8
PLAN_1
  6
CONTINUOUS
 10
1.602752
 20
-3.650961
  0
VERTEX
  8
PLAN_1
  6
CONTINUOUS
 10
1.603705
 20
-3.647154
  0
VERTEX
  8
PLAN_1
  6
CONTINUOUS
 10
1.604654
 20
-3.642866
  0
VERTEX
  8
PLAN_1
  6
CONTINUOUS
 10
1.605606
 20
-3.638583
  0
VERTEX
  8
PLAN_1
  6
CONTINUOUS
 10
1.605606
 20
-3.633819
  0
VERTEX
  8
PLAN_1
  6
CONTINUOUS
 10
1.605130
 20
-3.629055
  0
VERTEX
  8
PLAN_1
  6
CONTINUOUS
 10
1.604654
 20
-3.625248
  0
VERTEX
  8
PLAN_1
  6
CONTINUOUS
 10
1.603705
 20
-3.621437
  0
VERTEX
  8
PLAN_1
  6
CONTINUOUS
 10
1.602752
 20
-3.618102
  0
VERTEX
  8
PLAN_1
  6
CONTINUOUS
 10
1.600846
 20
-3.614772
  0
VERTEX
  8
PLAN_1
  6
CONTINUOUS
 10
1.598941
 20
-3.612390
  0
VERTEX
  8
PLAN_1
  6
CONTINUOUS
 10
1.596559
 20
-3.610008
  0
VERTEX
  8
PLAN_1
  6
CONTINUOUS
 10
1.594177
 20
-3.607626
  0
VERTEX
  8
PLAN_1
  6
CONTINUOUS
 10
1.591323
 20
-3.605720
  0
VERTEX
  8
PLAN_1
  6
CONTINUOUS
 10
1.588465
 20
-3.604291
  0
VERTEX
  8
PLAN_1
  6
CONTINUOUS
 10
1.585130
 20
-3.603343
  0
VERTEX
  8
PLAN_1
  6
CONTINUOUS
 10
1.581795
 20
-3.602390
  0
VERTEX
  8
PLAN_1
  6
CONTINUOUS
 10
1.574177
 20
-3.600961
  0
VERTEX
  8
PLAN_1
  6
CONTINUOUS
 10
1.566083
 20
-3.600484
  0
VERTEX
  8
PLAN_1
  6
CONTINUOUS
 10
1.511319
 20
-3.600484
  0
VERTEX
  8
PLAN_1
  6
CONTINUOUS
 10
1.511319
 20
-3.669535
  0
SEQEND
  8
0
  0
POLYLINE
  8
PLAN_1
  6
CONTINUOUS
 66
     1
 40
0.003000
 41
0.003000
  0
VERTEX
  8
PLAN_1
  6
CONTINUOUS
 10
1.787047
 20
-3.635724
  0
VERTEX
  8
PLAN_1
  6
CONTINUOUS
 10
1.786571
 20
-3.630008
  0
VERTEX
  8
PLAN_1
  6
CONTINUOUS
 10
1.785618
 20
-3.625248
  0
VERTEX
  8
PLAN_1
  6
CONTINUOUS
 10
1.784189
 20
-3.620484
  0
VERTEX
  8
PLAN_1
  6
CONTINUOUS
 10
1.781807
 20
-3.616197
  0
VERTEX
  8
PLAN_1
  6
CONTINUOUS
 10
1.779425
 20
-3.612866
  0
VERTEX
  8
PLAN_1
  6
CONTINUOUS
 10
1.777047
 20
-3.609531
  0
VERTEX
  8
PLAN_1
  6
CONTINUOUS
 10
1.773713
 20
-3.606673
  0
VERTEX
  8
PLAN_1
  6
CONTINUOUS
 10
1.770378
 20
-3.603819
  0
VERTEX
  8
PLAN_1
  6
CONTINUOUS
 10
1.766567
 20
-3.601913
  0
VERTEX
  8
PLAN_1
  6
CONTINUOUS
 10
1.762760
 20
-3.600008
  0
VERTEX
  8
PLAN_1
  6
CONTINUOUS
 10
1.758949
 20
-3.598579
  0
VERTEX
  8
PLAN_1
  6
CONTINUOUS
 10
1.754661
 20
-3.597150
  0
VERTEX
  8
PLAN_1
  6
CONTINUOUS
 10
1.750378
 20
-3.596197
  0
VERTEX
  8
PLAN_1
  6
CONTINUOUS
 10
1.746091
 20
-3.595720
  0
VERTEX
  8
PLAN_1
  6
CONTINUOUS
 10
1.741807
 20
-3.595244
  0
VERTEX
  8
PLAN_1
  6
CONTINUOUS
 10
1.737996
 20
-3.595244
  0
VERTEX
  8
PLAN_1
  6
CONTINUOUS
 10
1.730854
 20
-3.595720
  0
VERTEX
  8
PLAN_1
  6
CONTINUOUS
 10
1.723709
 20
-3.596673
  0
VERTEX
  8
PLAN_1
  6
CONTINUOUS
 10
1.719902
 20
-3.597150
  0
VERTEX
  8
PLAN_1
  6
CONTINUOUS
 10
1.716091
 20
-3.598102
  0
VERTEX
  8
PLAN_1
  6
CONTINUOUS
 10
1.712280
 20
-3.599531
  0
VERTEX
  8
PLAN_1
  6
CONTINUOUS
 10
1.708469
 20
-3.601437
  0
VERTEX
  8
PLAN_1
  6
CONTINUOUS
 10
1.705138
 20
-3.603343
  0
VERTEX
  8
PLAN_1
  6
CONTINUOUS
 10
1.702280
 20
-3.605720
  0
VERTEX
  8
PLAN_1
  6
CONTINUOUS
 10
1.699421
 20
-3.608579
  0
VERTEX
  8
PLAN_1
  6
CONTINUOUS
 10
1.697039
 20
-3.611913
  0
VERTEX
  8
PLAN_1
  6
CONTINUOUS
 10
1.695138
 20
-3.615724
  0
VERTEX
  8
PLAN_1
  6
CONTINUOUS
 10
1.693709
 20
-3.620008
  0
VERTEX
  8
PLAN_1
  6
CONTINUOUS
 10
1.692756
 20
-3.624772
  0
VERTEX
  8
PLAN_1
  6
CONTINUOUS
 10
1.692280
 20
-3.630008
  0
VERTEX
  8
PLAN_1
  6
CONTINUOUS
 10
1.692280
 20
-3.633343
  0
VERTEX
  8
PLAN_1
  6
CONTINUOUS
 10
1.692756
 20
-3.636201
  0
VERTEX
  8
PLAN_1
  6
CONTINUOUS
 10
1.693232
 20
-3.638583
  0
VERTEX
  8
PLAN_1
  6
CONTINUOUS
 10
1.694185
 20
-3.640961
  0
VERTEX
  8
PLAN_1
  6
CONTINUOUS
 10
1.695614
 20
-3.642866
  0
VERTEX
  8
PLAN_1
  6
CONTINUOUS
 10
1.696567
 20
-3.644772
  0
VERTEX
  8
PLAN_1
  6
CONTINUOUS
 10
1.697992
 20
-3.646677
  0
VERTEX
  8
PLAN_1
  6
CONTINUOUS
 10
1.699898
 20
-3.648106
  0
VERTEX
  8
PLAN_1
  6
CONTINUOUS
 10
1.703232
 20
-3.650484
  0
VERTEX
  8
PLAN_1
  6
CONTINUOUS
 10
1.707043
 20
-3.652866
  0
VERTEX
  8
PLAN_1
  6
CONTINUOUS
 10
1.711327
 20
-3.654295
  0
VERTEX
  8
PLAN_1
  6
CONTINUOUS
 10
1.716091
 20
-3.655248
  0
VERTEX
  8
PLAN_1
  6
CONTINUOUS
 10
1.772760
 20
-3.668583
  0
VERTEX
  8
PLAN_1
  6
CONTINUOUS
 10
1.777524
 20
-3.669535
  0
VERTEX
  8
PLAN_1
  6
CONTINUOUS
 10
1.782283
 20
-3.671441
  0
VERTEX
  8
PLAN_1
  6
CONTINUOUS
 10
1.786571
 20
-3.672870
  0
VERTEX
  8
PLAN_1
  6
CONTINUOUS
 10
1.790854
 20
-3.674772
  0
VERTEX
  8
PLAN_1
  6
CONTINUOUS
 10
1.794665
 20
-3.677154
  0
VERTEX
  8
PLAN_1
  6
CONTINUOUS
 10
1.798476
 20
-3.679535
  0
VERTEX
  8
PLAN_1
  6
CONTINUOUS
 10
1.801807
 20
-3.682394
  0
VERTEX
  8
PLAN_1
  6
CONTINUOUS
 10
1.805142
 20
-3.685724
  0
VERTEX
  8
PLAN_1
  6
CONTINUOUS
 10
1.808000
 20
-3.689059
  0
VERTEX
  8
PLAN_1
  6
CONTINUOUS
 10
1.810382
 20
-3.692870
  0
VERTEX
  8
PLAN_1
  6
CONTINUOUS
 10
1.812760
 20
-3.696677
  0
VERTEX
  8
PLAN_1
  6
CONTINUOUS
 10
1.814665
 20
-3.700965
  0
VERTEX
  8
PLAN_1
  6
CONTINUOUS
 10
1.816094
 20
-3.705728
  0
VERTEX
  8
PLAN_1
  6
CONTINUOUS
 10
1.817047
 20
-3.710488
  0
VERTEX
  8
PLAN_1
  6
CONTINUOUS
 10
1.818000
 20
-3.716205
  0
VERTEX
  8
PLAN_1
  6
CONTINUOUS
 10
1.818000
 20
-3.721917
  0
VERTEX
  8
PLAN_1
  6
CONTINUOUS
 10
1.818000
 20
-3.726205
  0
VERTEX
  8
PLAN_1
  6
CONTINUOUS
 10
1.817524
 20
-3.730016
  0
VERTEX
  8
PLAN_1
  6
CONTINUOUS
 10
1.817047
 20
-3.734299
  0
VERTEX
  8
PLAN_1
  6
CONTINUOUS
 10
1.816094
 20
-3.738110
  0
VERTEX
  8
PLAN_1
  6
CONTINUOUS
 10
1.815142
 20
-3.741445
  0
VERTEX
  8
PLAN_1
  6
CONTINUOUS
 10
1.813713
 20
-3.744776
  0
VERTEX
  8
PLAN_1
  6
CONTINUOUS
 10
1.812283
 20
-3.748110
  0
VERTEX
  8
PLAN_1
  6
CONTINUOUS
 10
1.810382
 20
-3.750969
  0
VERTEX
  8
PLAN_1
  6
CONTINUOUS
 10
1.806571
 20
-3.756681
  0
VERTEX
  8
PLAN_1
  6
CONTINUOUS
 10
1.802283
 20
-3.761445
  0
VERTEX
  8
PLAN_1
  6
CONTINUOUS
 10
1.797524
 20
-3.765728
  0
VERTEX
  8
PLAN_1
  6
CONTINUOUS
 10
1.791807
 20
-3.769539
  0
VERTEX
  8
PLAN_1
  6
CONTINUOUS
 10
1.786094
 20
-3.772874
  0
VERTEX
  8
PLAN_1
  6
CONTINUOUS
 10
1.779902
 20
-3.775256
  0
VERTEX
  8
PLAN_1
  6
CONTINUOUS
 10
1.773236
 20
-3.777634
  0
VERTEX
  8
PLAN_1
  6
CONTINUOUS
 10
1.766567
 20
-3.779063
  0
VERTEX
  8
PLAN_1
  6
CONTINUOUS
 10
1.759902
 20
-3.780492
  0
VERTEX
  8
PLAN_1
  6
CONTINUOUS
 10
1.753236
 20
-3.781445
  0
VERTEX
  8
PLAN_1
  6
CONTINUOUS
 10
1.746567
 20
-3.781921
  0
VERTEX
  8
PLAN_1
  6
CONTINUOUS
 10
1.739902
 20
-3.781921
  0
VERTEX
  8
PLAN_1
  6
CONTINUOUS
 10
1.733232
 20
-3.781921
  0
VERTEX
  8
PLAN_1
  6
CONTINUOUS
 10
1.727043
 20
-3.781445
  0
VERTEX
  8
PLAN_1
  6
CONTINUOUS
 10
1.721327
 20
-3.780969
  0
VERTEX
  8
PLAN_1
  6
CONTINUOUS
 10
1.716091
 20
-3.780016
  0
VERTEX
  8
PLAN_1
  6
CONTINUOUS
 10
1.707043
 20
-3.778110
  0
VERTEX
  8
PLAN_1
  6
CONTINUOUS
 10
1.699421
 20
-3.775256
  0
VERTEX
  8
PLAN_1
  6
CONTINUOUS
 10
1.693232
 20
-3.772398
  0
VERTEX
  8
PLAN_1
  6
CONTINUOUS
 10
1.687516
 20
-3.769063
  0
VERTEX
  8
PLAN_1
  6
CONTINUOUS
 10
1.683232
 20
-3.766205
  0
VERTEX
  8
PLAN_1
  6
CONTINUOUS
 10
1.679898
 20
-3.762874
  0
VERTEX
  8
PLAN_1
  6
CONTINUOUS
 10
1.676563
 20
-3.760016
  0
VERTEX
  8
PLAN_1
  6
CONTINUOUS
 10
1.674181
 20
-3.757157
  0
VERTEX
  8
PLAN_1
  6
CONTINUOUS
 10
1.671803
 20
-3.754299
  0
VERTEX
  8
PLAN_1
  6
CONTINUOUS
 10
1.669421
 20
-3.750969
  0
VERTEX
  8
PLAN_1
  6
CONTINUOUS
 10
1.666087
 20
-3.745252
  0
VERTEX
  8
PLAN_1
  6
CONTINUOUS
 10
1.663228
 20
-3.739063
  0
VERTEX
  8
PLAN_1
  6
CONTINUOUS
 10
1.661327
 20
-3.732394
  0
VERTEX
  8
PLAN_1
  6
CONTINUOUS
 10
1.660374
 20
-3.725728
  0
VERTEX
  8
PLAN_1
  6
CONTINUOUS
 10
1.659898
 20
-3.719063
  0
VERTEX
  8
PLAN_1
  6
CONTINUOUS
 10
1.659421
 20
-3.712394
  0
VERTEX
  8
PLAN_1
  6
CONTINUOUS
 10
1.684661
 20
-3.712394
  0
VERTEX
  8
PLAN_1
  6
CONTINUOUS
 10
1.685138
 20
-3.719063
  0
VERTEX
  8
PLAN_1
  6
CONTINUOUS
 10
1.686087
 20
-3.724776
  0
VERTEX
  8
PLAN_1
  6
CONTINUOUS
 10
1.687516
 20
-3.730016
  0
VERTEX
  8
PLAN_1
  6
CONTINUOUS
 10
1.689898
 20
-3.734776
  0
VERTEX
  8
PLAN_1
  6
CONTINUOUS
 10
1.692280
 20
-3.739063
  0
VERTEX
  8
PLAN_1
  6
CONTINUOUS
 10
1.695614
 20
-3.742870
  0
VERTEX
  8
PLAN_1
  6
CONTINUOUS
 10
1.698945
 20
-3.746205
  0
VERTEX
  8
PLAN_1
  6
CONTINUOUS
 10
1.702756
 20
-3.749063
  0
VERTEX
  8
PLAN_1
  6
CONTINUOUS
 10
1.706567
 20
-3.751921
  0
VERTEX
  8
PLAN_1
  6
CONTINUOUS
 10
1.711327
 20
-3.753827
  0
VERTEX
  8
PLAN_1
  6
CONTINUOUS
 10
1.715614
 20
-3.755252
  0
VERTEX
  8
PLAN_1
  6
CONTINUOUS
 10
1.720374
 20
-3.756681
  0
VERTEX
  8
PLAN_1
  6
CONTINUOUS
 10
1.725138
 20
-3.757634
  0
VERTEX
  8
PLAN_1
  6
CONTINUOUS
 10
1.729902
 20
-3.758587
  0
VERTEX
  8
PLAN_1
  6
CONTINUOUS
 10
1.734661
 20
-3.759063
  0
VERTEX
  8
PLAN_1
  6
CONTINUOUS
 10
1.739902
 20
-3.759063
  0
VERTEX
  8
PLAN_1
  6
CONTINUOUS
 10
1.747520
 20
-3.758587
  0
VERTEX
  8
PLAN_1
  6
CONTINUOUS
 10
1.756091
 20
-3.757634
  0
VERTEX
  8
PLAN_1
  6
CONTINUOUS
 10
1.760378
 20
-3.757157
  0
VERTEX
  8
PLAN_1
  6
CONTINUOUS
 10
1.764665
 20
-3.755728
  0
VERTEX
  8
PLAN_1
  6
CONTINUOUS
 10
1.768949
 20
-3.754776
  0
VERTEX
  8
PLAN_1
  6
CONTINUOUS
 10
1.773236
 20
-3.752874
  0
VERTEX
  8
PLAN_1
  6
CONTINUOUS
 10
1.777047
 20
-3.750969
  0
VERTEX
  8
PLAN_1
  6
CONTINUOUS
 10
1.780378
 20
-3.748587
  0
VERTEX
  8
PLAN_1
  6
CONTINUOUS
 10
1.783713
 20
-3.745728
  0
VERTEX
  8
PLAN_1
  6
CONTINUOUS
 10
1.786571
 20
-3.742870
  0
VERTEX
  8
PLAN_1
  6
CONTINUOUS
 10
1.788953
 20
-3.739063
  0
VERTEX
  8
PLAN_1
  6
CONTINUOUS
 10
1.790378
 20
-3.735252
  0
VERTEX
  8
PLAN_1
  6
CONTINUOUS
 10
1.791331
 20
-3.730492
  0
VERTEX
  8
PLAN_1
  6
CONTINUOUS
 10
1.791807
 20
-3.725252
  0
VERTEX
  8
PLAN_1
  6
CONTINUOUS
 10
1.791807
 20
-3.721441
  0
VERTEX
  8
PLAN_1
  6
CONTINUOUS
 10
1.791331
 20
-3.718110
  0
VERTEX
  8
PLAN_1
  6
CONTINUOUS
 10
1.790854
 20
-3.715252
  0
VERTEX
  8
PLAN_1
  6
CONTINUOUS
 10
1.789902
 20
-3.712394
  0
VERTEX
  8
PLAN_1
  6
CONTINUOUS
 10
1.788476
 20
-3.709535
  0
VERTEX
  8
PLAN_1
  6
CONTINUOUS
 10
1.787047
 20
-3.707157
  0
VERTEX
  8
PLAN_1
  6
CONTINUOUS
 10
1.785142
 20
-3.704776
  0
VERTEX
  8
PLAN_1
  6
CONTINUOUS
 10
1.782760
 20
-3.702870
  0
VERTEX
  8
PLAN_1
  6
CONTINUOUS
 10
1.780378
 20
-3.700965
  0
VERTEX
  8
PLAN_1
  6
CONTINUOUS
 10
1.777047
 20
-3.699059
  0
VERTEX
  8
PLAN_1
  6
CONTINUOUS
 10
1.773713
 20
-3.697630
  0
VERTEX
  8
PLAN_1
  6
CONTINUOUS
 10
1.769902
 20
-3.696205
  0
VERTEX
  8
PLAN_1
  6
CONTINUOUS
 10
1.760854
 20
-3.692870
  0
VERTEX
  8
PLAN_1
  6
CONTINUOUS
 10
1.749425
 20
-3.690012
  0
VERTEX
  8
PLAN_1
  6
CONTINUOUS
 10
1.708469
 20
-3.680488
  0
VERTEX
  8
PLAN_1
  6
CONTINUOUS
 10
1.703232
 20
-3.679059
  0
VERTEX
  8
PLAN_1
  6
CONTINUOUS
 10
1.696567
 20
-3.677154
  0
VERTEX
  8
PLAN_1
  6
CONTINUOUS
 10
1.693232
 20
-3.675248
  0
VERTEX
  8
PLAN_1
  6
CONTINUOUS
 10
1.689421
 20
-3.673819
  0
VERTEX
  8
PLAN_1
  6
CONTINUOUS
 10
1.686087
 20
-3.671441
  0
VERTEX
  8
PLAN_1
  6
CONTINUOUS
 10
1.682756
 20
-3.669059
  0
VERTEX
  8
PLAN_1
  6
CONTINUOUS
 10
1.679421
 20
-3.666201
  0
VERTEX
  8
PLAN_1
  6
CONTINUOUS
 10
1.676087
 20
-3.662866
  0
VERTEX
  8
PLAN_1
  6
CONTINUOUS
 10
1.673232
 20
-3.659535
  0
VERTEX
  8
PLAN_1
  6
CONTINUOUS
 10
1.670850
 20
-3.655248
  0
VERTEX
  8
PLAN_1
  6
CONTINUOUS
 10
1.668945
 20
-3.650961
  0
VERTEX
  8
PLAN_1
  6
CONTINUOUS
 10
1.667516
 20
-3.645724
  0
VERTEX
  8
PLAN_1
  6
CONTINUOUS
 10
1.666563
 20
-3.640008
  0
VERTEX
  8
PLAN_1
  6
CONTINUOUS
 10
1.666087
 20
-3.633819
  0
VERTEX
  8
PLAN_1
  6
CONTINUOUS
 10
1.666563
 20
-3.628102
  0
VERTEX
  8
PLAN_1
  6
CONTINUOUS
 10
1.667039
 20
-3.622390
  0
VERTEX
  8
PLAN_1
  6
CONTINUOUS
 10
1.668469
 20
-3.616673
  0
VERTEX
  8
PLAN_1
  6
CONTINUOUS
 10
1.669898
 20
-3.610961
  0
VERTEX
  8
PLAN_1
  6
CONTINUOUS
 10
1.672280
 20
-3.605720
  0
VERTEX
  8
PLAN_1
  6
CONTINUOUS
 10
1.675134
 20
-3.600484
  0
VERTEX
  8
PLAN_1
  6
CONTINUOUS
 10
1.678469
 20
-3.595720
  0
VERTEX
  8
PLAN_1
  6
CONTINUOUS
 10
1.682280
 20
-3.591437
  0
VERTEX
  8
PLAN_1
  6
CONTINUOUS
 10
1.686563
 20
-3.587150
  0
VERTEX
  8
PLAN_1
  6
CONTINUOUS
 10
1.691803
 20
-3.583339
  0
VERTEX
  8
PLAN_1
  6
CONTINUOUS
 10
1.697516
 20
-3.580008
  0
VERTEX
  8
PLAN_1
  6
CONTINUOUS
 10
1.703709
 20
-3.577626
  0
VERTEX
  8
PLAN_1
  6
CONTINUOUS
 10
1.710374
 20
-3.575244
  0
VERTEX
  8
PLAN_1
  6
CONTINUOUS
 10
1.717996
 20
-3.573339
  0
VERTEX
  8
PLAN_1
  6
CONTINUOUS
 10
1.726091
 20
-3.572386
  0
VERTEX
  8
PLAN_1
  6
CONTINUOUS
 10
1.734661
 20
-3.572386
  0
VERTEX
  8
PLAN_1
  6
CONTINUOUS
 10
1.740854
 20
-3.572386
  0
VERTEX
  8
PLAN_1
  6
CONTINUOUS
 10
1.747043
 20
-3.572862
  0
VERTEX
  8
PLAN_1
  6
CONTINUOUS
 10
1.752760
 20
-3.573339
  0
VERTEX
  8
PLAN_1
  6
CONTINUOUS
 10
1.757996
 20
-3.573815
  0
VERTEX
  8
PLAN_1
  6
CONTINUOUS
 10
1.763236
 20
-3.575244
  0
VERTEX
  8
PLAN_1
  6
CONTINUOUS
 10
1.767520
 20
-3.576197
  0
VERTEX
  8
PLAN_1
  6
CONTINUOUS
 10
1.771807
 20
-3.577626
  0
VERTEX
  8
PLAN_1
  6
CONTINUOUS
 10
1.776094
 20
-3.579055
  0
VERTEX
  8
PLAN_1
  6
CONTINUOUS
 10
1.779902
 20
-3.580484
  0
VERTEX
  8
PLAN_1
  6
CONTINUOUS
 10
1.783236
 20
-3.582386
  0
VERTEX
  8
PLAN_1
  6
CONTINUOUS
 10
1.786571
 20
-3.584291
  0
VERTEX
  8
PLAN_1
  6
CONTINUOUS
 10
1.789425
 20
-3.586673
  0
VERTEX
  8
PLAN_1
  6
CONTINUOUS
 10
1.795142
 20
-3.590961
  0
VERTEX
  8
PLAN_1
  6
CONTINUOUS
 10
1.799429
 20
-3.595720
  0
VERTEX
  8
PLAN_1
  6
CONTINUOUS
 10
1.802760
 20
-3.600961
  0
VERTEX
  8
PLAN_1
  6
CONTINUOUS
 10
1.805618
 20
-3.606197
  0
VERTEX
  8
PLAN_1
  6
CONTINUOUS
 10
1.808000
 20
-3.611437
  0
VERTEX
  8
PLAN_1
  6
CONTINUOUS
 10
1.809429
 20
-3.616673
  0
VERTEX
  8
PLAN_1
  6
CONTINUOUS
 10
1.810858
 20
-3.621913
  0
VERTEX
  8
PLAN_1
  6
CONTINUOUS
 10
1.811811
 20
-3.626677
  0
VERTEX
  8
PLAN_1
  6
CONTINUOUS
 10
1.812283
 20
-3.631437
  0
VERTEX
  8
PLAN_1
  6
CONTINUOUS
 10
1.812283
 20
-3.635724
  0
VERTEX
  8
PLAN_1
  6
CONTINUOUS
 10
1.787047
 20
-3.635724
  0
SEQEND
  8
0
  0
POLYLINE
  8
PLAN_1
  6
CONTINUOUS
 66
     1
 40
0.008094
 41
0.008094
  0
VERTEX
  8
PLAN_1
  6
CONTINUOUS
 10
-1.626465
 20
-0.010772
  0
VERTEX
  8
PLAN_1
  6
CONTINUOUS
 10
-1.583130
 20
-0.175067
  0
VERTEX
  8
PLAN_1
  6
CONTINUOUS
 10
-1.101677
 20
-0.175067
  0
VERTEX
  8
PLAN_1
  6
CONTINUOUS
 10
-1.047866
 20
-0.010772
  0
VERTEX
  8
PLAN_1
  6
CONTINUOUS
 10
-1.626465
 20
-0.010772
  0
SEQEND
  8
0
  0
POLYLINE
  8
PLAN_1
  6
CONTINUOUS
 66
     1
 40
0.007142
 41
0.007142
  0
VERTEX
  8
PLAN_1
  6
CONTINUOUS
 10
-1.587894
 20
-0.013154
  0
VERTEX
  8
PLAN_1
  6
CONTINUOUS
 10
-1.546461
 20
-0.175067
  0
SEQEND
  8
0
  0
POLYLINE
  8
PLAN_1
  6
CONTINUOUS
 66
     1
 40
0.007142
 41
0.007142
  0
VERTEX
  8
PLAN_1
  6
CONTINUOUS
 10
-1.560272
 20
-0.013154
  0
VERTEX
  8
PLAN_1
  6
CONTINUOUS
 10
-1.518366
 20
-0.175067
  0
SEQEND
  8
0
  0
POLYLINE
  8
PLAN_1
  6
CONTINUOUS
 66
     1
 40
0.007142
 41
0.007142
  0
VERTEX
  8
PLAN_1
  6
CONTINUOUS
 10
-1.101677
 20
-0.011724
  0
VERTEX
  8
PLAN_1
  6
CONTINUOUS
 10
-1.143583
 20
-0.173638
  0
SEQEND
  8
0
  0
POLYLINE
  8
PLAN_1
  6
CONTINUOUS
 66
     1
 40
0.007142
 41
0.007142
  0
VERTEX
  8
PLAN_1
  6
CONTINUOUS
 10
-1.129299
 20
-0.011724
  0
VERTEX
  8
PLAN_1
  6
CONTINUOUS
 10
-1.171205
 20
-0.173638
  0
SEQEND
  8
0
  0
POLYLINE
  8
PLAN_1
  6
CONTINUOUS
 66
     1
 40
0.008094
 41
0.008094
  0
VERTEX
  8
PLAN_1
  6
CONTINUOUS
 10
-0.970717
 20
0.659740
  0
VERTEX
  8
PLAN_1
  6
CONTINUOUS
 10
-0.970240
 20
0.662122
  0
VERTEX
  8
PLAN_1
  6
CONTINUOUS
 10
-0.970717
 20
0.668787
  0
VERTEX
  8
PLAN_1
  6
CONTINUOUS
 10
-0.971193
 20
0.673075
  0
VERTEX
  8
PLAN_1
  6
CONTINUOUS
 10
-0.971669
 20
0.677835
  0
VERTEX
  8
PLAN_1
  6
CONTINUOUS
 10
-0.972622
 20
0.683075
  0
VERTEX
  8
PLAN_1
  6
CONTINUOUS
 10
-0.973575
 20
0.688311
  0
VERTEX
  8
PLAN_1
  6
CONTINUOUS
 10
-0.975480
 20
0.693551
  0
VERTEX
  8
PLAN_1
  6
CONTINUOUS
 10
-0.977862
 20
0.698791
  0
VERTEX
  8
PLAN_1
  6
CONTINUOUS
 10
-0.980717
 20
0.703551
  0
VERTEX
  8
PLAN_1
  6
CONTINUOUS
 10
-0.984051
 20
0.708315
  0
VERTEX
  8
PLAN_1
  6
CONTINUOUS
 10
-0.986433
 20
0.710220
  0
VERTEX
  8
PLAN_1
  6
CONTINUOUS
 10
-0.988339
 20
0.711646
  0
VERTEX
  8
PLAN_1
  6
CONTINUOUS
 10
-0.990720
 20
0.713075
  0
VERTEX
  8
PLAN_1
  6
CONTINUOUS
 10
-0.993575
 20
0.714504
  0
VERTEX
  8
PLAN_1
  6
CONTINUOUS
 10
-0.996433
 20
0.715457
  0
VERTEX
  8
PLAN_1
  6
CONTINUOUS
 10
-0.999291
 20
0.716409
  0
VERTEX
  8
PLAN_1
  6
CONTINUOUS
 10
-1.002626
 20
0.716886
  0
VERTEX
  8
PLAN_1
  6
CONTINUOUS
 10
-1.005957
 20
0.716886
  0
VERTEX
  8
PLAN_1
  6
CONTINUOUS
 10
-1.022626
 20
0.716886
  0
VERTEX
  8
PLAN_1
  6
CONTINUOUS
 10
-1.043102
 20
0.716886
  0
VERTEX
  8
PLAN_1
  6
CONTINUOUS
 10
-1.065484
 20
0.716886
  0
VERTEX
  8
PLAN_1
  6
CONTINUOUS
 10
-1.087390
 20
0.716886
  0
VERTEX
  8
PLAN_1
  6
CONTINUOUS
 10
-1.107866
 20
0.716886
  0
VERTEX
  8
PLAN_1
  6
CONTINUOUS
 10
-1.124535
 20
0.716886
  0
VERTEX
  8
PLAN_1
  6
CONTINUOUS
 10
-1.135965
 20
0.716886
  0
VERTEX
  8
PLAN_1
  6
CONTINUOUS
 10
-1.140252
 20
0.716886
  0
SEQEND
  8
0
  0
POLYLINE
  8
PLAN_1
  6
CONTINUOUS
 66
     1
 40
0.008094
 41
0.008094
  0
VERTEX
  8
PLAN_1
  6
CONTINUOUS
 10
-1.140252
 20
0.716886
  0
VERTEX
  8
PLAN_1
  6
CONTINUOUS
 10
-1.140252
 20
1.027854
  0
SEQEND
  8
0
  0
POLYLINE
  8
PLAN_1
  6
CONTINUOUS
 66
     1
 40
0.008094
 41
0.008094
  0
VERTEX
  8
PLAN_1
  6
CONTINUOUS
 10
-1.140252
 20
1.027854
  0
VERTEX
  8
PLAN_1
  6
CONTINUOUS
 10
-1.140252
 20
1.028807
  0
VERTEX
  8
PLAN_1
  6
CONTINUOUS
 10
-1.140728
 20
1.031665
  0
VERTEX
  8
PLAN_1
  6
CONTINUOUS
 10
-1.141677
 20
1.034996
  0
VERTEX
  8
PLAN_1
  6
CONTINUOUS
 10
-1.143106
 20
1.038807
  0
VERTEX
  8
PLAN_1
  6
CONTINUOUS
 10
-1.144059
 20
1.040713
  0
VERTEX
  8
PLAN_1
  6
CONTINUOUS
 10
-1.145488
 20
1.042618
  0
VERTEX
  8
PLAN_1
  6
CONTINUOUS
 10
-1.146917
 20
1.044524
  0
VERTEX
  8
PLAN_1
  6
CONTINUOUS
 10
-1.148823
 20
1.046425
  0
VERTEX
  8
PLAN_1
  6
CONTINUOUS
 10
-1.150728
 20
1.047854
  0
VERTEX
  8
PLAN_1
  6
CONTINUOUS
 10
-1.153583
 20
1.048807
  0
VERTEX
  8
PLAN_1
  6
CONTINUOUS
 10
-1.156441
 20
1.049283
  0
VERTEX
  8
PLAN_1
  6
CONTINUOUS
 10
-1.159776
 20
1.049760
  0
VERTEX
  8
PLAN_1
  6
CONTINUOUS
 10
-1.166441
 20
1.049760
  0
VERTEX
  8
PLAN_1
  6
CONTINUOUS
 10
-1.173110
 20
1.049760
  0
VERTEX
  8
PLAN_1
  6
CONTINUOUS
 10
-1.179299
 20
1.049760
  0
VERTEX
  8
PLAN_1
  6
CONTINUOUS
 10
-1.185016
 20
1.049760
  0
VERTEX
  8
PLAN_1
  6
CONTINUOUS
 10
-1.189776
 20
1.049760
  0
VERTEX
  8
PLAN_1
  6
CONTINUOUS
 10
-1.193587
 20
1.049760
  0
VERTEX
  8
PLAN_1
  6
CONTINUOUS
 10
-1.195969
 20
1.049760
  0
VERTEX
  8
PLAN_1
  6
CONTINUOUS
 10
-1.196445
 20
1.049760
  0
VERTEX
  8
PLAN_1
  6
CONTINUOUS
 10
-1.202634
 20
1.049760
  0
VERTEX
  8
PLAN_1
  6
CONTINUOUS
 10
-1.207398
 20
1.050713
  0
VERTEX
  8
PLAN_1
  6
CONTINUOUS
 10
-1.211681
 20
1.051665
  0
VERTEX
  8
PLAN_1
  6
CONTINUOUS
 10
-1.215492
 20
1.053094
  0
VERTEX
  8
PLAN_1
  6
CONTINUOUS
 10
-1.218350
 20
1.055000
  0
VERTEX
  8
PLAN_1
  6
CONTINUOUS
 10
-1.220732
 20
1.056902
  0
VERTEX
  8
PLAN_1
  6
CONTINUOUS
 10
-1.222157
 20
1.058807
  0
VERTEX
  8
PLAN_1
  6
CONTINUOUS
 10
-1.223587
 20
1.060713
  0
VERTEX
  8
PLAN_1
  6
CONTINUOUS
 10
-1.225016
 20
1.065000
  0
VERTEX
  8
PLAN_1
  6
CONTINUOUS
 10
-1.225492
 20
1.068331
  0
VERTEX
  8
PLAN_1
  6
CONTINUOUS
 10
-1.225492
 20
1.071189
  0
VERTEX
  8
PLAN_1
  6
CONTINUOUS
 10
-1.225016
 20
1.072142
  0
SEQEND
  8
0
  0
POLYLINE
  8
PLAN_1
  6
CONTINUOUS
 66
     1
 40
0.008094
 41
0.008094
  0
VERTEX
  8
PLAN_1
  6
CONTINUOUS
 10
-1.225016
 20
1.072142
  0
VERTEX
  8
PLAN_1
  6
CONTINUOUS
 10
-1.255972
 20
1.072142
  0
VERTEX
  8
PLAN_1
  6
CONTINUOUS
 10
-1.295972
 20
1.072142
  0
VERTEX
  8
PLAN_1
  6
CONTINUOUS
 10
-1.450744
 20
1.072142
  0
SEQEND
  8
0
  0
POLYLINE
  8
PLAN_1
  6
CONTINUOUS
 66
     1
 40
0.008094
 41
0.008094
  0
VERTEX
  8
PLAN_1
  6
CONTINUOUS
 10
-1.450744
 20
1.072142
  0
VERTEX
  8
PLAN_1
  6
CONTINUOUS
 10
-1.450268
 20
1.071189
  0
VERTEX
  8
PLAN_1
  6
CONTINUOUS
 10
-1.450268
 20
1.068331
  0
VERTEX
  8
PLAN_1
  6
CONTINUOUS
 10
-1.450744
 20
1.065000
  0
VERTEX
  8
PLAN_1
  6
CONTINUOUS
 10
-1.452173
 20
1.060713
  0
VERTEX
  8
PLAN_1
  6
CONTINUOUS
 10
-1.453598
 20
1.058807
  0
VERTEX
  8
PLAN_1
  6
CONTINUOUS
 10
-1.455028
 20
1.056902
  0
VERTEX
  8
PLAN_1
  6
CONTINUOUS
 10
-1.457409
 20
1.055000
  0
VERTEX
  8
PLAN_1
  6
CONTINUOUS
 10
-1.460268
 20
1.053094
  0
VERTEX
  8
PLAN_1
  6
CONTINUOUS
 10
-1.464079
 20
1.051665
  0
VERTEX
  8
PLAN_1
  6
CONTINUOUS
 10
-1.468362
 20
1.050713
  0
VERTEX
  8
PLAN_1
  6
CONTINUOUS
 10
-1.473126
 20
1.049760
  0
VERTEX
  8
PLAN_1
  6
CONTINUOUS
 10
-1.479315
 20
1.049760
  0
VERTEX
  8
PLAN_1
  6
CONTINUOUS
 10
-1.479791
 20
1.049760
  0
VERTEX
  8
PLAN_1
  6
CONTINUOUS
 10
-1.482173
 20
1.049760
  0
VERTEX
  8
PLAN_1
  6
CONTINUOUS
 10
-1.485984
 20
1.049760
  0
VERTEX
  8
PLAN_1
  6
CONTINUOUS
 10
-1.490744
 20
1.049760
  0
VERTEX
  8
PLAN_1
  6
CONTINUOUS
 10
-1.496461
 20
1.049760
  0
VERTEX
  8
PLAN_1
  6
CONTINUOUS
 10
-1.502650
 20
1.049760
  0
VERTEX
  8
PLAN_1
  6
CONTINUOUS
 10
-1.509319
 20
1.049760
  0
VERTEX
  8
PLAN_1
  6
CONTINUOUS
 10
-1.515984
 20
1.049760
  0
VERTEX
  8
PLAN_1
  6
CONTINUOUS
 10
-1.519319
 20
1.049283
  0
VERTEX
  8
PLAN_1
  6
CONTINUOUS
 10
-1.522173
 20
1.048807
  0
VERTEX
  8
PLAN_1
  6
CONTINUOUS
 10
-1.525031
 20
1.047854
  0
VERTEX
  8
PLAN_1
  6
CONTINUOUS
 10
-1.526937
 20
1.046425
  0
VERTEX
  8
PLAN_1
  6
CONTINUOUS
 10
-1.528843
 20
1.044524
  0
VERTEX
  8
PLAN_1
  6
CONTINUOUS
 10
-1.530272
 20
1.042618
  0
VERTEX
  8
PLAN_1
  6
CONTINUOUS
 10
-1.531701
 20
1.040713
  0
VERTEX
  8
PLAN_1
  6
CONTINUOUS
 10
-1.532654
 20
1.038807
  0
VERTEX
  8
PLAN_1
  6
CONTINUOUS
 10
-1.534079
 20
1.034996
  0
VERTEX
  8
PLAN_1
  6
CONTINUOUS
 10
-1.535031
 20
1.031665
  0
VERTEX
  8
PLAN_1
  6
CONTINUOUS
 10
-1.535508
 20
1.028807
  0
VERTEX
  8
PLAN_1
  6
CONTINUOUS
 10
-1.535508
 20
1.027854
  0
SEQEND
  8
0
  0
POLYLINE
  8
PLAN_1
  6
CONTINUOUS
 66
     1
 40
0.008094
 41
0.008094
  0
VERTEX
  8
PLAN_1
  6
CONTINUOUS
 10
-1.535508
 20
1.027854
  0
VERTEX
  8
PLAN_1
  6
CONTINUOUS
 10
-1.535508
 20
0.716886
  0
SEQEND
  8
0
  0
POLYLINE
  8
PLAN_1
  6
CONTINUOUS
 66
     1
 40
0.008094
 41
0.008094
  0
VERTEX
  8
PLAN_1
  6
CONTINUOUS
 10
-1.535508
 20
0.716886
  0
VERTEX
  8
PLAN_1
  6
CONTINUOUS
 10
-1.539795
 20
0.716886
  0
VERTEX
  8
PLAN_1
  6
CONTINUOUS
 10
-1.551224
 20
0.716886
  0
VERTEX
  8
PLAN_1
  6
CONTINUOUS
 10
-1.567894
 20
0.716886
  0
VERTEX
  8
PLAN_1
  6
CONTINUOUS
 10
-1.587894
 20
0.716886
  0
VERTEX
  8
PLAN_1
  6
CONTINUOUS
 10
-1.610276
 20
0.716886
  0
VERTEX
  8
PLAN_1
  6
CONTINUOUS
 10
-1.632657
 20
0.716886
  0
VERTEX
  8
PLAN_1
  6
CONTINUOUS
 10
-1.652657
 20
0.716886
  0
VERTEX
  8
PLAN_1
  6
CONTINUOUS
 10
-1.669803
 20
0.716886
  0
VERTEX
  8
PLAN_1
  6
CONTINUOUS
 10
-1.673134
 20
0.716886
  0
VERTEX
  8
PLAN_1
  6
CONTINUOUS
 10
-1.676469
 20
0.716409
  0
VERTEX
  8
PLAN_1
  6
CONTINUOUS
 10
-1.679327
 20
0.715457
  0
VERTEX
  8
PLAN_1
  6
CONTINUOUS
 10
-1.682185
 20
0.714504
  0
VERTEX
  8
PLAN_1
  6
CONTINUOUS
 10
-1.685039
 20
0.713075
  0
VERTEX
  8
PLAN_1
  6
CONTINUOUS
 10
-1.687421
 20
0.711646
  0
VERTEX
  8
PLAN_1
  6
CONTINUOUS
 10
-1.689327
 20
0.710220
  0
VERTEX
  8
PLAN_1
  6
CONTINUOUS
 10
-1.691709
 20
0.708315
  0
VERTEX
  8
PLAN_1
  6
CONTINUOUS
 10
-1.695039
 20
0.703551
  0
VERTEX
  8
PLAN_1
  6
CONTINUOUS
 10
-1.697898
 20
0.698791
  0
VERTEX
  8
PLAN_1
  6
CONTINUOUS
 10
-1.700280
 20
0.693551
  0
VERTEX
  8
PLAN_1
  6
CONTINUOUS
 10
-1.702185
 20
0.688311
  0
VERTEX
  8
PLAN_1
  6
CONTINUOUS
 10
-1.703138
 20
0.683075
  0
VERTEX
  8
PLAN_1
  6
CONTINUOUS
 10
-1.704091
 20
0.677835
  0
VERTEX
  8
PLAN_1
  6
CONTINUOUS
 10
-1.704567
 20
0.673075
  0
VERTEX
  8
PLAN_1
  6
CONTINUOUS
 10
-1.705043
 20
0.668787
  0
VERTEX
  8
PLAN_1
  6
CONTINUOUS
 10
-1.705520
 20
0.662122
  0
VERTEX
  8
PLAN_1
  6
CONTINUOUS
 10
-1.705043
 20
0.659740
  0
SEQEND
  8
0
  0
POLYLINE
  8
PLAN_1
  6
CONTINUOUS
 66
     1
 40
0.008094
 41
0.008094
  0
VERTEX
  8
PLAN_1
  6
CONTINUOUS
 10
-1.705043
 20
0.606878
  0
VERTEX
  8
PLAN_1
  6
CONTINUOUS
 10
-0.971193
 20
0.606878
  0
SEQEND
  8
0
  0
POLYLINE
  8
PLAN_1
  6
CONTINUOUS
 66
     1
 40
0.005713
 41
0.005713
  0
VERTEX
  8
PLAN_1
  6
CONTINUOUS
 10
-1.430264
 20
2.811756
  0
VERTEX
  8
PLAN_1
  6
CONTINUOUS
 10
-1.430264
 20
2.046480
  0
SEQEND
  8
0
  0
POLYLINE
  8
PLAN_1
  6
CONTINUOUS
 66
     1
 40
0.005713
 41
0.005713
  0
VERTEX
  8
PLAN_1
  6
CONTINUOUS
 10
-1.430264
 20
2.046480
  0
VERTEX
  8
PLAN_1
  6
CONTINUOUS
 10
-1.429787
 20
2.044575
  0
VERTEX
  8
PLAN_1
  6
CONTINUOUS
 10
-1.428362
 20
2.040764
  0
VERTEX
  8
PLAN_1
  6
CONTINUOUS
 10
-1.427409
 20
2.037906
  0
VERTEX
  8
PLAN_1
  6
CONTINUOUS
 10
-1.425504
 20
2.034575
  0
VERTEX
  8
PLAN_1
  6
CONTINUOUS
 10
-1.423598
 20
2.031240
  0
VERTEX
  8
PLAN_1
  6
CONTINUOUS
 10
-1.420740
 20
2.027906
  0
VERTEX
  8
PLAN_1
  6
CONTINUOUS
 10
-1.416933
 20
2.024575
  0
VERTEX
  8
PLAN_1
  6
CONTINUOUS
 10
-1.413122
 20
2.021240
  0
VERTEX
  8
PLAN_1
  6
CONTINUOUS
 10
-1.407882
 20
2.018382
  0
VERTEX
  8
PLAN_1
  6
CONTINUOUS
 10
-1.402169
 20
2.015524
  0
VERTEX
  8
PLAN_1
  6
CONTINUOUS
 10
-1.395500
 20
2.013146
  0
VERTEX
  8
PLAN_1
  6
CONTINUOUS
 10
-1.387882
 20
2.011240
  0
VERTEX
  8
PLAN_1
  6
CONTINUOUS
 10
-1.378835
 20
2.010287
  0
VERTEX
  8
PLAN_1
  6
CONTINUOUS
 10
-1.369311
 20
2.009811
  0
SEQEND
  8
0
  0
POLYLINE
  8
PLAN_1
  6
CONTINUOUS
 66
     1
 40
0.005713
 41
0.005713
  0
VERTEX
  8
PLAN_1
  6
CONTINUOUS
 10
-1.369311
 20
2.009811
  0
VERTEX
  8
PLAN_1
  6
CONTINUOUS
 10
-1.320736
 20
2.009811
  0
SEQEND
  8
0
  0
POLYLINE
  8
PLAN_1
  6
CONTINUOUS
 66
     1
 40
0.005713
 41
0.005713
  0
VERTEX
  8
PLAN_1
  6
CONTINUOUS
 10
-1.320736
 20
2.009811
  0
VERTEX
  8
PLAN_1
  6
CONTINUOUS
 10
-1.326449
 20
2.013146
  0
VERTEX
  8
PLAN_1
  6
CONTINUOUS
 10
-1.334071
 20
2.016953
  0
VERTEX
  8
PLAN_1
  6
CONTINUOUS
 10
-1.342165
 20
2.021240
  0
VERTEX
  8
PLAN_1
  6
CONTINUOUS
 10
-1.350736
 20
2.025528
  0
VERTEX
  8
PLAN_1
  6
CONTINUOUS
 10
-1.359311
 20
2.029811
  0
VERTEX
  8
PLAN_1
  6
CONTINUOUS
 10
-1.367406
 20
2.034575
  0
VERTEX
  8
PLAN_1
  6
CONTINUOUS
 10
-1.374547
 20
2.038858
  0
VERTEX
  8
PLAN_1
  6
CONTINUOUS
 10
-1.380264
 20
2.043622
  0
VERTEX
  8
PLAN_1
  6
CONTINUOUS
 10
-1.384071
 20
2.049811
  0
VERTEX
  8
PLAN_1
  6
CONTINUOUS
 10
-1.387406
 20
2.056004
  0
VERTEX
  8
PLAN_1
  6
CONTINUOUS
 10
-1.389787
 20
2.061717
  0
VERTEX
  8
PLAN_1
  6
CONTINUOUS
 10
-1.392169
 20
2.066957
  0
VERTEX
  8
PLAN_1
  6
CONTINUOUS
 10
-1.393122
 20
2.071244
  0
VERTEX
  8
PLAN_1
  6
CONTINUOUS
 10
-1.394075
 20
2.074575
  0
VERTEX
  8
PLAN_1
  6
CONTINUOUS
 10
-1.394075
 20
2.076480
  0
VERTEX
  8
PLAN_1
  6
CONTINUOUS
 10
-1.393598
 20
2.077433
  0
SEQEND
  8
0
  0
POLYLINE
  8
PLAN_1
  6
CONTINUOUS
 66
     1
 40
0.005713
 41
0.005713
  0
VERTEX
  8
PLAN_1
  6
CONTINUOUS
 10
-1.393598
 20
2.077433
  0
VERTEX
  8
PLAN_1
  6
CONTINUOUS
 10
-1.393122
 20
2.836996
  0
SEQEND
  8
0
  0
POLYLINE
  8
PLAN_1
  6
CONTINUOUS
 66
     1
 40
0.005713
 41
0.005713
  0
VERTEX
  8
PLAN_1
  6
CONTINUOUS
 10
-1.393122
 20
2.945575
  0
VERTEX
  8
PLAN_1
  6
CONTINUOUS
 10
-1.392646
 20
3.553701
  0
VERTEX
  8
PLAN_1
  6
CONTINUOUS
 10
-1.430264
 20
3.553701
  0
VERTEX
  8
PLAN_1
  6
CONTINUOUS
 10
-1.430264
 20
2.922717
  0
SEQEND
  8
0
  0
POLYLINE
  8
PLAN_1
  6
CONTINUOUS
 66
     1
 40
0.008094
 41
0.008094
  0
VERTEX
  8
PLAN_1
  6
CONTINUOUS
 10
-0.863571
 20
0.290673
  0
VERTEX
  8
PLAN_1
  6
CONTINUOUS
 10
-0.863571
 20
0.536402
  0
VERTEX
  8
PLAN_1
  6
CONTINUOUS
 10
-1.808858
 20
0.536402
  0
VERTEX
  8
PLAN_1
  6
CONTINUOUS
 10
-1.808858
 20
0.290673
  0
VERTEX
  8
PLAN_1
  6
CONTINUOUS
 10
-0.863571
 20
0.290673
  0
SEQEND
  8
0
  0
POLYLINE
  8
PLAN_1
  6
CONTINUOUS
 66
     1
 40
0.007142
 41
0.007142
  0
VERTEX
  8
PLAN_1
  6
CONTINUOUS
 10
-1.570748
 20
0.659264
  0
VERTEX
  8
PLAN_1
  6
CONTINUOUS
 10
-1.570748
 20
0.606878
  0
VERTEX
  8
PLAN_1
  6
CONTINUOUS
 10
-1.808858
 20
0.606878
  0
VERTEX
  8
PLAN_1
  6
CONTINUOUS
 10
-1.808858
 20
0.659264
  0
VERTEX
  8
PLAN_1
  6
CONTINUOUS
 10
-1.570748
 20
0.659264
  0
SEQEND
  8
0
  0
POLYLINE
  8
PLAN_1
  6
CONTINUOUS
 66
     1
 40
0.007142
 41
0.007142
  0
VERTEX
  8
PLAN_1
  6
CONTINUOUS
 10
-1.669803
 20
0.639264
  0
VERTEX
  8
PLAN_1
  6
CONTINUOUS
 10
-1.669803
 20
0.659264
  0
VERTEX
  8
PLAN_1
  6
CONTINUOUS
 10
-1.711232
 20
0.659264
  0
VERTEX
  8
PLAN_1
  6
CONTINUOUS
 10
-1.711232
 20
0.639264
  0
VERTEX
  8
PLAN_1
  6
CONTINUOUS
 10
-1.669803
 20
0.639264
  0
SEQEND
  8
0
  0
POLYLINE
  8
PLAN_1
  6
CONTINUOUS
 66
     1
 40
0.007142
 41
0.007142
  0
VERTEX
  8
PLAN_1
  6
CONTINUOUS
 10
-0.864996
 20
0.659264
  0
VERTEX
  8
PLAN_1
  6
CONTINUOUS
 10
-0.864996
 20
0.606878
  0
VERTEX
  8
PLAN_1
  6
CONTINUOUS
 10
-1.102630
 20
0.606878
  0
VERTEX
  8
PLAN_1
  6
CONTINUOUS
 10
-1.102630
 20
0.659264
  0
VERTEX
  8
PLAN_1
  6
CONTINUOUS
 10
-0.864996
 20
0.659264
  0
SEQEND
  8
0
  0
POLYLINE
  8
PLAN_1
  6
CONTINUOUS
 66
     1
 40
0.007142
 41
0.007142
  0
VERTEX
  8
PLAN_1
  6
CONTINUOUS
 10
-0.963575
 20
0.639264
  0
VERTEX
  8
PLAN_1
  6
CONTINUOUS
 10
-0.963575
 20
0.659264
  0
VERTEX
  8
PLAN_1
  6
CONTINUOUS
 10
-1.005480
 20
0.659264
  0
VERTEX
  8
PLAN_1
  6
CONTINUOUS
 10
-1.005480
 20
0.639264
  0
VERTEX
  8
PLAN_1
  6
CONTINUOUS
 10
-0.963575
 20
0.639264
  0
SEQEND
  8
0
  0
POLYLINE
  8
PLAN_1
  6
CONTINUOUS
 66
     1
 40
0.008094
 41
0.008094
  0
VERTEX
  8
PLAN_1
  6
CONTINUOUS
 10
-1.544559
 20
0.606878
  0
VERTEX
  8
PLAN_1
  6
CONTINUOUS
 10
-1.808858
 20
0.606878
  0
VERTEX
  8
PLAN_1
  6
CONTINUOUS
 10
-1.808858
 20
0.536402
  0
VERTEX
  8
PLAN_1
  6
CONTINUOUS
 10
-0.863571
 20
0.536402
  0
VERTEX
  8
PLAN_1
  6
CONTINUOUS
 10
-0.863571
 20
0.606878
  0
VERTEX
  8
PLAN_1
  6
CONTINUOUS
 10
-1.125012
 20
0.606878
  0
VERTEX
  8
PLAN_1
  6
CONTINUOUS
 10
-1.544559
 20
0.606878
  0
SEQEND
  8
0
  0
POLYLINE
  8
PLAN_1
  6
CONTINUOUS
 66
     1
 40
0.004283
 41
0.004283
  0
VERTEX
  8
PLAN_1
  6
CONTINUOUS
 10
-1.813618
 20
-0.292693
  0
VERTEX
  8
PLAN_1
  6
CONTINUOUS
 10
-1.814094
 20
0.290673
  0
VERTEX
  8
PLAN_1
  6
CONTINUOUS
 10
-0.857378
 20
0.291150
  0
VERTEX
  8
PLAN_1
  6
CONTINUOUS
 10
-0.857378
 20
-0.290787
  0
SEQEND
  8
0
  0
POLYLINE
  8
PLAN_1
  6
CONTINUOUS
 66
     1
 40
0.008094
 41
0.008094
  0
VERTEX
  8
PLAN_1
  6
CONTINUOUS
 10
-0.928811
 20
0.250669
  0
VERTEX
  8
PLAN_1
  6
CONTINUOUS
 10
-0.928811
 20
0.291150
  0
VERTEX
  8
PLAN_1
  6
CONTINUOUS
 10
-1.753138
 20
0.291150
  0
VERTEX
  8
PLAN_1
  6
CONTINUOUS
 10
-1.753138
 20
0.250669
  0
VERTEX
  8
PLAN_1
  6
CONTINUOUS
 10
-0.928811
 20
0.250669
  0
SEQEND
  8
0
  0
POLYLINE
  8
PLAN_1
  6
CONTINUOUS
 66
     1
 40
0.008094
 41
0.008094
  0
VERTEX
  8
PLAN_1
  6
CONTINUOUS
 10
-0.975004
 20
0.022563
  0
VERTEX
  8
PLAN_1
  6
CONTINUOUS
 10
-1.008339
 20
-0.010772
  0
VERTEX
  8
PLAN_1
  6
CONTINUOUS
 10
-1.670280
 20
-0.010772
  0
VERTEX
  8
PLAN_1
  6
CONTINUOUS
 10
-1.703614
 20
0.022563
  0
VERTEX
  8
PLAN_1
  6
CONTINUOUS
 10
-1.703614
 20
0.250669
  0
VERTEX
  8
PLAN_1
  6
CONTINUOUS
 10
-0.975004
 20
0.250669
  0
VERTEX
  8
PLAN_1
  6
CONTINUOUS
 10
-0.975004
 20
0.022563
  0
SEQEND
  8
0
  0
POLYLINE
  8
PLAN_1
  6
CONTINUOUS
 66
     1
 40
0.007142
 41
0.007142
  0
VERTEX
  8
PLAN_1
  6
CONTINUOUS
 10
-1.503126
 20
0.716886
  0
VERTEX
  8
PLAN_1
  6
CONTINUOUS
 10
-1.169776
 20
0.716886
  0
SEQEND
  8
0
  0
POLYLINE
  8
PLAN_1
  6
CONTINUOUS
 66
     1
 40
0.005713
 41
0.005713
  0
VERTEX
  8
PLAN_1
  6
CONTINUOUS
 10
-1.445028
 20
1.046425
  0
VERTEX
  8
PLAN_1
  6
CONTINUOUS
 10
-1.225969
 20
1.046425
  0
SEQEND
  8
0
  0
POLYLINE
  8
PLAN_1
  6
CONTINUOUS
 66
     1
 40
0.005713
 41
0.005713
  0
VERTEX
  8
PLAN_1
  6
CONTINUOUS
 10
-1.237874
 20
1.506925
  0
VERTEX
  8
PLAN_1
  6
CONTINUOUS
 10
-1.234539
 20
1.510260
  0
VERTEX
  8
PLAN_1
  6
CONTINUOUS
 10
-1.231685
 20
1.513594
  0
VERTEX
  8
PLAN_1
  6
CONTINUOUS
 10
-1.230256
 20
1.516929
  0
VERTEX
  8
PLAN_1
  6
CONTINUOUS
 10
-1.228827
 20
1.519783
  0
VERTEX
  8
PLAN_1
  6
CONTINUOUS
 10
-1.228350
 20
1.522642
  0
VERTEX
  8
PLAN_1
  6
CONTINUOUS
 10
-1.228827
 20
1.525500
  0
VERTEX
  8
PLAN_1
  6
CONTINUOUS
 10
-1.229303
 20
1.528358
  0
VERTEX
  8
PLAN_1
  6
CONTINUOUS
 10
-1.229780
 20
1.530736
  0
VERTEX
  8
PLAN_1
  6
CONTINUOUS
 10
-1.232161
 20
1.535024
  0
VERTEX
  8
PLAN_1
  6
CONTINUOUS
 10
-1.235016
 20
1.537882
  0
VERTEX
  8
PLAN_1
  6
CONTINUOUS
 10
-1.236921
 20
1.540264
  0
VERTEX
  8
PLAN_1
  6
CONTINUOUS
 10
-1.237874
 20
1.540740
  0
SEQEND
  8
0
  0
POLYLINE
  8
PLAN_1
  6
CONTINUOUS
 66
     1
 40
0.005713
 41
0.005713
  0
VERTEX
  8
PLAN_1
  6
CONTINUOUS
 10
-1.237874
 20
1.540740
  0
VERTEX
  8
PLAN_1
  6
CONTINUOUS
 10
-1.445504
 20
1.540740
  0
SEQEND
  8
0
  0
POLYLINE
  8
PLAN_1
  6
CONTINUOUS
 66
     1
 40
0.005713
 41
0.005713
  0
VERTEX
  8
PLAN_1
  6
CONTINUOUS
 10
-1.445504
 20
1.540740
  0
VERTEX
  8
PLAN_1
  6
CONTINUOUS
 10
-1.446457
 20
1.540264
  0
VERTEX
  8
PLAN_1
  6
CONTINUOUS
 10
-1.447886
 20
1.538358
  0
VERTEX
  8
PLAN_1
  6
CONTINUOUS
 10
-1.450268
 20
1.535024
  0
VERTEX
  8
PLAN_1
  6
CONTINUOUS
 10
-1.452646
 20
1.531213
  0
VERTEX
  8
PLAN_1
  6
CONTINUOUS
 10
-1.453122
 20
1.528835
  0
VERTEX
  8
PLAN_1
  6
CONTINUOUS
 10
-1.453598
 20
1.525976
  0
VERTEX
  8
PLAN_1
  6
CONTINUOUS
 10
-1.453598
 20
1.523118
  0
VERTEX
  8
PLAN_1
  6
CONTINUOUS
 10
-1.453598
 20
1.520260
  0
VERTEX
  8
PLAN_1
  6
CONTINUOUS
 10
-1.452646
 20
1.517406
  0
VERTEX
  8
PLAN_1
  6
CONTINUOUS
 10
-1.450744
 20
1.514071
  0
VERTEX
  8
PLAN_1
  6
CONTINUOUS
 10
-1.448362
 20
1.510736
  0
VERTEX
  8
PLAN_1
  6
CONTINUOUS
 10
-1.445504
 20
1.506925
  0
SEQEND
  8
0
  0
POLYLINE
  8
PLAN_1
  6
CONTINUOUS
 66
     1
 40
0.005713
 41
0.005713
  0
VERTEX
  8
PLAN_1
  6
CONTINUOUS
 10
-1.445504
 20
1.506925
  0
VERTEX
  8
PLAN_1
  6
CONTINUOUS
 10
-1.237874
 20
1.506925
  0
SEQEND
  8
0
  0
POLYLINE
  8
PLAN_1
  6
CONTINUOUS
 66
     1
 40
0.005713
 41
0.005713
  0
VERTEX
  8
PLAN_1
  6
CONTINUOUS
 10
-1.237398
 20
1.473591
  0
VERTEX
  8
PLAN_1
  6
CONTINUOUS
 10
-1.234063
 20
1.476925
  0
VERTEX
  8
PLAN_1
  6
CONTINUOUS
 10
-1.231685
 20
1.480260
  0
VERTEX
  8
PLAN_1
  6
CONTINUOUS
 10
-1.229780
 20
1.483118
  0
VERTEX
  8
PLAN_1
  6
CONTINUOUS
 10
-1.228827
 20
1.486449
  0
VERTEX
  8
PLAN_1
  6
CONTINUOUS
 10
-1.228350
 20
1.489307
  0
VERTEX
  8
PLAN_1
  6
CONTINUOUS
 10
-1.228350
 20
1.492165
  0
VERTEX
  8
PLAN_1
  6
CONTINUOUS
 10
-1.228827
 20
1.494547
  0
VERTEX
  8
PLAN_1
  6
CONTINUOUS
 10
-1.229780
 20
1.496925
  0
VERTEX
  8
PLAN_1
  6
CONTINUOUS
 10
-1.232161
 20
1.501213
  0
VERTEX
  8
PLAN_1
  6
CONTINUOUS
 10
-1.234539
 20
1.504547
  0
VERTEX
  8
PLAN_1
  6
CONTINUOUS
 10
-1.236921
 20
1.506925
  0
VERTEX
  8
PLAN_1
  6
CONTINUOUS
 10
-1.237398
 20
1.507402
  0
SEQEND
  8
0
  0
POLYLINE
  8
PLAN_1
  6
CONTINUOUS
 66
     1
 40
0.005713
 41
0.005713
  0
VERTEX
  8
PLAN_1
  6
CONTINUOUS
 10
-1.237398
 20
1.507402
  0
VERTEX
  8
PLAN_1
  6
CONTINUOUS
 10
-1.445028
 20
1.507402
  0
SEQEND
  8
0
  0
POLYLINE
  8
PLAN_1
  6
CONTINUOUS
 66
     1
 40
0.005713
 41
0.005713
  0
VERTEX
  8
PLAN_1
  6
CONTINUOUS
 10
-1.445028
 20
1.507402
  0
VERTEX
  8
PLAN_1
  6
CONTINUOUS
 10
-1.445980
 20
1.506925
  0
VERTEX
  8
PLAN_1
  6
CONTINUOUS
 10
-1.447886
 20
1.505024
  0
VERTEX
  8
PLAN_1
  6
CONTINUOUS
 10
-1.450268
 20
1.501689
  0
VERTEX
  8
PLAN_1
  6
CONTINUOUS
 10
-1.452173
 20
1.497402
  0
VERTEX
  8
PLAN_1
  6
CONTINUOUS
 10
-1.453122
 20
1.495020
  0
VERTEX
  8
PLAN_1
  6
CONTINUOUS
 10
-1.453598
 20
1.492642
  0
VERTEX
  8
PLAN_1
  6
CONTINUOUS
 10
-1.453598
 20
1.489783
  0
VERTEX
  8
PLAN_1
  6
CONTINUOUS
 10
-1.453122
 20
1.486925
  0
VERTEX
  8
PLAN_1
  6
CONTINUOUS
 10
-1.452173
 20
1.483591
  0
VERTEX
  8
PLAN_1
  6
CONTINUOUS
 10
-1.450744
 20
1.480736
  0
VERTEX
  8
PLAN_1
  6
CONTINUOUS
 10
-1.448362
 20
1.477402
  0
VERTEX
  8
PLAN_1
  6
CONTINUOUS
 10
-1.445028
 20
1.473591
  0
SEQEND
  8
0
  0
POLYLINE
  8
PLAN_1
  6
CONTINUOUS
 66
     1
 40
0.005713
 41
0.005713
  0
VERTEX
  8
PLAN_1
  6
CONTINUOUS
 10
-1.445028
 20
1.473591
  0
VERTEX
  8
PLAN_1
  6
CONTINUOUS
 10
-1.237398
 20
1.473591
  0
SEQEND
  8
0
  0
POLYLINE
  8
PLAN_1
  6
CONTINUOUS
 66
     1
 40
0.005713
 41
0.005713
  0
VERTEX
  8
PLAN_1
  6
CONTINUOUS
 10
-1.237874
 20
1.439780
  0
VERTEX
  8
PLAN_1
  6
CONTINUOUS
 10
-1.234063
 20
1.443114
  0
VERTEX
  8
PLAN_1
  6
CONTINUOUS
 10
-1.231685
 20
1.446449
  0
VERTEX
  8
PLAN_1
  6
CONTINUOUS
 10
-1.229780
 20
1.449303
  0
VERTEX
  8
PLAN_1
  6
CONTINUOUS
 10
-1.228827
 20
1.452638
  0
VERTEX
  8
PLAN_1
  6
CONTINUOUS
 10
-1.228350
 20
1.455496
  0
VERTEX
  8
PLAN_1
  6
CONTINUOUS
 10
-1.228350
 20
1.458354
  0
VERTEX
  8
PLAN_1
  6
CONTINUOUS
 10
-1.228827
 20
1.460732
  0
VERTEX
  8
PLAN_1
  6
CONTINUOUS
 10
-1.229780
 20
1.463114
  0
VERTEX
  8
PLAN_1
  6
CONTINUOUS
 10
-1.232161
 20
1.467402
  0
VERTEX
  8
PLAN_1
  6
CONTINUOUS
 10
-1.235016
 20
1.470736
  0
VERTEX
  8
PLAN_1
  6
CONTINUOUS
 10
-1.236921
 20
1.472638
  0
VERTEX
  8
PLAN_1
  6
CONTINUOUS
 10
-1.237874
 20
1.473591
  0
SEQEND
  8
0
  0
POLYLINE
  8
PLAN_1
  6
CONTINUOUS
 66
     1
 40
0.005713
 41
0.005713
  0
VERTEX
  8
PLAN_1
  6
CONTINUOUS
 10
-1.237874
 20
1.473591
  0
VERTEX
  8
PLAN_1
  6
CONTINUOUS
 10
-1.445504
 20
1.473591
  0
SEQEND
  8
0
  0
POLYLINE
  8
PLAN_1
  6
CONTINUOUS
 66
     1
 40
0.005713
 41
0.005713
  0
VERTEX
  8
PLAN_1
  6
CONTINUOUS
 10
-1.445504
 20
1.473591
  0
VERTEX
  8
PLAN_1
  6
CONTINUOUS
 10
-1.445980
 20
1.473114
  0
VERTEX
  8
PLAN_1
  6
CONTINUOUS
 10
-1.447886
 20
1.470736
  0
VERTEX
  8
PLAN_1
  6
CONTINUOUS
 10
-1.450268
 20
1.467878
  0
VERTEX
  8
PLAN_1
  6
CONTINUOUS
 10
-1.452173
 20
1.463591
  0
VERTEX
  8
PLAN_1
  6
CONTINUOUS
 10
-1.453122
 20
1.461209
  0
VERTEX
  8
PLAN_1
  6
CONTINUOUS
 10
-1.453598
 20
1.458831
  0
VERTEX
  8
PLAN_1
  6
CONTINUOUS
 10
-1.453598
 20
1.455972
  0
VERTEX
  8
PLAN_1
  6
CONTINUOUS
 10
-1.453122
 20
1.453114
  0
VERTEX
  8
PLAN_1
  6
CONTINUOUS
 10
-1.452173
 20
1.449780
  0
VERTEX
  8
PLAN_1
  6
CONTINUOUS
 10
-1.450744
 20
1.446449
  0
VERTEX
  8
PLAN_1
  6
CONTINUOUS
 10
-1.448362
 20
1.443114
  0
VERTEX
  8
PLAN_1
  6
CONTINUOUS
 10
-1.445504
 20
1.439780
  0
SEQEND
  8
0
  0
POLYLINE
  8
PLAN_1
  6
CONTINUOUS
 66
     1
 40
0.005713
 41
0.005713
  0
VERTEX
  8
PLAN_1
  6
CONTINUOUS
 10
-1.445504
 20
1.439780
  0
VERTEX
  8
PLAN_1
  6
CONTINUOUS
 10
-1.237874
 20
1.439780
  0
SEQEND
  8
0
  0
POLYLINE
  8
PLAN_1
  6
CONTINUOUS
 66
     1
 40
0.005713
 41
0.005713
  0
VERTEX
  8
PLAN_1
  6
CONTINUOUS
 10
-1.237398
 20
1.406445
  0
VERTEX
  8
PLAN_1
  6
CONTINUOUS
 10
-1.234063
 20
1.409780
  0
VERTEX
  8
PLAN_1
  6
CONTINUOUS
 10
-1.231209
 20
1.412638
  0
VERTEX
  8
PLAN_1
  6
CONTINUOUS
 10
-1.229780
 20
1.415969
  0
VERTEX
  8
PLAN_1
  6
CONTINUOUS
 10
-1.228350
 20
1.418827
  0
VERTEX
  8
PLAN_1
  6
CONTINUOUS
 10
-1.227874
 20
1.422161
  0
VERTEX
  8
PLAN_1
  6
CONTINUOUS
 10
-1.228350
 20
1.424543
  0
VERTEX
  8
PLAN_1
  6
CONTINUOUS
 10
-1.228827
 20
1.427398
  0
VERTEX
  8
PLAN_1
  6
CONTINUOUS
 10
-1.229303
 20
1.429780
  0
VERTEX
  8
PLAN_1
  6
CONTINUOUS
 10
-1.231685
 20
1.434067
  0
VERTEX
  8
PLAN_1
  6
CONTINUOUS
 10
-1.234539
 20
1.437398
  0
VERTEX
  8
PLAN_1
  6
CONTINUOUS
 10
-1.236445
 20
1.439303
  0
VERTEX
  8
PLAN_1
  6
CONTINUOUS
 10
-1.237398
 20
1.440256
  0
SEQEND
  8
0
  0
POLYLINE
  8
PLAN_1
  6
CONTINUOUS
 66
     1
 40
0.005713
 41
0.005713
  0
VERTEX
  8
PLAN_1
  6
CONTINUOUS
 10
-1.237398
 20
1.440256
  0
VERTEX
  8
PLAN_1
  6
CONTINUOUS
 10
-1.445028
 20
1.440256
  0
SEQEND
  8
0
  0
POLYLINE
  8
PLAN_1
  6
CONTINUOUS
 66
     1
 40
0.005713
 41
0.005713
  0
VERTEX
  8
PLAN_1
  6
CONTINUOUS
 10
-1.445028
 20
1.440256
  0
VERTEX
  8
PLAN_1
  6
CONTINUOUS
 10
-1.445980
 20
1.439303
  0
VERTEX
  8
PLAN_1
  6
CONTINUOUS
 10
-1.447886
 20
1.437398
  0
VERTEX
  8
PLAN_1
  6
CONTINUOUS
 10
-1.449791
 20
1.434543
  0
VERTEX
  8
PLAN_1
  6
CONTINUOUS
 10
-1.452173
 20
1.430256
  0
VERTEX
  8
PLAN_1
  6
CONTINUOUS
 10
-1.452646
 20
1.427874
  0
VERTEX
  8
PLAN_1
  6
CONTINUOUS
 10
-1.453122
 20
1.425496
  0
VERTEX
  8
PLAN_1
  6
CONTINUOUS
 10
-1.453122
 20
1.422638
  0
VERTEX
  8
PLAN_1
  6
CONTINUOUS
 10
-1.453122
 20
1.419780
  0
VERTEX
  8
PLAN_1
  6
CONTINUOUS
 10
-1.452173
 20
1.416445
  0
VERTEX
  8
PLAN_1
  6
CONTINUOUS
 10
-1.450268
 20
1.413114
  0
VERTEX
  8
PLAN_1
  6
CONTINUOUS
 10
-1.447886
 20
1.409780
  0
VERTEX
  8
PLAN_1
  6
CONTINUOUS
 10
-1.445028
 20
1.406445
  0
SEQEND
  8
0
  0
POLYLINE
  8
PLAN_1
  6
CONTINUOUS
 66
     1
 40
0.005713
 41
0.005713
  0
VERTEX
  8
PLAN_1
  6
CONTINUOUS
 10
-1.445028
 20
1.406445
  0
VERTEX
  8
PLAN_1
  6
CONTINUOUS
 10
-1.237398
 20
1.406445
  0
SEQEND
  8
0
  0
POLYLINE
  8
PLAN_1
  6
CONTINUOUS
 66
     1
 40
0.005713
 41
0.005713
  0
VERTEX
  8
PLAN_1
  6
CONTINUOUS
 10
-1.237874
 20
1.373110
  0
VERTEX
  8
PLAN_1
  6
CONTINUOUS
 10
-1.234063
 20
1.375969
  0
VERTEX
  8
PLAN_1
  6
CONTINUOUS
 10
-1.231685
 20
1.379303
  0
VERTEX
  8
PLAN_1
  6
CONTINUOUS
 10
-1.229780
 20
1.382634
  0
VERTEX
  8
PLAN_1
  6
CONTINUOUS
 10
-1.228827
 20
1.385492
  0
VERTEX
  8
PLAN_1
  6
CONTINUOUS
 10
-1.228350
 20
1.388350
  0
VERTEX
  8
PLAN_1
  6
CONTINUOUS
 10
-1.228350
 20
1.391205
  0
VERTEX
  8
PLAN_1
  6
CONTINUOUS
 10
-1.228827
 20
1.394063
  0
VERTEX
  8
PLAN_1
  6
CONTINUOUS
 10
-1.229780
 20
1.396445
  0
VERTEX
  8
PLAN_1
  6
CONTINUOUS
 10
-1.232161
 20
1.400732
  0
VERTEX
  8
PLAN_1
  6
CONTINUOUS
 10
-1.235016
 20
1.404063
  0
VERTEX
  8
PLAN_1
  6
CONTINUOUS
 10
-1.236921
 20
1.405969
  0
VERTEX
  8
PLAN_1
  6
CONTINUOUS
 10
-1.237874
 20
1.406445
  0
SEQEND
  8
0
  0
POLYLINE
  8
PLAN_1
  6
CONTINUOUS
 66
     1
 40
0.005713
 41
0.005713
  0
VERTEX
  8
PLAN_1
  6
CONTINUOUS
 10
-1.237874
 20
1.406445
  0
VERTEX
  8
PLAN_1
  6
CONTINUOUS
 10
-1.445504
 20
1.406445
  0
SEQEND
  8
0
  0
POLYLINE
  8
PLAN_1
  6
CONTINUOUS
 66
     1
 40
0.005713
 41
0.005713
  0
VERTEX
  8
PLAN_1
  6
CONTINUOUS
 10
-1.445504
 20
1.406445
  0
VERTEX
  8
PLAN_1
  6
CONTINUOUS
 10
-1.445980
 20
1.405969
  0
VERTEX
  8
PLAN_1
  6
CONTINUOUS
 10
-1.447886
 20
1.404063
  0
VERTEX
  8
PLAN_1
  6
CONTINUOUS
 10
-1.450268
 20
1.400732
  0
VERTEX
  8
PLAN_1
  6
CONTINUOUS
 10
-1.452173
 20
1.396921
  0
VERTEX
  8
PLAN_1
  6
CONTINUOUS
 10
-1.453122
 20
1.394539
  0
VERTEX
  8
PLAN_1
  6
CONTINUOUS
 10
-1.453598
 20
1.391681
  0
VERTEX
  8
PLAN_1
  6
CONTINUOUS
 10
-1.453598
 20
1.388827
  0
VERTEX
  8
PLAN_1
  6
CONTINUOUS
 10
-1.453122
 20
1.385969
  0
VERTEX
  8
PLAN_1
  6
CONTINUOUS
 10
-1.452173
 20
1.383110
  0
VERTEX
  8
PLAN_1
  6
CONTINUOUS
 10
-1.450744
 20
1.379776
  0
VERTEX
  8
PLAN_1
  6
CONTINUOUS
 10
-1.448362
 20
1.376445
  0
VERTEX
  8
PLAN_1
  6
CONTINUOUS
 10
-1.445504
 20
1.373110
  0
SEQEND
  8
0
  0
POLYLINE
  8
PLAN_1
  6
CONTINUOUS
 66
     1
 40
0.005713
 41
0.005713
  0
VERTEX
  8
PLAN_1
  6
CONTINUOUS
 10
-1.445504
 20
1.373110
  0
VERTEX
  8
PLAN_1
  6
CONTINUOUS
 10
-1.237874
 20
1.373110
  0
SEQEND
  8
0
  0
POLYLINE
  8
PLAN_1
  6
CONTINUOUS
 66
     1
 40
0.005713
 41
0.005713
  0
VERTEX
  8
PLAN_1
  6
CONTINUOUS
 10
-1.237398
 20
1.339299
  0
VERTEX
  8
PLAN_1
  6
CONTINUOUS
 10
-1.234063
 20
1.342634
  0
VERTEX
  8
PLAN_1
  6
CONTINUOUS
 10
-1.231209
 20
1.345965
  0
VERTEX
  8
PLAN_1
  6
CONTINUOUS
 10
-1.229780
 20
1.349299
  0
VERTEX
  8
PLAN_1
  6
CONTINUOUS
 10
-1.228350
 20
1.352157
  0
VERTEX
  8
PLAN_1
  6
CONTINUOUS
 10
-1.227874
 20
1.355016
  0
VERTEX
  8
PLAN_1
  6
CONTINUOUS
 10
-1.228350
 20
1.357870
  0
VERTEX
  8
PLAN_1
  6
CONTINUOUS
 10
-1.228827
 20
1.360252
  0
VERTEX
  8
PLAN_1
  6
CONTINUOUS
 10
-1.229303
 20
1.363110
  0
VERTEX
  8
PLAN_1
  6
CONTINUOUS
 10
-1.231685
 20
1.367398
  0
VERTEX
  8
PLAN_1
  6
CONTINUOUS
 10
-1.234539
 20
1.370252
  0
VERTEX
  8
PLAN_1
  6
CONTINUOUS
 10
-1.236445
 20
1.372634
  0
VERTEX
  8
PLAN_1
  6
CONTINUOUS
 10
-1.237398
 20
1.373110
  0
SEQEND
  8
0
  0
POLYLINE
  8
PLAN_1
  6
CONTINUOUS
 66
     1
 40
0.005713
 41
0.005713
  0
VERTEX
  8
PLAN_1
  6
CONTINUOUS
 10
-1.237398
 20
1.373110
  0
VERTEX
  8
PLAN_1
  6
CONTINUOUS
 10
-1.445028
 20
1.373110
  0
SEQEND
  8
0
  0
POLYLINE
  8
PLAN_1
  6
CONTINUOUS
 66
     1
 40
0.005713
 41
0.005713
  0
VERTEX
  8
PLAN_1
  6
CONTINUOUS
 10
-1.445028
 20
1.373110
  0
VERTEX
  8
PLAN_1
  6
CONTINUOUS
 10
-1.445980
 20
1.372634
  0
VERTEX
  8
PLAN_1
  6
CONTINUOUS
 10
-1.447886
 20
1.370728
  0
VERTEX
  8
PLAN_1
  6
CONTINUOUS
 10
-1.449791
 20
1.367398
  0
VERTEX
  8
PLAN_1
  6
CONTINUOUS
 10
-1.452173
 20
1.363587
  0
VERTEX
  8
PLAN_1
  6
CONTINUOUS
 10
-1.452646
 20
1.361205
  0
VERTEX
  8
PLAN_1
  6
CONTINUOUS
 10
-1.453122
 20
1.358346
  0
VERTEX
  8
PLAN_1
  6
CONTINUOUS
 10
-1.453122
 20
1.355492
  0
VERTEX
  8
PLAN_1
  6
CONTINUOUS
 10
-1.453122
 20
1.352634
  0
VERTEX
  8
PLAN_1
  6
CONTINUOUS
 10
-1.452173
 20
1.349776
  0
VERTEX
  8
PLAN_1
  6
CONTINUOUS
 10
-1.450268
 20
1.346441
  0
VERTEX
  8
PLAN_1
  6
CONTINUOUS
 10
-1.447886
 20
1.343110
  0
VERTEX
  8
PLAN_1
  6
CONTINUOUS
 10
-1.445028
 20
1.339299
  0
SEQEND
  8
0
  0
POLYLINE
  8
PLAN_1
  6
CONTINUOUS
 66
     1
 40
0.005713
 41
0.005713
  0
VERTEX
  8
PLAN_1
  6
CONTINUOUS
 10
-1.445028
 20
1.339299
  0
VERTEX
  8
PLAN_1
  6
CONTINUOUS
 10
-1.237398
 20
1.339299
  0
SEQEND
  8
0
  0
POLYLINE
  8
PLAN_1
  6
CONTINUOUS
 66
     1
 40
0.005713
 41
0.005713
  0
VERTEX
  8
PLAN_1
  6
CONTINUOUS
 10
-1.237874
 20
1.305965
  0
VERTEX
  8
PLAN_1
  6
CONTINUOUS
 10
-1.234063
 20
1.309299
  0
VERTEX
  8
PLAN_1
  6
CONTINUOUS
 10
-1.231685
 20
1.312630
  0
VERTEX
  8
PLAN_1
  6
CONTINUOUS
 10
-1.229780
 20
1.315488
  0
VERTEX
  8
PLAN_1
  6
CONTINUOUS
 10
-1.228827
 20
1.318823
  0
VERTEX
  8
PLAN_1
  6
CONTINUOUS
 10
-1.228350
 20
1.321681
  0
VERTEX
  8
PLAN_1
  6
CONTINUOUS
 10
-1.228350
 20
1.324535
  0
VERTEX
  8
PLAN_1
  6
CONTINUOUS
 10
-1.228827
 20
1.326917
  0
VERTEX
  8
PLAN_1
  6
CONTINUOUS
 10
-1.229780
 20
1.329299
  0
VERTEX
  8
PLAN_1
  6
CONTINUOUS
 10
-1.232161
 20
1.333583
  0
VERTEX
  8
PLAN_1
  6
CONTINUOUS
 10
-1.235016
 20
1.336917
  0
VERTEX
  8
PLAN_1
  6
CONTINUOUS
 10
-1.236921
 20
1.338823
  0
VERTEX
  8
PLAN_1
  6
CONTINUOUS
 10
-1.237874
 20
1.339776
  0
SEQEND
  8
0
  0
POLYLINE
  8
PLAN_1
  6
CONTINUOUS
 66
     1
 40
0.005713
 41
0.005713
  0
VERTEX
  8
PLAN_1
  6
CONTINUOUS
 10
-1.237874
 20
1.339776
  0
VERTEX
  8
PLAN_1
  6
CONTINUOUS
 10
-1.445504
 20
1.339776
  0
SEQEND
  8
0
  0
POLYLINE
  8
PLAN_1
  6
CONTINUOUS
 66
     1
 40
0.005713
 41
0.005713
  0
VERTEX
  8
PLAN_1
  6
CONTINUOUS
 10
-1.445504
 20
1.339776
  0
VERTEX
  8
PLAN_1
  6
CONTINUOUS
 10
-1.445980
 20
1.339299
  0
VERTEX
  8
PLAN_1
  6
CONTINUOUS
 10
-1.447886
 20
1.336917
  0
VERTEX
  8
PLAN_1
  6
CONTINUOUS
 10
-1.450268
 20
1.334059
  0
VERTEX
  8
PLAN_1
  6
CONTINUOUS
 10
-1.452173
 20
1.329776
  0
VERTEX
  8
PLAN_1
  6
CONTINUOUS
 10
-1.453122
 20
1.327394
  0
VERTEX
  8
PLAN_1
  6
CONTINUOUS
 10
-1.453598
 20
1.325012
  0
VERTEX
  8
PLAN_1
  6
CONTINUOUS
 10
-1.453598
 20
1.322154
  0
VERTEX
  8
PLAN_1
  6
CONTINUOUS
 10
-1.453122
 20
1.319299
  0
VERTEX
  8
PLAN_1
  6
CONTINUOUS
 10
-1.452173
 20
1.315965
  0
VERTEX
  8
PLAN_1
  6
CONTINUOUS
 10
-1.450744
 20
1.312630
  0
VERTEX
  8
PLAN_1
  6
CONTINUOUS
 10
-1.448362
 20
1.309299
  0
VERTEX
  8
PLAN_1
  6
CONTINUOUS
 10
-1.445504
 20
1.305965
  0
SEQEND
  8
0
  0
POLYLINE
  8
PLAN_1
  6
CONTINUOUS
 66
     1
 40
0.005713
 41
0.005713
  0
VERTEX
  8
PLAN_1
  6
CONTINUOUS
 10
-1.445504
 20
1.305965
  0
VERTEX
  8
PLAN_1
  6
CONTINUOUS
 10
-1.237874
 20
1.305965
  0
SEQEND
  8
0
  0
POLYLINE
  8
PLAN_1
  6
CONTINUOUS
 66
     1
 40
0.005713
 41
0.005713
  0
VERTEX
  8
PLAN_1
  6
CONTINUOUS
 10
-1.237398
 20
1.272630
  0
VERTEX
  8
PLAN_1
  6
CONTINUOUS
 10
-1.234063
 20
1.275961
  0
VERTEX
  8
PLAN_1
  6
CONTINUOUS
 10
-1.231209
 20
1.278819
  0
VERTEX
  8
PLAN_1
  6
CONTINUOUS
 10
-1.229780
 20
1.282154
  0
VERTEX
  8
PLAN_1
  6
CONTINUOUS
 10
-1.228350
 20
1.285012
  0
VERTEX
  8
PLAN_1
  6
CONTINUOUS
 10
-1.227874
 20
1.288343
  0
VERTEX
  8
PLAN_1
  6
CONTINUOUS
 10
-1.228350
 20
1.290724
  0
VERTEX
  8
PLAN_1
  6
CONTINUOUS
 10
-1.228827
 20
1.293583
  0
VERTEX
  8
PLAN_1
  6
CONTINUOUS
 10
-1.229303
 20
1.295965
  0
VERTEX
  8
PLAN_1
  6
CONTINUOUS
 10
-1.231685
 20
1.300248
  0
VERTEX
  8
PLAN_1
  6
CONTINUOUS
 10
-1.234539
 20
1.303583
  0
VERTEX
  8
PLAN_1
  6
CONTINUOUS
 10
-1.236445
 20
1.305488
  0
VERTEX
  8
PLAN_1
  6
CONTINUOUS
 10
-1.237398
 20
1.306441
  0
SEQEND
  8
0
  0
POLYLINE
  8
PLAN_1
  6
CONTINUOUS
 66
     1
 40
0.005713
 41
0.005713
  0
VERTEX
  8
PLAN_1
  6
CONTINUOUS
 10
-1.237398
 20
1.306441
  0
VERTEX
  8
PLAN_1
  6
CONTINUOUS
 10
-1.445028
 20
1.306441
  0
SEQEND
  8
0
  0
POLYLINE
  8
PLAN_1
  6
CONTINUOUS
 66
     1
 40
0.005713
 41
0.005713
  0
VERTEX
  8
PLAN_1
  6
CONTINUOUS
 10
-1.445028
 20
1.306441
  0
VERTEX
  8
PLAN_1
  6
CONTINUOUS
 10
-1.445980
 20
1.305488
  0
VERTEX
  8
PLAN_1
  6
CONTINUOUS
 10
-1.447886
 20
1.303583
  0
VERTEX
  8
PLAN_1
  6
CONTINUOUS
 10
-1.449791
 20
1.300724
  0
VERTEX
  8
PLAN_1
  6
CONTINUOUS
 10
-1.452173
 20
1.296441
  0
VERTEX
  8
PLAN_1
  6
CONTINUOUS
 10
-1.452646
 20
1.294059
  0
VERTEX
  8
PLAN_1
  6
CONTINUOUS
 10
-1.453122
 20
1.291677
  0
VERTEX
  8
PLAN_1
  6
CONTINUOUS
 10
-1.453122
 20
1.288819
  0
VERTEX
  8
PLAN_1
  6
CONTINUOUS
 10
-1.453122
 20
1.285965
  0
VERTEX
  8
PLAN_1
  6
CONTINUOUS
 10
-1.452173
 20
1.282630
  0
VERTEX
  8
PLAN_1
  6
CONTINUOUS
 10
-1.450268
 20
1.279295
  0
VERTEX
  8
PLAN_1
  6
CONTINUOUS
 10
-1.447886
 20
1.275961
  0
VERTEX
  8
PLAN_1
  6
CONTINUOUS
 10
-1.445028
 20
1.272630
  0
SEQEND
  8
0
  0
POLYLINE
  8
PLAN_1
  6
CONTINUOUS
 66
     1
 40
0.005713
 41
0.005713
  0
VERTEX
  8
PLAN_1
  6
CONTINUOUS
 10
-1.445028
 20
1.272630
  0
VERTEX
  8
PLAN_1
  6
CONTINUOUS
 10
-1.237398
 20
1.272630
  0
SEQEND
  8
0
  0
POLYLINE
  8
PLAN_1
  6
CONTINUOUS
 66
     1
 40
0.005713
 41
0.005713
  0
VERTEX
  8
PLAN_1
  6
CONTINUOUS
 10
-1.237874
 20
1.239295
  0
VERTEX
  8
PLAN_1
  6
CONTINUOUS
 10
-1.234063
 20
1.242626
  0
VERTEX
  8
PLAN_1
  6
CONTINUOUS
 10
-1.231685
 20
1.245484
  0
VERTEX
  8
PLAN_1
  6
CONTINUOUS
 10
-1.229780
 20
1.248819
  0
VERTEX
  8
PLAN_1
  6
CONTINUOUS
 10
-1.228827
 20
1.251677
  0
VERTEX
  8
PLAN_1
  6
CONTINUOUS
 10
-1.228350
 20
1.254531
  0
VERTEX
  8
PLAN_1
  6
CONTINUOUS
 10
-1.228350
 20
1.257390
  0
VERTEX
  8
PLAN_1
  6
CONTINUOUS
 10
-1.228827
 20
1.260248
  0
VERTEX
  8
PLAN_1
  6
CONTINUOUS
 10
-1.229780
 20
1.262630
  0
VERTEX
  8
PLAN_1
  6
CONTINUOUS
 10
-1.232161
 20
1.266913
  0
VERTEX
  8
PLAN_1
  6
CONTINUOUS
 10
-1.235016
 20
1.270248
  0
VERTEX
  8
PLAN_1
  6
CONTINUOUS
 10
-1.236921
 20
1.272154
  0
VERTEX
  8
PLAN_1
  6
CONTINUOUS
 10
-1.237874
 20
1.273106
  0
SEQEND
  8
0
  0
POLYLINE
  8
PLAN_1
  6
CONTINUOUS
 66
     1
 40
0.005713
 41
0.005713
  0
VERTEX
  8
PLAN_1
  6
CONTINUOUS
 10
-1.237874
 20
1.273106
  0
VERTEX
  8
PLAN_1
  6
CONTINUOUS
 10
-1.445504
 20
1.273106
  0
SEQEND
  8
0
  0
POLYLINE
  8
PLAN_1
  6
CONTINUOUS
 66
     1
 40
0.005713
 41
0.005713
  0
VERTEX
  8
PLAN_1
  6
CONTINUOUS
 10
-1.445504
 20
1.273106
  0
VERTEX
  8
PLAN_1
  6
CONTINUOUS
 10
-1.445980
 20
1.272154
  0
VERTEX
  8
PLAN_1
  6
CONTINUOUS
 10
-1.447886
 20
1.270248
  0
VERTEX
  8
PLAN_1
  6
CONTINUOUS
 10
-1.450268
 20
1.266913
  0
VERTEX
  8
PLAN_1
  6
CONTINUOUS
 10
-1.452173
 20
1.263106
  0
VERTEX
  8
PLAN_1
  6
CONTINUOUS
 10
-1.453122
 20
1.260724
  0
VERTEX
  8
PLAN_1
  6
CONTINUOUS
 10
-1.453598
 20
1.257866
  0
VERTEX
  8
PLAN_1
  6
CONTINUOUS
 10
-1.453598
 20
1.255484
  0
VERTEX
  8
PLAN_1
  6
CONTINUOUS
 10
-1.453122
 20
1.252154
  0
VERTEX
  8
PLAN_1
  6
CONTINUOUS
 10
-1.452173
 20
1.249295
  0
VERTEX
  8
PLAN_1
  6
CONTINUOUS
 10
-1.450744
 20
1.245961
  0
VERTEX
  8
PLAN_1
  6
CONTINUOUS
 10
-1.448362
 20
1.242626
  0
VERTEX
  8
PLAN_1
  6
CONTINUOUS
 10
-1.445504
 20
1.239295
  0
SEQEND
  8
0
  0
POLYLINE
  8
PLAN_1
  6
CONTINUOUS
 66
     1
 40
0.005713
 41
0.005713
  0
VERTEX
  8
PLAN_1
  6
CONTINUOUS
 10
-1.445504
 20
1.239295
  0
VERTEX
  8
PLAN_1
  6
CONTINUOUS
 10
-1.237874
 20
1.239295
  0
SEQEND
  8
0
  0
POLYLINE
  8
PLAN_1
  6
CONTINUOUS
 66
     1
 40
0.005713
 41
0.005713
  0
VERTEX
  8
PLAN_1
  6
CONTINUOUS
 10
-1.237398
 20
1.205484
  0
VERTEX
  8
PLAN_1
  6
CONTINUOUS
 10
-1.234063
 20
1.208815
  0
VERTEX
  8
PLAN_1
  6
CONTINUOUS
 10
-1.231209
 20
1.212150
  0
VERTEX
  8
PLAN_1
  6
CONTINUOUS
 10
-1.229780
 20
1.215484
  0
VERTEX
  8
PLAN_1
  6
CONTINUOUS
 10
-1.228350
 20
1.218339
  0
VERTEX
  8
PLAN_1
  6
CONTINUOUS
 10
-1.227874
 20
1.221197
  0
VERTEX
  8
PLAN_1
  6
CONTINUOUS
 10
-1.228350
 20
1.224055
  0
VERTEX
  8
PLAN_1
  6
CONTINUOUS
 10
-1.228827
 20
1.226913
  0
VERTEX
  8
PLAN_1
  6
CONTINUOUS
 10
-1.229303
 20
1.229295
  0
VERTEX
  8
PLAN_1
  6
CONTINUOUS
 10
-1.231685
 20
1.233579
  0
VERTEX
  8
PLAN_1
  6
CONTINUOUS
 10
-1.234539
 20
1.236437
  0
VERTEX
  8
PLAN_1
  6
CONTINUOUS
 10
-1.236445
 20
1.238819
  0
VERTEX
  8
PLAN_1
  6
CONTINUOUS
 10
-1.237398
 20
1.239295
  0
SEQEND
  8
0
  0
POLYLINE
  8
PLAN_1
  6
CONTINUOUS
 66
     1
 40
0.005713
 41
0.005713
  0
VERTEX
  8
PLAN_1
  6
CONTINUOUS
 10
-1.237398
 20
1.239295
  0
VERTEX
  8
PLAN_1
  6
CONTINUOUS
 10
-1.445028
 20
1.239295
  0
SEQEND
  8
0
  0
POLYLINE
  8
PLAN_1
  6
CONTINUOUS
 66
     1
 40
0.005713
 41
0.005713
  0
VERTEX
  8
PLAN_1
  6
CONTINUOUS
 10
-1.445028
 20
1.239295
  0
VERTEX
  8
PLAN_1
  6
CONTINUOUS
 10
-1.445980
 20
1.238819
  0
VERTEX
  8
PLAN_1
  6
CONTINUOUS
 10
-1.447886
 20
1.236913
  0
VERTEX
  8
PLAN_1
  6
CONTINUOUS
 10
-1.449791
 20
1.233579
  0
VERTEX
  8
PLAN_1
  6
CONTINUOUS
 10
-1.452173
 20
1.229768
  0
VERTEX
  8
PLAN_1
  6
CONTINUOUS
 10
-1.452646
 20
1.227390
  0
VERTEX
  8
PLAN_1
  6
CONTINUOUS
 10
-1.453122
 20
1.224531
  0
VERTEX
  8
PLAN_1
  6
CONTINUOUS
 10
-1.453122
 20
1.221673
  0
VERTEX
  8
PLAN_1
  6
CONTINUOUS
 10
-1.453122
 20
1.218815
  0
VERTEX
  8
PLAN_1
  6
CONTINUOUS
 10
-1.452173
 20
1.215961
  0
VERTEX
  8
PLAN_1
  6
CONTINUOUS
 10
-1.450268
 20
1.212626
  0
VERTEX
  8
PLAN_1
  6
CONTINUOUS
 10
-1.447886
 20
1.209291
  0
VERTEX
  8
PLAN_1
  6
CONTINUOUS
 10
-1.445028
 20
1.205484
  0
SEQEND
  8
0
  0
POLYLINE
  8
PLAN_1
  6
CONTINUOUS
 66
     1
 40
0.005713
 41
0.005713
  0
VERTEX
  8
PLAN_1
  6
CONTINUOUS
 10
-1.445028
 20
1.205484
  0
VERTEX
  8
PLAN_1
  6
CONTINUOUS
 10
-1.237398
 20
1.205484
  0
SEQEND
  8
0
  0
POLYLINE
  8
PLAN_1
  6
CONTINUOUS
 66
     1
 40
0.005713
 41
0.005713
  0
VERTEX
  8
PLAN_1
  6
CONTINUOUS
 10
-1.237874
 20
1.172146
  0
VERTEX
  8
PLAN_1
  6
CONTINUOUS
 10
-1.234063
 20
1.175480
  0
VERTEX
  8
PLAN_1
  6
CONTINUOUS
 10
-1.231685
 20
1.178815
  0
VERTEX
  8
PLAN_1
  6
CONTINUOUS
 10
-1.229780
 20
1.181673
  0
VERTEX
  8
PLAN_1
  6
CONTINUOUS
 10
-1.228827
 20
1.185004
  0
VERTEX
  8
PLAN_1
  6
CONTINUOUS
 10
-1.228350
 20
1.187862
  0
VERTEX
  8
PLAN_1
  6
CONTINUOUS
 10
-1.228350
 20
1.190720
  0
VERTEX
  8
PLAN_1
  6
CONTINUOUS
 10
-1.228827
 20
1.193102
  0
VERTEX
  8
PLAN_1
  6
CONTINUOUS
 10
-1.229780
 20
1.195480
  0
VERTEX
  8
PLAN_1
  6
CONTINUOUS
 10
-1.232161
 20
1.199768
  0
VERTEX
  8
PLAN_1
  6
CONTINUOUS
 10
-1.235016
 20
1.203102
  0
VERTEX
  8
PLAN_1
  6
CONTINUOUS
 10
-1.236921
 20
1.205484
  0
VERTEX
  8
PLAN_1
  6
CONTINUOUS
 10
-1.237874
 20
1.205961
  0
SEQEND
  8
0
  0
POLYLINE
  8
PLAN_1
  6
CONTINUOUS
 66
     1
 40
0.005713
 41
0.005713
  0
VERTEX
  8
PLAN_1
  6
CONTINUOUS
 10
-1.237874
 20
1.205961
  0
VERTEX
  8
PLAN_1
  6
CONTINUOUS
 10
-1.445504
 20
1.205961
  0
SEQEND
  8
0
  0
POLYLINE
  8
PLAN_1
  6
CONTINUOUS
 66
     1
 40
0.005713
 41
0.005713
  0
VERTEX
  8
PLAN_1
  6
CONTINUOUS
 10
-1.445504
 20
1.205961
  0
VERTEX
  8
PLAN_1
  6
CONTINUOUS
 10
-1.445980
 20
1.205484
  0
VERTEX
  8
PLAN_1
  6
CONTINUOUS
 10
-1.447886
 20
1.203579
  0
VERTEX
  8
PLAN_1
  6
CONTINUOUS
 10
-1.450268
 20
1.200244
  0
VERTEX
  8
PLAN_1
  6
CONTINUOUS
 10
-1.452173
 20
1.195957
  0
VERTEX
  8
PLAN_1
  6
CONTINUOUS
 10
-1.453122
 20
1.193579
  0
VERTEX
  8
PLAN_1
  6
CONTINUOUS
 10
-1.453598
 20
1.191197
  0
VERTEX
  8
PLAN_1
  6
CONTINUOUS
 10
-1.453598
 20
1.188339
  0
VERTEX
  8
PLAN_1
  6
CONTINUOUS
 10
-1.453122
 20
1.185480
  0
VERTEX
  8
PLAN_1
  6
CONTINUOUS
 10
-1.452173
 20
1.182150
  0
VERTEX
  8
PLAN_1
  6
CONTINUOUS
 10
-1.450744
 20
1.179291
  0
VERTEX
  8
PLAN_1
  6
CONTINUOUS
 10
-1.448362
 20
1.175480
  0
VERTEX
  8
PLAN_1
  6
CONTINUOUS
 10
-1.445504
 20
1.172146
  0
SEQEND
  8
0
  0
POLYLINE
  8
PLAN_1
  6
CONTINUOUS
 66
     1
 40
0.005713
 41
0.005713
  0
VERTEX
  8
PLAN_1
  6
CONTINUOUS
 10
-1.445504
 20
1.172146
  0
VERTEX
  8
PLAN_1
  6
CONTINUOUS
 10
-1.237874
 20
1.172146
  0
SEQEND
  8
0
  0
POLYLINE
  8
PLAN_1
  6
CONTINUOUS
 66
     1
 40
0.005713
 41
0.005713
  0
VERTEX
  8
PLAN_1
  6
CONTINUOUS
 10
-1.237398
 20
1.138811
  0
VERTEX
  8
PLAN_1
  6
CONTINUOUS
 10
-1.234063
 20
1.142146
  0
VERTEX
  8
PLAN_1
  6
CONTINUOUS
 10
-1.231209
 20
1.145480
  0
VERTEX
  8
PLAN_1
  6
CONTINUOUS
 10
-1.229780
 20
1.148339
  0
VERTEX
  8
PLAN_1
  6
CONTINUOUS
 10
-1.228350
 20
1.151669
  0
VERTEX
  8
PLAN_1
  6
CONTINUOUS
 10
-1.227874
 20
1.154528
  0
VERTEX
  8
PLAN_1
  6
CONTINUOUS
 10
-1.228350
 20
1.157386
  0
VERTEX
  8
PLAN_1
  6
CONTINUOUS
 10
-1.228827
 20
1.159768
  0
VERTEX
  8
PLAN_1
  6
CONTINUOUS
 10
-1.229303
 20
1.162146
  0
VERTEX
  8
PLAN_1
  6
CONTINUOUS
 10
-1.231685
 20
1.166433
  0
VERTEX
  8
PLAN_1
  6
CONTINUOUS
 10
-1.234539
 20
1.169768
  0
VERTEX
  8
PLAN_1
  6
CONTINUOUS
 10
-1.236445
 20
1.171673
  0
VERTEX
  8
PLAN_1
  6
CONTINUOUS
 10
-1.237398
 20
1.172622
  0
SEQEND
  8
0
  0
POLYLINE
  8
PLAN_1
  6
CONTINUOUS
 66
     1
 40
0.005713
 41
0.005713
  0
VERTEX
  8
PLAN_1
  6
CONTINUOUS
 10
-1.237398
 20
1.172622
  0
VERTEX
  8
PLAN_1
  6
CONTINUOUS
 10
-1.445028
 20
1.172622
  0
SEQEND
  8
0
  0
POLYLINE
  8
PLAN_1
  6
CONTINUOUS
 66
     1
 40
0.005713
 41
0.005713
  0
VERTEX
  8
PLAN_1
  6
CONTINUOUS
 10
-1.445028
 20
1.172622
  0
VERTEX
  8
PLAN_1
  6
CONTINUOUS
 10
-1.445980
 20
1.171673
  0
VERTEX
  8
PLAN_1
  6
CONTINUOUS
 10
-1.447886
 20
1.169768
  0
VERTEX
  8
PLAN_1
  6
CONTINUOUS
 10
-1.449791
 20
1.166909
  0
VERTEX
  8
PLAN_1
  6
CONTINUOUS
 10
-1.452173
 20
1.162622
  0
VERTEX
  8
PLAN_1
  6
CONTINUOUS
 10
-1.452646
 20
1.160244
  0
VERTEX
  8
PLAN_1
  6
CONTINUOUS
 10
-1.453122
 20
1.157862
  0
VERTEX
  8
PLAN_1
  6
CONTINUOUS
 10
-1.453122
 20
1.155004
  0
VERTEX
  8
PLAN_1
  6
CONTINUOUS
 10
-1.453122
 20
1.152146
  0
VERTEX
  8
PLAN_1
  6
CONTINUOUS
 10
-1.452173
 20
1.148815
  0
VERTEX
  8
PLAN_1
  6
CONTINUOUS
 10
-1.450268
 20
1.145480
  0
VERTEX
  8
PLAN_1
  6
CONTINUOUS
 10
-1.447886
 20
1.142146
  0
VERTEX
  8
PLAN_1
  6
CONTINUOUS
 10
-1.445028
 20
1.138811
  0
SEQEND
  8
0
  0
POLYLINE
  8
PLAN_1
  6
CONTINUOUS
 66
     1
 40
0.005713
 41
0.005713
  0
VERTEX
  8
PLAN_1
  6
CONTINUOUS
 10
-1.445028
 20
1.138811
  0
VERTEX
  8
PLAN_1
  6
CONTINUOUS
 10
-1.237398
 20
1.138811
  0
SEQEND
  8
0
  0
POLYLINE
  8
PLAN_1
  6
CONTINUOUS
 66
     1
 40
0.005713
 41
0.005713
  0
VERTEX
  8
PLAN_1
  6
CONTINUOUS
 10
-1.237874
 20
1.105476
  0
VERTEX
  8
PLAN_1
  6
CONTINUOUS
 10
-1.234063
 20
1.108811
  0
VERTEX
  8
PLAN_1
  6
CONTINUOUS
 10
-1.231685
 20
1.111669
  0
VERTEX
  8
PLAN_1
  6
CONTINUOUS
 10
-1.229780
 20
1.115000
  0
VERTEX
  8
PLAN_1
  6
CONTINUOUS
 10
-1.228827
 20
1.117858
  0
VERTEX
  8
PLAN_1
  6
CONTINUOUS
 10
-1.228350
 20
1.120717
  0
VERTEX
  8
PLAN_1
  6
CONTINUOUS
 10
-1.228350
 20
1.123575
  0
VERTEX
  8
PLAN_1
  6
CONTINUOUS
 10
-1.228827
 20
1.126429
  0
VERTEX
  8
PLAN_1
  6
CONTINUOUS
 10
-1.229780
 20
1.128811
  0
VERTEX
  8
PLAN_1
  6
CONTINUOUS
 10
-1.232161
 20
1.133098
  0
VERTEX
  8
PLAN_1
  6
CONTINUOUS
 10
-1.235016
 20
1.136433
  0
VERTEX
  8
PLAN_1
  6
CONTINUOUS
 10
-1.236921
 20
1.138335
  0
VERTEX
  8
PLAN_1
  6
CONTINUOUS
 10
-1.237874
 20
1.139287
  0
SEQEND
  8
0
  0
POLYLINE
  8
PLAN_1
  6
CONTINUOUS
 66
     1
 40
0.005713
 41
0.005713
  0
VERTEX
  8
PLAN_1
  6
CONTINUOUS
 10
-1.237874
 20
1.139287
  0
VERTEX
  8
PLAN_1
  6
CONTINUOUS
 10
-1.445504
 20
1.139287
  0
SEQEND
  8
0
  0
POLYLINE
  8
PLAN_1
  6
CONTINUOUS
 66
     1
 40
0.005713
 41
0.005713
  0
VERTEX
  8
PLAN_1
  6
CONTINUOUS
 10
-1.445504
 20
1.139287
  0
VERTEX
  8
PLAN_1
  6
CONTINUOUS
 10
-1.445980
 20
1.138335
  0
VERTEX
  8
PLAN_1
  6
CONTINUOUS
 10
-1.447886
 20
1.136433
  0
VERTEX
  8
PLAN_1
  6
CONTINUOUS
 10
-1.450268
 20
1.133575
  0
VERTEX
  8
PLAN_1
  6
CONTINUOUS
 10
-1.452173
 20
1.129287
  0
VERTEX
  8
PLAN_1
  6
CONTINUOUS
 10
-1.453122
 20
1.126906
  0
VERTEX
  8
PLAN_1
  6
CONTINUOUS
 10
-1.453598
 20
1.124051
  0
VERTEX
  8
PLAN_1
  6
CONTINUOUS
 10
-1.453598
 20
1.121669
  0
VERTEX
  8
PLAN_1
  6
CONTINUOUS
 10
-1.453122
 20
1.118335
  0
VERTEX
  8
PLAN_1
  6
CONTINUOUS
 10
-1.452173
 20
1.115476
  0
VERTEX
  8
PLAN_1
  6
CONTINUOUS
 10
-1.450744
 20
1.112146
  0
VERTEX
  8
PLAN_1
  6
CONTINUOUS
 10
-1.448362
 20
1.108811
  0
VERTEX
  8
PLAN_1
  6
CONTINUOUS
 10
-1.445504
 20
1.105476
  0
SEQEND
  8
0
  0
POLYLINE
  8
PLAN_1
  6
CONTINUOUS
 66
     1
 40
0.005713
 41
0.005713
  0
VERTEX
  8
PLAN_1
  6
CONTINUOUS
 10
-1.445504
 20
1.105476
  0
VERTEX
  8
PLAN_1
  6
CONTINUOUS
 10
-1.237874
 20
1.105476
  0
SEQEND
  8
0
  0
POLYLINE
  8
PLAN_1
  6
CONTINUOUS
 66
     1
 40
0.005713
 41
0.005713
  0
VERTEX
  8
PLAN_1
  6
CONTINUOUS
 10
-1.237398
 20
1.072142
  0
VERTEX
  8
PLAN_1
  6
CONTINUOUS
 10
-1.234063
 20
1.075000
  0
VERTEX
  8
PLAN_1
  6
CONTINUOUS
 10
-1.231209
 20
1.078335
  0
VERTEX
  8
PLAN_1
  6
CONTINUOUS
 10
-1.229780
 20
1.081665
  0
VERTEX
  8
PLAN_1
  6
CONTINUOUS
 10
-1.228350
 20
1.084524
  0
VERTEX
  8
PLAN_1
  6
CONTINUOUS
 10
-1.227874
 20
1.087382
  0
VERTEX
  8
PLAN_1
  6
CONTINUOUS
 10
-1.228350
 20
1.090240
  0
VERTEX
  8
PLAN_1
  6
CONTINUOUS
 10
-1.228827
 20
1.093094
  0
VERTEX
  8
PLAN_1
  6
CONTINUOUS
 10
-1.229303
 20
1.095476
  0
VERTEX
  8
PLAN_1
  6
CONTINUOUS
 10
-1.231685
 20
1.099764
  0
VERTEX
  8
PLAN_1
  6
CONTINUOUS
 10
-1.234539
 20
1.102622
  0
VERTEX
  8
PLAN_1
  6
CONTINUOUS
 10
-1.236445
 20
1.105000
  0
VERTEX
  8
PLAN_1
  6
CONTINUOUS
 10
-1.237398
 20
1.105476
  0
SEQEND
  8
0
  0
POLYLINE
  8
PLAN_1
  6
CONTINUOUS
 66
     1
 40
0.005713
 41
0.005713
  0
VERTEX
  8
PLAN_1
  6
CONTINUOUS
 10
-1.237398
 20
1.105476
  0
VERTEX
  8
PLAN_1
  6
CONTINUOUS
 10
-1.445028
 20
1.105476
  0
SEQEND
  8
0
  0
POLYLINE
  8
PLAN_1
  6
CONTINUOUS
 66
     1
 40
0.005713
 41
0.005713
  0
VERTEX
  8
PLAN_1
  6
CONTINUOUS
 10
-1.445028
 20
1.105476
  0
VERTEX
  8
PLAN_1
  6
CONTINUOUS
 10
-1.445980
 20
1.105000
  0
VERTEX
  8
PLAN_1
  6
CONTINUOUS
 10
-1.447886
 20
1.103094
  0
VERTEX
  8
PLAN_1
  6
CONTINUOUS
 10
-1.449791
 20
1.099764
  0
VERTEX
  8
PLAN_1
  6
CONTINUOUS
 10
-1.452173
 20
1.095953
  0
VERTEX
  8
PLAN_1
  6
CONTINUOUS
 10
-1.452646
 20
1.093571
  0
VERTEX
  8
PLAN_1
  6
CONTINUOUS
 10
-1.453122
 20
1.090717
  0
VERTEX
  8
PLAN_1
  6
CONTINUOUS
 10
-1.453122
 20
1.087858
  0
VERTEX
  8
PLAN_1
  6
CONTINUOUS
 10
-1.453122
 20
1.085000
  0
VERTEX
  8
PLAN_1
  6
CONTINUOUS
 10
-1.452173
 20
1.082142
  0
VERTEX
  8
PLAN_1
  6
CONTINUOUS
 10
-1.450268
 20
1.078811
  0
VERTEX
  8
PLAN_1
  6
CONTINUOUS
 10
-1.447886
 20
1.075476
  0
VERTEX
  8
PLAN_1
  6
CONTINUOUS
 10
-1.445028
 20
1.072142
  0
SEQEND
  8
0
  0
POLYLINE
  8
PLAN_1
  6
CONTINUOUS
 66
     1
 40
0.005713
 41
0.005713
  0
VERTEX
  8
PLAN_1
  6
CONTINUOUS
 10
-1.445028
 20
1.072142
  0
VERTEX
  8
PLAN_1
  6
CONTINUOUS
 10
-1.237398
 20
1.072142
  0
SEQEND
  8
0
  0
POLYLINE
  8
PLAN_1
  6
CONTINUOUS
 66
     1
 40
0.005713
 41
0.005713
  0
VERTEX
  8
PLAN_1
  6
CONTINUOUS
 10
-1.237874
 20
1.976000
  0
VERTEX
  8
PLAN_1
  6
CONTINUOUS
 10
-1.234063
 20
1.979335
  0
VERTEX
  8
PLAN_1
  6
CONTINUOUS
 10
-1.231685
 20
1.982189
  0
VERTEX
  8
PLAN_1
  6
CONTINUOUS
 10
-1.229780
 20
1.985524
  0
VERTEX
  8
PLAN_1
  6
CONTINUOUS
 10
-1.228827
 20
1.988382
  0
VERTEX
  8
PLAN_1
  6
CONTINUOUS
 10
-1.228350
 20
1.991713
  0
VERTEX
  8
PLAN_1
  6
CONTINUOUS
 10
-1.228350
 20
1.994094
  0
VERTEX
  8
PLAN_1
  6
CONTINUOUS
 10
-1.228827
 20
1.996953
  0
VERTEX
  8
PLAN_1
  6
CONTINUOUS
 10
-1.229780
 20
1.999335
  0
VERTEX
  8
PLAN_1
  6
CONTINUOUS
 10
-1.232161
 20
2.003618
  0
VERTEX
  8
PLAN_1
  6
CONTINUOUS
 10
-1.234539
 20
2.006953
  0
VERTEX
  8
PLAN_1
  6
CONTINUOUS
 10
-1.236921
 20
2.008858
  0
VERTEX
  8
PLAN_1
  6
CONTINUOUS
 10
-1.237874
 20
2.009811
  0
SEQEND
  8
0
  0
POLYLINE
  8
PLAN_1
  6
CONTINUOUS
 66
     1
 40
0.005713
 41
0.005713
  0
VERTEX
  8
PLAN_1
  6
CONTINUOUS
 10
-1.237874
 20
2.009811
  0
VERTEX
  8
PLAN_1
  6
CONTINUOUS
 10
-1.445028
 20
2.009811
  0
SEQEND
  8
0
  0
POLYLINE
  8
PLAN_1
  6
CONTINUOUS
 66
     1
 40
0.005713
 41
0.005713
  0
VERTEX
  8
PLAN_1
  6
CONTINUOUS
 10
-1.445028
 20
2.009811
  0
VERTEX
  8
PLAN_1
  6
CONTINUOUS
 10
-1.445980
 20
2.008858
  0
VERTEX
  8
PLAN_1
  6
CONTINUOUS
 10
-1.447886
 20
2.006953
  0
VERTEX
  8
PLAN_1
  6
CONTINUOUS
 10
-1.450268
 20
2.004094
  0
VERTEX
  8
PLAN_1
  6
CONTINUOUS
 10
-1.452173
 20
1.999811
  0
VERTEX
  8
PLAN_1
  6
CONTINUOUS
 10
-1.453122
 20
1.997429
  0
VERTEX
  8
PLAN_1
  6
CONTINUOUS
 10
-1.453598
 20
1.995047
  0
VERTEX
  8
PLAN_1
  6
CONTINUOUS
 10
-1.453598
 20
1.992189
  0
VERTEX
  8
PLAN_1
  6
CONTINUOUS
 10
-1.453122
 20
1.989335
  0
VERTEX
  8
PLAN_1
  6
CONTINUOUS
 10
-1.452173
 20
1.986000
  0
VERTEX
  8
PLAN_1
  6
CONTINUOUS
 10
-1.450744
 20
1.982665
  0
VERTEX
  8
PLAN_1
  6
CONTINUOUS
 10
-1.448362
 20
1.979335
  0
VERTEX
  8
PLAN_1
  6
CONTINUOUS
 10
-1.445028
 20
1.976000
  0
SEQEND
  8
0
  0
POLYLINE
  8
PLAN_1
  6
CONTINUOUS
 66
     1
 40
0.005713
 41
0.005713
  0
VERTEX
  8
PLAN_1
  6
CONTINUOUS
 10
-1.445028
 20
1.976000
  0
VERTEX
  8
PLAN_1
  6
CONTINUOUS
 10
-1.237874
 20
1.976000
  0
SEQEND
  8
0
  0
POLYLINE
  8
PLAN_1
  6
CONTINUOUS
 66
     1
 40
0.005713
 41
0.005713
  0
VERTEX
  8
PLAN_1
  6
CONTINUOUS
 10
-1.237398
 20
1.942665
  0
VERTEX
  8
PLAN_1
  6
CONTINUOUS
 10
-1.234063
 20
1.945520
  0
VERTEX
  8
PLAN_1
  6
CONTINUOUS
 10
-1.231209
 20
1.948854
  0
VERTEX
  8
PLAN_1
  6
CONTINUOUS
 10
-1.229303
 20
1.952189
  0
VERTEX
  8
PLAN_1
  6
CONTINUOUS
 10
-1.228350
 20
1.955047
  0
VERTEX
  8
PLAN_1
  6
CONTINUOUS
 10
-1.227874
 20
1.957902
  0
VERTEX
  8
PLAN_1
  6
CONTINUOUS
 10
-1.227874
 20
1.960760
  0
VERTEX
  8
PLAN_1
  6
CONTINUOUS
 10
-1.228350
 20
1.963618
  0
VERTEX
  8
PLAN_1
  6
CONTINUOUS
 10
-1.229303
 20
1.966000
  0
VERTEX
  8
PLAN_1
  6
CONTINUOUS
 10
-1.231685
 20
1.970283
  0
VERTEX
  8
PLAN_1
  6
CONTINUOUS
 10
-1.234539
 20
1.973618
  0
VERTEX
  8
PLAN_1
  6
CONTINUOUS
 10
-1.236445
 20
1.975524
  0
VERTEX
  8
PLAN_1
  6
CONTINUOUS
 10
-1.237398
 20
1.976476
  0
SEQEND
  8
0
  0
POLYLINE
  8
PLAN_1
  6
CONTINUOUS
 66
     1
 40
0.005713
 41
0.005713
  0
VERTEX
  8
PLAN_1
  6
CONTINUOUS
 10
-1.237398
 20
1.976476
  0
VERTEX
  8
PLAN_1
  6
CONTINUOUS
 10
-1.445028
 20
1.976476
  0
SEQEND
  8
0
  0
POLYLINE
  8
PLAN_1
  6
CONTINUOUS
 66
     1
 40
0.005713
 41
0.005713
  0
VERTEX
  8
PLAN_1
  6
CONTINUOUS
 10
-1.445028
 20
1.976476
  0
VERTEX
  8
PLAN_1
  6
CONTINUOUS
 10
-1.445504
 20
1.975524
  0
VERTEX
  8
PLAN_1
  6
CONTINUOUS
 10
-1.447409
 20
1.973618
  0
VERTEX
  8
PLAN_1
  6
CONTINUOUS
 10
-1.449791
 20
1.970760
  0
VERTEX
  8
PLAN_1
  6
CONTINUOUS
 10
-1.452173
 20
1.966476
  0
VERTEX
  8
PLAN_1
  6
CONTINUOUS
 10
-1.452646
 20
1.964094
  0
VERTEX
  8
PLAN_1
  6
CONTINUOUS
 10
-1.453122
 20
1.961236
  0
VERTEX
  8
PLAN_1
  6
CONTINUOUS
 10
-1.453122
 20
1.958854
  0
VERTEX
  8
PLAN_1
  6
CONTINUOUS
 10
-1.452646
 20
1.955524
  0
VERTEX
  8
PLAN_1
  6
CONTINUOUS
 10
-1.451697
 20
1.952665
  0
VERTEX
  8
PLAN_1
  6
CONTINUOUS
 10
-1.450268
 20
1.949331
  0
VERTEX
  8
PLAN_1
  6
CONTINUOUS
 10
-1.447886
 20
1.945996
  0
VERTEX
  8
PLAN_1
  6
CONTINUOUS
 10
-1.445028
 20
1.942665
  0
SEQEND
  8
0
  0
POLYLINE
  8
PLAN_1
  6
CONTINUOUS
 66
     1
 40
0.005713
 41
0.005713
  0
VERTEX
  8
PLAN_1
  6
CONTINUOUS
 10
-1.445028
 20
1.942665
  0
VERTEX
  8
PLAN_1
  6
CONTINUOUS
 10
-1.237398
 20
1.942665
  0
SEQEND
  8
0
  0
POLYLINE
  8
PLAN_1
  6
CONTINUOUS
 66
     1
 40
0.005713
 41
0.005713
  0
VERTEX
  8
PLAN_1
  6
CONTINUOUS
 10
-1.237398
 20
1.908378
  0
VERTEX
  8
PLAN_1
  6
CONTINUOUS
 10
-1.234063
 20
1.911709
  0
VERTEX
  8
PLAN_1
  6
CONTINUOUS
 10
-1.231685
 20
1.915043
  0
VERTEX
  8
PLAN_1
  6
CONTINUOUS
 10
-1.229780
 20
1.918378
  0
VERTEX
  8
PLAN_1
  6
CONTINUOUS
 10
-1.228827
 20
1.921236
  0
VERTEX
  8
PLAN_1
  6
CONTINUOUS
 10
-1.228350
 20
1.924091
  0
VERTEX
  8
PLAN_1
  6
CONTINUOUS
 10
-1.228350
 20
1.926949
  0
VERTEX
  8
PLAN_1
  6
CONTINUOUS
 10
-1.228827
 20
1.929807
  0
VERTEX
  8
PLAN_1
  6
CONTINUOUS
 10
-1.229780
 20
1.932189
  0
VERTEX
  8
PLAN_1
  6
CONTINUOUS
 10
-1.232161
 20
1.936472
  0
VERTEX
  8
PLAN_1
  6
CONTINUOUS
 10
-1.234539
 20
1.939331
  0
VERTEX
  8
PLAN_1
  6
CONTINUOUS
 10
-1.236445
 20
1.941713
  0
VERTEX
  8
PLAN_1
  6
CONTINUOUS
 10
-1.237398
 20
1.942189
  0
SEQEND
  8
0
  0
POLYLINE
  8
PLAN_1
  6
CONTINUOUS
 66
     1
 40
0.005713
 41
0.005713
  0
VERTEX
  8
PLAN_1
  6
CONTINUOUS
 10
-1.237398
 20
1.942189
  0
VERTEX
  8
PLAN_1
  6
CONTINUOUS
 10
-1.445028
 20
1.942189
  0
SEQEND
  8
0
  0
POLYLINE
  8
PLAN_1
  6
CONTINUOUS
 66
     1
 40
0.005713
 41
0.005713
  0
VERTEX
  8
PLAN_1
  6
CONTINUOUS
 10
-1.445028
 20
1.942189
  0
VERTEX
  8
PLAN_1
  6
CONTINUOUS
 10
-1.445980
 20
1.941713
  0
VERTEX
  8
PLAN_1
  6
CONTINUOUS
 10
-1.447886
 20
1.939807
  0
VERTEX
  8
PLAN_1
  6
CONTINUOUS
 10
-1.450268
 20
1.936472
  0
VERTEX
  8
PLAN_1
  6
CONTINUOUS
 10
-1.452173
 20
1.932665
  0
VERTEX
  8
PLAN_1
  6
CONTINUOUS
 10
-1.453122
 20
1.930283
  0
VERTEX
  8
PLAN_1
  6
CONTINUOUS
 10
-1.453122
 20
1.927425
  0
VERTEX
  8
PLAN_1
  6
CONTINUOUS
 10
-1.453598
 20
1.924567
  0
VERTEX
  8
PLAN_1
  6
CONTINUOUS
 10
-1.453122
 20
1.921713
  0
VERTEX
  8
PLAN_1
  6
CONTINUOUS
 10
-1.452173
 20
1.918854
  0
VERTEX
  8
PLAN_1
  6
CONTINUOUS
 10
-1.450268
 20
1.915520
  0
VERTEX
  8
PLAN_1
  6
CONTINUOUS
 10
-1.448362
 20
1.912185
  0
VERTEX
  8
PLAN_1
  6
CONTINUOUS
 10
-1.445028
 20
1.908378
  0
SEQEND
  8
0
  0
POLYLINE
  8
PLAN_1
  6
CONTINUOUS
 66
     1
 40
0.005713
 41
0.005713
  0
VERTEX
  8
PLAN_1
  6
CONTINUOUS
 10
-1.445028
 20
1.908378
  0
VERTEX
  8
PLAN_1
  6
CONTINUOUS
 10
-1.237398
 20
1.908378
  0
SEQEND
  8
0
  0
POLYLINE
  8
PLAN_1
  6
CONTINUOUS
 66
     1
 40
0.005713
 41
0.005713
  0
VERTEX
  8
PLAN_1
  6
CONTINUOUS
 10
-1.237398
 20
1.875043
  0
VERTEX
  8
PLAN_1
  6
CONTINUOUS
 10
-1.233587
 20
1.878374
  0
VERTEX
  8
PLAN_1
  6
CONTINUOUS
 10
-1.231209
 20
1.881709
  0
VERTEX
  8
PLAN_1
  6
CONTINUOUS
 10
-1.229303
 20
1.884567
  0
VERTEX
  8
PLAN_1
  6
CONTINUOUS
 10
-1.228350
 20
1.887898
  0
VERTEX
  8
PLAN_1
  6
CONTINUOUS
 10
-1.227874
 20
1.890756
  0
VERTEX
  8
PLAN_1
  6
CONTINUOUS
 10
-1.227874
 20
1.893614
  0
VERTEX
  8
PLAN_1
  6
CONTINUOUS
 10
-1.228350
 20
1.895996
  0
VERTEX
  8
PLAN_1
  6
CONTINUOUS
 10
-1.229303
 20
1.898378
  0
VERTEX
  8
PLAN_1
  6
CONTINUOUS
 10
-1.231685
 20
1.902661
  0
VERTEX
  8
PLAN_1
  6
CONTINUOUS
 10
-1.234063
 20
1.905996
  0
VERTEX
  8
PLAN_1
  6
CONTINUOUS
 10
-1.236445
 20
1.908378
  0
VERTEX
  8
PLAN_1
  6
CONTINUOUS
 10
-1.237398
 20
1.908854
  0
SEQEND
  8
0
  0
POLYLINE
  8
PLAN_1
  6
CONTINUOUS
 66
     1
 40
0.005713
 41
0.005713
  0
VERTEX
  8
PLAN_1
  6
CONTINUOUS
 10
-1.237398
 20
1.908854
  0
VERTEX
  8
PLAN_1
  6
CONTINUOUS
 10
-1.444551
 20
1.908854
  0
SEQEND
  8
0
  0
POLYLINE
  8
PLAN_1
  6
CONTINUOUS
 66
     1
 40
0.005713
 41
0.005713
  0
VERTEX
  8
PLAN_1
  6
CONTINUOUS
 10
-1.444551
 20
1.908854
  0
VERTEX
  8
PLAN_1
  6
CONTINUOUS
 10
-1.445504
 20
1.908378
  0
VERTEX
  8
PLAN_1
  6
CONTINUOUS
 10
-1.447409
 20
1.906472
  0
VERTEX
  8
PLAN_1
  6
CONTINUOUS
 10
-1.449791
 20
1.903138
  0
VERTEX
  8
PLAN_1
  6
CONTINUOUS
 10
-1.451697
 20
1.898850
  0
VERTEX
  8
PLAN_1
  6
CONTINUOUS
 10
-1.452646
 20
1.896472
  0
VERTEX
  8
PLAN_1
  6
CONTINUOUS
 10
-1.453122
 20
1.894091
  0
VERTEX
  8
PLAN_1
  6
CONTINUOUS
 10
-1.453122
 20
1.891232
  0
VERTEX
  8
PLAN_1
  6
CONTINUOUS
 10
-1.452646
 20
1.888374
  0
VERTEX
  8
PLAN_1
  6
CONTINUOUS
 10
-1.451697
 20
1.885043
  0
VERTEX
  8
PLAN_1
  6
CONTINUOUS
 10
-1.450268
 20
1.882185
  0
VERTEX
  8
PLAN_1
  6
CONTINUOUS
 10
-1.447886
 20
1.878374
  0
VERTEX
  8
PLAN_1
  6
CONTINUOUS
 10
-1.444551
 20
1.875043
  0
SEQEND
  8
0
  0
POLYLINE
  8
PLAN_1
  6
CONTINUOUS
 66
     1
 40
0.005713
 41
0.005713
  0
VERTEX
  8
PLAN_1
  6
CONTINUOUS
 10
-1.444551
 20
1.875043
  0
VERTEX
  8
PLAN_1
  6
CONTINUOUS
 10
-1.237398
 20
1.875043
  0
SEQEND
  8
0
  0
POLYLINE
  8
PLAN_1
  6
CONTINUOUS
 66
     1
 40
0.005713
 41
0.005713
  0
VERTEX
  8
PLAN_1
  6
CONTINUOUS
 10
-1.237398
 20
1.841705
  0
VERTEX
  8
PLAN_1
  6
CONTINUOUS
 10
-1.234063
 20
1.845039
  0
VERTEX
  8
PLAN_1
  6
CONTINUOUS
 10
-1.231685
 20
1.848374
  0
VERTEX
  8
PLAN_1
  6
CONTINUOUS
 10
-1.229780
 20
1.851232
  0
VERTEX
  8
PLAN_1
  6
CONTINUOUS
 10
-1.228827
 20
1.854563
  0
VERTEX
  8
PLAN_1
  6
CONTINUOUS
 10
-1.228350
 20
1.857421
  0
VERTEX
  8
PLAN_1
  6
CONTINUOUS
 10
-1.228350
 20
1.860280
  0
VERTEX
  8
PLAN_1
  6
CONTINUOUS
 10
-1.228827
 20
1.862661
  0
VERTEX
  8
PLAN_1
  6
CONTINUOUS
 10
-1.229780
 20
1.865039
  0
VERTEX
  8
PLAN_1
  6
CONTINUOUS
 10
-1.232161
 20
1.869327
  0
VERTEX
  8
PLAN_1
  6
CONTINUOUS
 10
-1.234539
 20
1.872661
  0
VERTEX
  8
PLAN_1
  6
CONTINUOUS
 10
-1.236445
 20
1.874567
  0
VERTEX
  8
PLAN_1
  6
CONTINUOUS
 10
-1.237398
 20
1.875520
  0
SEQEND
  8
0
  0
POLYLINE
  8
PLAN_1
  6
CONTINUOUS
 66
     1
 40
0.005713
 41
0.005713
  0
VERTEX
  8
PLAN_1
  6
CONTINUOUS
 10
-1.237398
 20
1.875520
  0
VERTEX
  8
PLAN_1
  6
CONTINUOUS
 10
-1.445028
 20
1.875520
  0
SEQEND
  8
0
  0
POLYLINE
  8
PLAN_1
  6
CONTINUOUS
 66
     1
 40
0.005713
 41
0.005713
  0
VERTEX
  8
PLAN_1
  6
CONTINUOUS
 10
-1.445028
 20
1.875520
  0
VERTEX
  8
PLAN_1
  6
CONTINUOUS
 10
-1.445980
 20
1.874567
  0
VERTEX
  8
PLAN_1
  6
CONTINUOUS
 10
-1.447886
 20
1.872661
  0
VERTEX
  8
PLAN_1
  6
CONTINUOUS
 10
-1.450268
 20
1.869803
  0
VERTEX
  8
PLAN_1
  6
CONTINUOUS
 10
-1.452173
 20
1.865516
  0
VERTEX
  8
PLAN_1
  6
CONTINUOUS
 10
-1.453122
 20
1.863138
  0
VERTEX
  8
PLAN_1
  6
CONTINUOUS
 10
-1.453122
 20
1.860756
  0
VERTEX
  8
PLAN_1
  6
CONTINUOUS
 10
-1.453598
 20
1.857898
  0
VERTEX
  8
PLAN_1
  6
CONTINUOUS
 10
-1.453122
 20
1.855039
  0
VERTEX
  8
PLAN_1
  6
CONTINUOUS
 10
-1.452173
 20
1.851709
  0
VERTEX
  8
PLAN_1
  6
CONTINUOUS
 10
-1.450268
 20
1.848374
  0
VERTEX
  8
PLAN_1
  6
CONTINUOUS
 10
-1.448362
 20
1.845039
  0
VERTEX
  8
PLAN_1
  6
CONTINUOUS
 10
-1.445028
 20
1.841705
  0
SEQEND
  8
0
  0
POLYLINE
  8
PLAN_1
  6
CONTINUOUS
 66
     1
 40
0.005713
 41
0.005713
  0
VERTEX
  8
PLAN_1
  6
CONTINUOUS
 10
-1.445028
 20
1.841705
  0
VERTEX
  8
PLAN_1
  6
CONTINUOUS
 10
-1.237398
 20
1.841705
  0
SEQEND
  8
0
  0
POLYLINE
  8
PLAN_1
  6
CONTINUOUS
 66
     1
 40
0.005713
 41
0.005713
  0
VERTEX
  8
PLAN_1
  6
CONTINUOUS
 10
-1.237398
 20
1.808370
  0
VERTEX
  8
PLAN_1
  6
CONTINUOUS
 10
-1.233587
 20
1.811705
  0
VERTEX
  8
PLAN_1
  6
CONTINUOUS
 10
-1.231209
 20
1.814563
  0
VERTEX
  8
PLAN_1
  6
CONTINUOUS
 10
-1.229303
 20
1.817898
  0
VERTEX
  8
PLAN_1
  6
CONTINUOUS
 10
-1.228350
 20
1.820752
  0
VERTEX
  8
PLAN_1
  6
CONTINUOUS
 10
-1.227874
 20
1.823610
  0
VERTEX
  8
PLAN_1
  6
CONTINUOUS
 10
-1.227874
 20
1.826469
  0
VERTEX
  8
PLAN_1
  6
CONTINUOUS
 10
-1.228350
 20
1.829327
  0
VERTEX
  8
PLAN_1
  6
CONTINUOUS
 10
-1.229303
 20
1.831705
  0
VERTEX
  8
PLAN_1
  6
CONTINUOUS
 10
-1.231685
 20
1.835992
  0
VERTEX
  8
PLAN_1
  6
CONTINUOUS
 10
-1.234063
 20
1.839327
  0
VERTEX
  8
PLAN_1
  6
CONTINUOUS
 10
-1.236445
 20
1.841228
  0
VERTEX
  8
PLAN_1
  6
CONTINUOUS
 10
-1.237398
 20
1.842181
  0
SEQEND
  8
0
  0
POLYLINE
  8
PLAN_1
  6
CONTINUOUS
 66
     1
 40
0.005713
 41
0.005713
  0
VERTEX
  8
PLAN_1
  6
CONTINUOUS
 10
-1.237398
 20
1.842181
  0
VERTEX
  8
PLAN_1
  6
CONTINUOUS
 10
-1.444551
 20
1.842181
  0
SEQEND
  8
0
  0
POLYLINE
  8
PLAN_1
  6
CONTINUOUS
 66
     1
 40
0.005713
 41
0.005713
  0
VERTEX
  8
PLAN_1
  6
CONTINUOUS
 10
-1.444551
 20
1.842181
  0
VERTEX
  8
PLAN_1
  6
CONTINUOUS
 10
-1.445504
 20
1.841228
  0
VERTEX
  8
PLAN_1
  6
CONTINUOUS
 10
-1.447409
 20
1.839327
  0
VERTEX
  8
PLAN_1
  6
CONTINUOUS
 10
-1.449791
 20
1.836469
  0
VERTEX
  8
PLAN_1
  6
CONTINUOUS
 10
-1.451697
 20
1.832181
  0
VERTEX
  8
PLAN_1
  6
CONTINUOUS
 10
-1.452646
 20
1.829799
  0
VERTEX
  8
PLAN_1
  6
CONTINUOUS
 10
-1.453122
 20
1.826945
  0
VERTEX
  8
PLAN_1
  6
CONTINUOUS
 10
-1.453122
 20
1.824563
  0
VERTEX
  8
PLAN_1
  6
CONTINUOUS
 10
-1.452646
 20
1.821228
  0
VERTEX
  8
PLAN_1
  6
CONTINUOUS
 10
-1.451697
 20
1.818370
  0
VERTEX
  8
PLAN_1
  6
CONTINUOUS
 10
-1.450268
 20
1.815039
  0
VERTEX
  8
PLAN_1
  6
CONTINUOUS
 10
-1.447886
 20
1.811705
  0
VERTEX
  8
PLAN_1
  6
CONTINUOUS
 10
-1.444551
 20
1.808370
  0
SEQEND
  8
0
  0
POLYLINE
  8
PLAN_1
  6
CONTINUOUS
 66
     1
 40
0.005713
 41
0.005713
  0
VERTEX
  8
PLAN_1
  6
CONTINUOUS
 10
-1.444551
 20
1.808370
  0
VERTEX
  8
PLAN_1
  6
CONTINUOUS
 10
-1.237398
 20
1.808370
  0
SEQEND
  8
0
  0
POLYLINE
  8
PLAN_1
  6
CONTINUOUS
 66
     1
 40
0.005713
 41
0.005713
  0
VERTEX
  8
PLAN_1
  6
CONTINUOUS
 10
-1.237398
 20
1.775035
  0
VERTEX
  8
PLAN_1
  6
CONTINUOUS
 10
-1.234063
 20
1.777894
  0
VERTEX
  8
PLAN_1
  6
CONTINUOUS
 10
-1.231685
 20
1.781228
  0
VERTEX
  8
PLAN_1
  6
CONTINUOUS
 10
-1.229780
 20
1.784559
  0
VERTEX
  8
PLAN_1
  6
CONTINUOUS
 10
-1.228827
 20
1.787417
  0
VERTEX
  8
PLAN_1
  6
CONTINUOUS
 10
-1.228350
 20
1.790276
  0
VERTEX
  8
PLAN_1
  6
CONTINUOUS
 10
-1.228350
 20
1.793134
  0
VERTEX
  8
PLAN_1
  6
CONTINUOUS
 10
-1.228827
 20
1.795988
  0
VERTEX
  8
PLAN_1
  6
CONTINUOUS
 10
-1.229780
 20
1.798370
  0
VERTEX
  8
PLAN_1
  6
CONTINUOUS
 10
-1.232161
 20
1.802657
  0
VERTEX
  8
PLAN_1
  6
CONTINUOUS
 10
-1.234539
 20
1.805992
  0
VERTEX
  8
PLAN_1
  6
CONTINUOUS
 10
-1.236445
 20
1.807894
  0
VERTEX
  8
PLAN_1
  6
CONTINUOUS
 10
-1.237398
 20
1.808370
  0
SEQEND
  8
0
  0
POLYLINE
  8
PLAN_1
  6
CONTINUOUS
 66
     1
 40
0.005713
 41
0.005713
  0
VERTEX
  8
PLAN_1
  6
CONTINUOUS
 10
-1.237398
 20
1.808370
  0
VERTEX
  8
PLAN_1
  6
CONTINUOUS
 10
-1.445028
 20
1.808370
  0
SEQEND
  8
0
  0
POLYLINE
  8
PLAN_1
  6
CONTINUOUS
 66
     1
 40
0.005713
 41
0.005713
  0
VERTEX
  8
PLAN_1
  6
CONTINUOUS
 10
-1.445028
 20
1.808370
  0
VERTEX
  8
PLAN_1
  6
CONTINUOUS
 10
-1.445980
 20
1.807894
  0
VERTEX
  8
PLAN_1
  6
CONTINUOUS
 10
-1.447886
 20
1.805992
  0
VERTEX
  8
PLAN_1
  6
CONTINUOUS
 10
-1.450268
 20
1.802657
  0
VERTEX
  8
PLAN_1
  6
CONTINUOUS
 10
-1.452173
 20
1.798846
  0
VERTEX
  8
PLAN_1
  6
CONTINUOUS
 10
-1.453122
 20
1.796465
  0
VERTEX
  8
PLAN_1
  6
CONTINUOUS
 10
-1.453122
 20
1.793610
  0
VERTEX
  8
PLAN_1
  6
CONTINUOUS
 10
-1.453598
 20
1.790752
  0
VERTEX
  8
PLAN_1
  6
CONTINUOUS
 10
-1.453122
 20
1.787894
  0
VERTEX
  8
PLAN_1
  6
CONTINUOUS
 10
-1.452173
 20
1.785035
  0
VERTEX
  8
PLAN_1
  6
CONTINUOUS
 10
-1.450268
 20
1.781705
  0
VERTEX
  8
PLAN_1
  6
CONTINUOUS
 10
-1.448362
 20
1.778370
  0
VERTEX
  8
PLAN_1
  6
CONTINUOUS
 10
-1.445028
 20
1.775035
  0
SEQEND
  8
0
  0
POLYLINE
  8
PLAN_1
  6
CONTINUOUS
 66
     1
 40
0.005713
 41
0.005713
  0
VERTEX
  8
PLAN_1
  6
CONTINUOUS
 10
-1.445028
 20
1.775035
  0
VERTEX
  8
PLAN_1
  6
CONTINUOUS
 10
-1.237398
 20
1.775035
  0
SEQEND
  8
0
  0
POLYLINE
  8
PLAN_1
  6
CONTINUOUS
 66
     1
 40
0.005713
 41
0.005713
  0
VERTEX
  8
PLAN_1
  6
CONTINUOUS
 10
-1.237398
 20
1.741224
  0
VERTEX
  8
PLAN_1
  6
CONTINUOUS
 10
-1.233587
 20
1.744559
  0
VERTEX
  8
PLAN_1
  6
CONTINUOUS
 10
-1.231209
 20
1.747894
  0
VERTEX
  8
PLAN_1
  6
CONTINUOUS
 10
-1.229303
 20
1.750748
  0
VERTEX
  8
PLAN_1
  6
CONTINUOUS
 10
-1.228350
 20
1.754083
  0
VERTEX
  8
PLAN_1
  6
CONTINUOUS
 10
-1.227874
 20
1.756941
  0
VERTEX
  8
PLAN_1
  6
CONTINUOUS
 10
-1.227874
 20
1.759799
  0
VERTEX
  8
PLAN_1
  6
CONTINUOUS
 10
-1.228350
 20
1.762177
  0
VERTEX
  8
PLAN_1
  6
CONTINUOUS
 10
-1.229303
 20
1.765035
  0
VERTEX
  8
PLAN_1
  6
CONTINUOUS
 10
-1.231685
 20
1.768846
  0
VERTEX
  8
PLAN_1
  6
CONTINUOUS
 10
-1.234063
 20
1.772177
  0
VERTEX
  8
PLAN_1
  6
CONTINUOUS
 10
-1.236445
 20
1.774559
  0
VERTEX
  8
PLAN_1
  6
CONTINUOUS
 10
-1.237398
 20
1.775035
  0
SEQEND
  8
0
  0
POLYLINE
  8
PLAN_1
  6
CONTINUOUS
 66
     1
 40
0.005713
 41
0.005713
  0
VERTEX
  8
PLAN_1
  6
CONTINUOUS
 10
-1.237398
 20
1.775035
  0
VERTEX
  8
PLAN_1
  6
CONTINUOUS
 10
-1.444551
 20
1.775035
  0
SEQEND
  8
0
  0
POLYLINE
  8
PLAN_1
  6
CONTINUOUS
 66
     1
 40
0.005713
 41
0.005713
  0
VERTEX
  8
PLAN_1
  6
CONTINUOUS
 10
-1.444551
 20
1.775035
  0
VERTEX
  8
PLAN_1
  6
CONTINUOUS
 10
-1.445504
 20
1.774559
  0
VERTEX
  8
PLAN_1
  6
CONTINUOUS
 10
-1.447409
 20
1.772654
  0
VERTEX
  8
PLAN_1
  6
CONTINUOUS
 10
-1.449791
 20
1.769323
  0
VERTEX
  8
PLAN_1
  6
CONTINUOUS
 10
-1.451697
 20
1.765035
  0
VERTEX
  8
PLAN_1
  6
CONTINUOUS
 10
-1.452646
 20
1.762654
  0
VERTEX
  8
PLAN_1
  6
CONTINUOUS
 10
-1.453122
 20
1.760272
  0
VERTEX
  8
PLAN_1
  6
CONTINUOUS
 10
-1.453122
 20
1.757417
  0
VERTEX
  8
PLAN_1
  6
CONTINUOUS
 10
-1.452646
 20
1.754559
  0
VERTEX
  8
PLAN_1
  6
CONTINUOUS
 10
-1.451697
 20
1.751224
  0
VERTEX
  8
PLAN_1
  6
CONTINUOUS
 10
-1.450268
 20
1.748370
  0
VERTEX
  8
PLAN_1
  6
CONTINUOUS
 10
-1.447886
 20
1.745035
  0
VERTEX
  8
PLAN_1
  6
CONTINUOUS
 10
-1.444551
 20
1.741224
  0
SEQEND
  8
0
  0
POLYLINE
  8
PLAN_1
  6
CONTINUOUS
 66
     1
 40
0.005713
 41
0.005713
  0
VERTEX
  8
PLAN_1
  6
CONTINUOUS
 10
-1.444551
 20
1.741224
  0
VERTEX
  8
PLAN_1
  6
CONTINUOUS
 10
-1.237398
 20
1.741224
  0
SEQEND
  8
0
  0
POLYLINE
  8
PLAN_1
  6
CONTINUOUS
 66
     1
 40
0.005713
 41
0.005713
  0
VERTEX
  8
PLAN_1
  6
CONTINUOUS
 10
-1.237398
 20
1.707890
  0
VERTEX
  8
PLAN_1
  6
CONTINUOUS
 10
-1.234063
 20
1.711224
  0
VERTEX
  8
PLAN_1
  6
CONTINUOUS
 10
-1.231685
 20
1.714555
  0
VERTEX
  8
PLAN_1
  6
CONTINUOUS
 10
-1.229780
 20
1.717413
  0
VERTEX
  8
PLAN_1
  6
CONTINUOUS
 10
-1.228827
 20
1.720748
  0
VERTEX
  8
PLAN_1
  6
CONTINUOUS
 10
-1.228350
 20
1.723606
  0
VERTEX
  8
PLAN_1
  6
CONTINUOUS
 10
-1.228350
 20
1.726461
  0
VERTEX
  8
PLAN_1
  6
CONTINUOUS
 10
-1.228827
 20
1.728843
  0
VERTEX
  8
PLAN_1
  6
CONTINUOUS
 10
-1.229780
 20
1.731224
  0
VERTEX
  8
PLAN_1
  6
CONTINUOUS
 10
-1.232161
 20
1.735512
  0
VERTEX
  8
PLAN_1
  6
CONTINUOUS
 10
-1.234539
 20
1.738843
  0
VERTEX
  8
PLAN_1
  6
CONTINUOUS
 10
-1.236445
 20
1.740748
  0
VERTEX
  8
PLAN_1
  6
CONTINUOUS
 10
-1.237398
 20
1.741701
  0
SEQEND
  8
0
  0
POLYLINE
  8
PLAN_1
  6
CONTINUOUS
 66
     1
 40
0.005713
 41
0.005713
  0
VERTEX
  8
PLAN_1
  6
CONTINUOUS
 10
-1.237398
 20
1.741701
  0
VERTEX
  8
PLAN_1
  6
CONTINUOUS
 10
-1.445028
 20
1.741701
  0
SEQEND
  8
0
  0
POLYLINE
  8
PLAN_1
  6
CONTINUOUS
 66
     1
 40
0.005713
 41
0.005713
  0
VERTEX
  8
PLAN_1
  6
CONTINUOUS
 10
-1.445028
 20
1.741701
  0
VERTEX
  8
PLAN_1
  6
CONTINUOUS
 10
-1.445980
 20
1.740748
  0
VERTEX
  8
PLAN_1
  6
CONTINUOUS
 10
-1.447886
 20
1.738843
  0
VERTEX
  8
PLAN_1
  6
CONTINUOUS
 10
-1.450268
 20
1.735988
  0
VERTEX
  8
PLAN_1
  6
CONTINUOUS
 10
-1.452173
 20
1.731701
  0
VERTEX
  8
PLAN_1
  6
CONTINUOUS
 10
-1.453122
 20
1.729319
  0
VERTEX
  8
PLAN_1
  6
CONTINUOUS
 10
-1.453122
 20
1.726937
  0
VERTEX
  8
PLAN_1
  6
CONTINUOUS
 10
-1.453598
 20
1.724083
  0
VERTEX
  8
PLAN_1
  6
CONTINUOUS
 10
-1.453122
 20
1.721224
  0
VERTEX
  8
PLAN_1
  6
CONTINUOUS
 10
-1.452173
 20
1.717890
  0
VERTEX
  8
PLAN_1
  6
CONTINUOUS
 10
-1.450268
 20
1.714555
  0
VERTEX
  8
PLAN_1
  6
CONTINUOUS
 10
-1.448362
 20
1.711224
  0
VERTEX
  8
PLAN_1
  6
CONTINUOUS
 10
-1.445028
 20
1.707890
  0
SEQEND
  8
0
  0
POLYLINE
  8
PLAN_1
  6
CONTINUOUS
 66
     1
 40
0.005713
 41
0.005713
  0
VERTEX
  8
PLAN_1
  6
CONTINUOUS
 10
-1.445028
 20
1.707890
  0
VERTEX
  8
PLAN_1
  6
CONTINUOUS
 10
-1.237398
 20
1.707890
  0
SEQEND
  8
0
  0
POLYLINE
  8
PLAN_1
  6
CONTINUOUS
 66
     1
 40
0.005713
 41
0.005713
  0
VERTEX
  8
PLAN_1
  6
CONTINUOUS
 10
-1.237398
 20
1.674555
  0
VERTEX
  8
PLAN_1
  6
CONTINUOUS
 10
-1.233587
 20
1.677890
  0
VERTEX
  8
PLAN_1
  6
CONTINUOUS
 10
-1.231209
 20
1.680744
  0
VERTEX
  8
PLAN_1
  6
CONTINUOUS
 10
-1.229303
 20
1.684079
  0
VERTEX
  8
PLAN_1
  6
CONTINUOUS
 10
-1.228350
 20
1.686937
  0
VERTEX
  8
PLAN_1
  6
CONTINUOUS
 10
-1.227874
 20
1.690272
  0
VERTEX
  8
PLAN_1
  6
CONTINUOUS
 10
-1.227874
 20
1.692650
  0
VERTEX
  8
PLAN_1
  6
CONTINUOUS
 10
-1.228350
 20
1.695508
  0
VERTEX
  8
PLAN_1
  6
CONTINUOUS
 10
-1.229303
 20
1.697890
  0
VERTEX
  8
PLAN_1
  6
CONTINUOUS
 10
-1.231685
 20
1.702177
  0
VERTEX
  8
PLAN_1
  6
CONTINUOUS
 10
-1.234063
 20
1.705508
  0
VERTEX
  8
PLAN_1
  6
CONTINUOUS
 10
-1.236445
 20
1.707413
  0
VERTEX
  8
PLAN_1
  6
CONTINUOUS
 10
-1.237398
 20
1.708366
  0
SEQEND
  8
0
  0
POLYLINE
  8
PLAN_1
  6
CONTINUOUS
 66
     1
 40
0.005713
 41
0.005713
  0
VERTEX
  8
PLAN_1
  6
CONTINUOUS
 10
-1.237398
 20
1.708366
  0
VERTEX
  8
PLAN_1
  6
CONTINUOUS
 10
-1.444551
 20
1.708366
  0
SEQEND
  8
0
  0
POLYLINE
  8
PLAN_1
  6
CONTINUOUS
 66
     1
 40
0.005713
 41
0.005713
  0
VERTEX
  8
PLAN_1
  6
CONTINUOUS
 10
-1.444551
 20
1.708366
  0
VERTEX
  8
PLAN_1
  6
CONTINUOUS
 10
-1.445504
 20
1.707413
  0
VERTEX
  8
PLAN_1
  6
CONTINUOUS
 10
-1.447409
 20
1.705508
  0
VERTEX
  8
PLAN_1
  6
CONTINUOUS
 10
-1.449791
 20
1.702650
  0
VERTEX
  8
PLAN_1
  6
CONTINUOUS
 10
-1.451697
 20
1.698366
  0
VERTEX
  8
PLAN_1
  6
CONTINUOUS
 10
-1.452646
 20
1.695984
  0
VERTEX
  8
PLAN_1
  6
CONTINUOUS
 10
-1.453122
 20
1.693602
  0
VERTEX
  8
PLAN_1
  6
CONTINUOUS
 10
-1.453122
 20
1.690748
  0
VERTEX
  8
PLAN_1
  6
CONTINUOUS
 10
-1.452646
 20
1.687413
  0
VERTEX
  8
PLAN_1
  6
CONTINUOUS
 10
-1.451697
 20
1.684555
  0
VERTEX
  8
PLAN_1
  6
CONTINUOUS
 10
-1.450268
 20
1.681220
  0
VERTEX
  8
PLAN_1
  6
CONTINUOUS
 10
-1.447886
 20
1.677890
  0
VERTEX
  8
PLAN_1
  6
CONTINUOUS
 10
-1.444551
 20
1.674555
  0
SEQEND
  8
0
  0
POLYLINE
  8
PLAN_1
  6
CONTINUOUS
 66
     1
 40
0.005713
 41
0.005713
  0
VERTEX
  8
PLAN_1
  6
CONTINUOUS
 10
-1.444551
 20
1.674555
  0
VERTEX
  8
PLAN_1
  6
CONTINUOUS
 10
-1.237398
 20
1.674555
  0
SEQEND
  8
0
  0
POLYLINE
  8
PLAN_1
  6
CONTINUOUS
 66
     1
 40
0.005713
 41
0.005713
  0
VERTEX
  8
PLAN_1
  6
CONTINUOUS
 10
-1.237398
 20
1.641220
  0
VERTEX
  8
PLAN_1
  6
CONTINUOUS
 10
-1.234063
 20
1.644079
  0
VERTEX
  8
PLAN_1
  6
CONTINUOUS
 10
-1.231685
 20
1.647409
  0
VERTEX
  8
PLAN_1
  6
CONTINUOUS
 10
-1.229780
 20
1.650744
  0
VERTEX
  8
PLAN_1
  6
CONTINUOUS
 10
-1.228827
 20
1.653602
  0
VERTEX
  8
PLAN_1
  6
CONTINUOUS
 10
-1.228350
 20
1.656457
  0
VERTEX
  8
PLAN_1
  6
CONTINUOUS
 10
-1.228350
 20
1.659315
  0
VERTEX
  8
PLAN_1
  6
CONTINUOUS
 10
-1.228827
 20
1.662173
  0
VERTEX
  8
PLAN_1
  6
CONTINUOUS
 10
-1.229780
 20
1.664555
  0
VERTEX
  8
PLAN_1
  6
CONTINUOUS
 10
-1.232161
 20
1.668839
  0
VERTEX
  8
PLAN_1
  6
CONTINUOUS
 10
-1.234539
 20
1.672173
  0
VERTEX
  8
PLAN_1
  6
CONTINUOUS
 10
-1.236445
 20
1.674079
  0
VERTEX
  8
PLAN_1
  6
CONTINUOUS
 10
-1.237398
 20
1.674555
  0
SEQEND
  8
0
  0
POLYLINE
  8
PLAN_1
  6
CONTINUOUS
 66
     1
 40
0.005713
 41
0.005713
  0
VERTEX
  8
PLAN_1
  6
CONTINUOUS
 10
-1.237398
 20
1.674555
  0
VERTEX
  8
PLAN_1
  6
CONTINUOUS
 10
-1.445028
 20
1.674555
  0
SEQEND
  8
0
  0
POLYLINE
  8
PLAN_1
  6
CONTINUOUS
 66
     1
 40
0.005713
 41
0.005713
  0
VERTEX
  8
PLAN_1
  6
CONTINUOUS
 10
-1.445028
 20
1.674555
  0
VERTEX
  8
PLAN_1
  6
CONTINUOUS
 10
-1.445980
 20
1.674079
  0
VERTEX
  8
PLAN_1
  6
CONTINUOUS
 10
-1.447886
 20
1.672173
  0
VERTEX
  8
PLAN_1
  6
CONTINUOUS
 10
-1.450268
 20
1.668839
  0
VERTEX
  8
PLAN_1
  6
CONTINUOUS
 10
-1.452173
 20
1.665031
  0
VERTEX
  8
PLAN_1
  6
CONTINUOUS
 10
-1.453122
 20
1.662650
  0
VERTEX
  8
PLAN_1
  6
CONTINUOUS
 10
-1.453122
 20
1.659791
  0
VERTEX
  8
PLAN_1
  6
CONTINUOUS
 10
-1.453598
 20
1.656933
  0
VERTEX
  8
PLAN_1
  6
CONTINUOUS
 10
-1.453122
 20
1.654079
  0
VERTEX
  8
PLAN_1
  6
CONTINUOUS
 10
-1.452173
 20
1.651220
  0
VERTEX
  8
PLAN_1
  6
CONTINUOUS
 10
-1.450268
 20
1.647886
  0
VERTEX
  8
PLAN_1
  6
CONTINUOUS
 10
-1.448362
 20
1.644555
  0
VERTEX
  8
PLAN_1
  6
CONTINUOUS
 10
-1.445028
 20
1.641220
  0
SEQEND
  8
0
  0
POLYLINE
  8
PLAN_1
  6
CONTINUOUS
 66
     1
 40
0.005713
 41
0.005713
  0
VERTEX
  8
PLAN_1
  6
CONTINUOUS
 10
-1.445028
 20
1.641220
  0
VERTEX
  8
PLAN_1
  6
CONTINUOUS
 10
-1.237398
 20
1.641220
  0
SEQEND
  8
0
  0
POLYLINE
  8
PLAN_1
  6
CONTINUOUS
 66
     1
 40
0.005713
 41
0.005713
  0
VERTEX
  8
PLAN_1
  6
CONTINUOUS
 10
-1.237398
 20
1.607409
  0
VERTEX
  8
PLAN_1
  6
CONTINUOUS
 10
-1.233587
 20
1.610740
  0
VERTEX
  8
PLAN_1
  6
CONTINUOUS
 10
-1.231209
 20
1.614075
  0
VERTEX
  8
PLAN_1
  6
CONTINUOUS
 10
-1.229303
 20
1.617409
  0
VERTEX
  8
PLAN_1
  6
CONTINUOUS
 10
-1.228350
 20
1.620268
  0
VERTEX
  8
PLAN_1
  6
CONTINUOUS
 10
-1.227874
 20
1.623122
  0
VERTEX
  8
PLAN_1
  6
CONTINUOUS
 10
-1.227874
 20
1.625980
  0
VERTEX
  8
PLAN_1
  6
CONTINUOUS
 10
-1.228350
 20
1.628362
  0
VERTEX
  8
PLAN_1
  6
CONTINUOUS
 10
-1.229303
 20
1.631220
  0
VERTEX
  8
PLAN_1
  6
CONTINUOUS
 10
-1.231685
 20
1.635028
  0
VERTEX
  8
PLAN_1
  6
CONTINUOUS
 10
-1.234063
 20
1.638362
  0
VERTEX
  8
PLAN_1
  6
CONTINUOUS
 10
-1.236445
 20
1.640744
  0
VERTEX
  8
PLAN_1
  6
CONTINUOUS
 10
-1.237398
 20
1.641220
  0
SEQEND
  8
0
  0
POLYLINE
  8
PLAN_1
  6
CONTINUOUS
 66
     1
 40
0.005713
 41
0.005713
  0
VERTEX
  8
PLAN_1
  6
CONTINUOUS
 10
-1.237398
 20
1.641220
  0
VERTEX
  8
PLAN_1
  6
CONTINUOUS
 10
-1.444551
 20
1.641220
  0
SEQEND
  8
0
  0
POLYLINE
  8
PLAN_1
  6
CONTINUOUS
 66
     1
 40
0.005713
 41
0.005713
  0
VERTEX
  8
PLAN_1
  6
CONTINUOUS
 10
-1.444551
 20
1.641220
  0
VERTEX
  8
PLAN_1
  6
CONTINUOUS
 10
-1.445504
 20
1.640744
  0
VERTEX
  8
PLAN_1
  6
CONTINUOUS
 10
-1.447409
 20
1.638839
  0
VERTEX
  8
PLAN_1
  6
CONTINUOUS
 10
-1.449791
 20
1.635504
  0
VERTEX
  8
PLAN_1
  6
CONTINUOUS
 10
-1.451697
 20
1.631697
  0
VERTEX
  8
PLAN_1
  6
CONTINUOUS
 10
-1.452646
 20
1.629315
  0
VERTEX
  8
PLAN_1
  6
CONTINUOUS
 10
-1.453122
 20
1.626457
  0
VERTEX
  8
PLAN_1
  6
CONTINUOUS
 10
-1.453122
 20
1.623598
  0
VERTEX
  8
PLAN_1
  6
CONTINUOUS
 10
-1.452646
 20
1.620744
  0
VERTEX
  8
PLAN_1
  6
CONTINUOUS
 10
-1.451697
 20
1.617886
  0
VERTEX
  8
PLAN_1
  6
CONTINUOUS
 10
-1.450268
 20
1.614551
  0
VERTEX
  8
PLAN_1
  6
CONTINUOUS
 10
-1.447886
 20
1.611217
  0
VERTEX
  8
PLAN_1
  6
CONTINUOUS
 10
-1.444551
 20
1.607409
  0
SEQEND
  8
0
  0
POLYLINE
  8
PLAN_1
  6
CONTINUOUS
 66
     1
 40
0.005713
 41
0.005713
  0
VERTEX
  8
PLAN_1
  6
CONTINUOUS
 10
-1.444551
 20
1.607409
  0
VERTEX
  8
PLAN_1
  6
CONTINUOUS
 10
-1.237398
 20
1.607409
  0
SEQEND
  8
0
  0
POLYLINE
  8
PLAN_1
  6
CONTINUOUS
 66
     1
 40
0.005713
 41
0.005713
  0
VERTEX
  8
PLAN_1
  6
CONTINUOUS
 10
-1.237398
 20
1.574075
  0
VERTEX
  8
PLAN_1
  6
CONTINUOUS
 10
-1.234063
 20
1.577406
  0
VERTEX
  8
PLAN_1
  6
CONTINUOUS
 10
-1.231685
 20
1.580740
  0
VERTEX
  8
PLAN_1
  6
CONTINUOUS
 10
-1.229780
 20
1.583598
  0
VERTEX
  8
PLAN_1
  6
CONTINUOUS
 10
-1.228827
 20
1.586933
  0
VERTEX
  8
PLAN_1
  6
CONTINUOUS
 10
-1.228350
 20
1.589787
  0
VERTEX
  8
PLAN_1
  6
CONTINUOUS
 10
-1.228350
 20
1.592646
  0
VERTEX
  8
PLAN_1
  6
CONTINUOUS
 10
-1.228827
 20
1.595028
  0
VERTEX
  8
PLAN_1
  6
CONTINUOUS
 10
-1.229780
 20
1.597409
  0
VERTEX
  8
PLAN_1
  6
CONTINUOUS
 10
-1.232161
 20
1.601693
  0
VERTEX
  8
PLAN_1
  6
CONTINUOUS
 10
-1.234539
 20
1.605028
  0
VERTEX
  8
PLAN_1
  6
CONTINUOUS
 10
-1.236445
 20
1.606933
  0
VERTEX
  8
PLAN_1
  6
CONTINUOUS
 10
-1.237398
 20
1.607886
  0
SEQEND
  8
0
  0
POLYLINE
  8
PLAN_1
  6
CONTINUOUS
 66
     1
 40
0.005713
 41
0.005713
  0
VERTEX
  8
PLAN_1
  6
CONTINUOUS
 10
-1.237398
 20
1.607886
  0
VERTEX
  8
PLAN_1
  6
CONTINUOUS
 10
-1.445028
 20
1.607886
  0
SEQEND
  8
0
  0
POLYLINE
  8
PLAN_1
  6
CONTINUOUS
 66
     1
 40
0.005713
 41
0.005713
  0
VERTEX
  8
PLAN_1
  6
CONTINUOUS
 10
-1.445028
 20
1.607886
  0
VERTEX
  8
PLAN_1
  6
CONTINUOUS
 10
-1.445980
 20
1.607409
  0
VERTEX
  8
PLAN_1
  6
CONTINUOUS
 10
-1.447886
 20
1.605028
  0
VERTEX
  8
PLAN_1
  6
CONTINUOUS
 10
-1.450268
 20
1.602169
  0
VERTEX
  8
PLAN_1
  6
CONTINUOUS
 10
-1.452173
 20
1.597886
  0
VERTEX
  8
PLAN_1
  6
CONTINUOUS
 10
-1.453122
 20
1.595504
  0
VERTEX
  8
PLAN_1
  6
CONTINUOUS
 10
-1.453122
 20
1.593122
  0
VERTEX
  8
PLAN_1
  6
CONTINUOUS
 10
-1.453598
 20
1.590264
  0
VERTEX
  8
PLAN_1
  6
CONTINUOUS
 10
-1.453122
 20
1.587406
  0
VERTEX
  8
PLAN_1
  6
CONTINUOUS
 10
-1.452173
 20
1.584075
  0
VERTEX
  8
PLAN_1
  6
CONTINUOUS
 10
-1.450268
 20
1.580740
  0
VERTEX
  8
PLAN_1
  6
CONTINUOUS
 10
-1.448362
 20
1.577406
  0
VERTEX
  8
PLAN_1
  6
CONTINUOUS
 10
-1.445028
 20
1.574075
  0
SEQEND
  8
0
  0
POLYLINE
  8
PLAN_1
  6
CONTINUOUS
 66
     1
 40
0.005713
 41
0.005713
  0
VERTEX
  8
PLAN_1
  6
CONTINUOUS
 10
-1.445028
 20
1.574075
  0
VERTEX
  8
PLAN_1
  6
CONTINUOUS
 10
-1.237398
 20
1.574075
  0
SEQEND
  8
0
  0
POLYLINE
  8
PLAN_1
  6
CONTINUOUS
 66
     1
 40
0.005713
 41
0.005713
  0
VERTEX
  8
PLAN_1
  6
CONTINUOUS
 10
-1.237398
 20
1.540740
  0
VERTEX
  8
PLAN_1
  6
CONTINUOUS
 10
-1.233587
 20
1.544071
  0
VERTEX
  8
PLAN_1
  6
CONTINUOUS
 10
-1.231209
 20
1.546929
  0
VERTEX
  8
PLAN_1
  6
CONTINUOUS
 10
-1.229303
 20
1.550264
  0
VERTEX
  8
PLAN_1
  6
CONTINUOUS
 10
-1.228350
 20
1.553118
  0
VERTEX
  8
PLAN_1
  6
CONTINUOUS
 10
-1.227874
 20
1.556453
  0
VERTEX
  8
PLAN_1
  6
CONTINUOUS
 10
-1.227874
 20
1.558835
  0
VERTEX
  8
PLAN_1
  6
CONTINUOUS
 10
-1.228350
 20
1.561693
  0
VERTEX
  8
PLAN_1
  6
CONTINUOUS
 10
-1.229303
 20
1.564075
  0
VERTEX
  8
PLAN_1
  6
CONTINUOUS
 10
-1.231685
 20
1.568358
  0
VERTEX
  8
PLAN_1
  6
CONTINUOUS
 10
-1.234063
 20
1.571693
  0
VERTEX
  8
PLAN_1
  6
CONTINUOUS
 10
-1.236445
 20
1.573598
  0
VERTEX
  8
PLAN_1
  6
CONTINUOUS
 10
-1.237398
 20
1.574551
  0
SEQEND
  8
0
  0
POLYLINE
  8
PLAN_1
  6
CONTINUOUS
 66
     1
 40
0.005713
 41
0.005713
  0
VERTEX
  8
PLAN_1
  6
CONTINUOUS
 10
-1.237398
 20
1.574551
  0
VERTEX
  8
PLAN_1
  6
CONTINUOUS
 10
-1.444551
 20
1.574551
  0
SEQEND
  8
0
  0
POLYLINE
  8
PLAN_1
  6
CONTINUOUS
 66
     1
 40
0.005713
 41
0.005713
  0
VERTEX
  8
PLAN_1
  6
CONTINUOUS
 10
-1.444551
 20
1.574551
  0
VERTEX
  8
PLAN_1
  6
CONTINUOUS
 10
-1.445504
 20
1.573598
  0
VERTEX
  8
PLAN_1
  6
CONTINUOUS
 10
-1.447409
 20
1.571693
  0
VERTEX
  8
PLAN_1
  6
CONTINUOUS
 10
-1.449791
 20
1.568835
  0
VERTEX
  8
PLAN_1
  6
CONTINUOUS
 10
-1.451697
 20
1.564547
  0
VERTEX
  8
PLAN_1
  6
CONTINUOUS
 10
-1.452646
 20
1.562169
  0
VERTEX
  8
PLAN_1
  6
CONTINUOUS
 10
-1.453122
 20
1.559787
  0
VERTEX
  8
PLAN_1
  6
CONTINUOUS
 10
-1.453122
 20
1.556929
  0
VERTEX
  8
PLAN_1
  6
CONTINUOUS
 10
-1.452646
 20
1.554071
  0
VERTEX
  8
PLAN_1
  6
CONTINUOUS
 10
-1.451697
 20
1.550740
  0
VERTEX
  8
PLAN_1
  6
CONTINUOUS
 10
-1.450268
 20
1.547406
  0
VERTEX
  8
PLAN_1
  6
CONTINUOUS
 10
-1.447886
 20
1.544071
  0
VERTEX
  8
PLAN_1
  6
CONTINUOUS
 10
-1.444551
 20
1.540740
  0
SEQEND
  8
0
  0
POLYLINE
  8
PLAN_1
  6
CONTINUOUS
 66
     1
 40
0.005713
 41
0.005713
  0
VERTEX
  8
PLAN_1
  6
CONTINUOUS
 10
-1.444551
 20
1.540740
  0
VERTEX
  8
PLAN_1
  6
CONTINUOUS
 10
-1.237398
 20
1.540740
  0
SEQEND
  8
0
  0
POLYLINE
  8
PLAN_1
  6
CONTINUOUS
 66
     1
 40
0.004283
 41
0.004283
  0
VERTEX
  8
PLAN_1
  6
CONTINUOUS
 10
-1.576465
 20
2.839378
  0
VERTEX
  8
PLAN_1
  6
CONTINUOUS
 10
-1.247874
 20
3.029386
  0
SEQEND
  8
0
  0
POLYLINE
  8
PLAN_1
  6
CONTINUOUS
 66
     1
 40
0.004283
 41
0.004283
  0
VERTEX
  8
PLAN_1
  6
CONTINUOUS
 10
-1.575512
 20
2.731752
  0
VERTEX
  8
PLAN_1
  6
CONTINUOUS
 10
-1.244543
 20
2.921764
  0
SEQEND
  8
0
  0
POLYLINE
  8
PLAN_1
  6
CONTINUOUS
 66
     1
 40
0.008094
 41
0.008094
  0
VERTEX
  8
PLAN_1
  6
CONTINUOUS
 10
-1.703614
 20
0.022563
  0
VERTEX
  8
PLAN_1
  6
CONTINUOUS
 10
-0.975004
 20
0.022563
  0
SEQEND
  8
0
  0
POLYLINE
  8
PLAN_1
 62
     2
  6
CONTINUOUS
 66
     1
 40
0.004283
 41
0.004283
  0
VERTEX
  8
PLAN_1
 62
     2
  6
CONTINUOUS
 10
-1.383594
 20
3.711327
  0
VERTEX
  8
PLAN_1
 62
     2
  6
CONTINUOUS
 10
-0.891665
 20
3.711327
  0
SEQEND
  8
0
  0
SOLID
  8
PLAN_1
 62
     2
 10
-0.862142
 20
3.711327
 11
-0.921193
 21
3.727043
 12
-0.862142
 22
3.711327
 13
-0.921193
 23
3.695614
  0
POLYLINE
  8
PLAN_1
 62
     2
  6
CONTINUOUS
 66
     1
 40
0.003000
 41
0.003000
  0
VERTEX
  8
PLAN_1
 62
     2
  6
CONTINUOUS
 10
-0.862142
 20
3.711327
  0
VERTEX
  8
PLAN_1
 62
     2
  6
CONTINUOUS
 10
-0.921193
 20
3.727043
  0
VERTEX
  8
PLAN_1
 62
     2
  6
CONTINUOUS
 10
-0.921193
 20
3.695614
  0
VERTEX
  8
PLAN_1
 62
     2
  6
CONTINUOUS
 10
-0.862142
 20
3.711327
  0
SEQEND
  8
0
  0
SOLID
  8
PLAN_1
 62
     2
 10
-1.413122
 20
3.711327
 11
-1.354071
 21
3.727043
 12
-1.413122
 22
3.711327
 13
-1.354071
 23
3.695614
  0
POLYLINE
  8
PLAN_1
 62
     2
  6
CONTINUOUS
 66
     1
 40
0.003000
 41
0.003000
  0
VERTEX
  8
PLAN_1
 62
     2
  6
CONTINUOUS
 10
-1.413122
 20
3.711327
  0
VERTEX
  8
PLAN_1
 62
     2
  6
CONTINUOUS
 10
-1.354071
 20
3.727043
  0
VERTEX
  8
PLAN_1
 62
     2
  6
CONTINUOUS
 10
-1.354071
 20
3.695614
  0
VERTEX
  8
PLAN_1
 62
     2
  6
CONTINUOUS
 10
-1.413122
 20
3.711327
  0
SEQEND
  8
0
  0
POLYLINE
  8
PLAN_1
 62
     2
  6
CONTINUOUS
 66
     1
 40
0.003000
 41
0.003000
  0
VERTEX
  8
PLAN_1
 62
     2
  6
CONTINUOUS
 10
-1.157870
 20
3.734661
  0
VERTEX
  8
PLAN_1
 62
     2
  6
CONTINUOUS
 10
-1.167870
 20
3.734661
  0
VERTEX
  8
PLAN_1
 62
     2
  6
CONTINUOUS
 10
-1.167870
 20
3.786571
  0
VERTEX
  8
PLAN_1
 62
     2
  6
CONTINUOUS
 10
-1.185016
 20
3.786571
  0
VERTEX
  8
PLAN_1
 62
     2
  6
CONTINUOUS
 10
-1.185016
 20
3.794189
  0
VERTEX
  8
PLAN_1
 62
     2
  6
CONTINUOUS
 10
-1.180728
 20
3.794189
  0
VERTEX
  8
PLAN_1
 62
     2
  6
CONTINUOUS
 10
-1.177394
 20
3.795142
  0
VERTEX
  8
PLAN_1
 62
     2
  6
CONTINUOUS
 10
-1.174063
 20
3.795618
  0
VERTEX
  8
PLAN_1
 62
     2
  6
CONTINUOUS
 10
-1.171681
 20
3.797047
  0
VERTEX
  8
PLAN_1
 62
     2
  6
CONTINUOUS
 10
-1.169776
 20
3.798476
  0
VERTEX
  8
PLAN_1
 62
     2
  6
CONTINUOUS
 10
-1.167870
 20
3.800858
  0
VERTEX
  8
PLAN_1
 62
     2
  6
CONTINUOUS
 10
-1.166441
 20
3.804189
  0
VERTEX
  8
PLAN_1
 62
     2
  6
CONTINUOUS
 10
-1.165012
 20
3.808000
  0
VERTEX
  8
PLAN_1
 62
     2
  6
CONTINUOUS
 10
-1.157870
 20
3.808000
  0
VERTEX
  8
PLAN_1
 62
     2
  6
CONTINUOUS
 10
-1.157870
 20
3.734661
  0
SEQEND
  8
0
  0
POLYLINE
  8
PLAN_1
 62
     2
  6
CONTINUOUS
 66
     1
 40
0.003000
 41
0.003000
  0
VERTEX
  8
PLAN_1
 62
     2
  6
CONTINUOUS
 10
-1.093583
 20
3.752760
  0
VERTEX
  8
PLAN_1
 62
     2
  6
CONTINUOUS
 10
-1.093583
 20
3.734661
  0
VERTEX
  8
PLAN_1
 62
     2
  6
CONTINUOUS
 10
-1.103106
 20
3.734661
  0
VERTEX
  8
PLAN_1
 62
     2
  6
CONTINUOUS
 10
-1.103106
 20
3.752760
  0
VERTEX
  8
PLAN_1
 62
     2
  6
CONTINUOUS
 10
-1.135012
 20
3.752760
  0
VERTEX
  8
PLAN_1
 62
     2
  6
CONTINUOUS
 10
-1.135012
 20
3.761807
  0
VERTEX
  8
PLAN_1
 62
     2
  6
CONTINUOUS
 10
-1.101201
 20
3.808000
  0
VERTEX
  8
PLAN_1
 62
     2
  6
CONTINUOUS
 10
-1.093583
 20
3.808000
  0
VERTEX
  8
PLAN_1
 62
     2
  6
CONTINUOUS
 10
-1.093583
 20
3.760378
  0
VERTEX
  8
PLAN_1
 62
     2
  6
CONTINUOUS
 10
-1.083106
 20
3.760378
  0
VERTEX
  8
PLAN_1
 62
     2
  6
CONTINUOUS
 10
-1.083106
 20
3.752760
  0
VERTEX
  8
PLAN_1
 62
     2
  6
CONTINUOUS
 10
-1.093583
 20
3.752760
  0
SEQEND
  8
0
  0
SOLID
  8
PLAN_1
 62
     2
 10
-1.126441
 20
3.760378
 11
-1.103106
 21
3.760378
 12
-1.126441
 22
3.760378
 13
-1.103106
 23
3.793713
  0
POLYLINE
  8
PLAN_1
 62
     2
  6
CONTINUOUS
 66
     1
 40
0.003000
 41
0.003000
  0
VERTEX
  8
PLAN_1
 62
     2
  6
CONTINUOUS
 10
-1.126441
 20
3.760378
  0
VERTEX
  8
PLAN_1
 62
     2
  6
CONTINUOUS
 10
-1.103106
 20
3.760378
  0
VERTEX
  8
PLAN_1
 62
     2
  6
CONTINUOUS
 10
-1.103106
 20
3.793713
  0
VERTEX
  8
PLAN_1
 62
     2
  6
CONTINUOUS
 10
-1.126441
 20
3.760378
  0
SEQEND
  8
0
  0
POLYLINE
  8
PLAN_1
 62
     2
  6
CONTINUOUS
 66
     1
 40
0.004283
 41
0.004283
  0
VERTEX
  8
PLAN_1
 62
     2
  6
CONTINUOUS
 10
-1.413122
 20
3.734661
  0
VERTEX
  8
PLAN_1
 62
     2
  6
CONTINUOUS
 10
-1.413122
 20
3.577512
  0
SEQEND
  8
0
  0
POLYLINE
  8
PLAN_1
 62
     2
  6
CONTINUOUS
 66
     1
 40
0.004283
 41
0.004283
  0
VERTEX
  8
PLAN_1
 62
     2
  6
CONTINUOUS
 10
-0.862142
 20
0.630689
  0
VERTEX
  8
PLAN_1
 62
     2
  6
CONTINUOUS
 10
-0.862142
 20
3.734661
  0
SEQEND
  8
0
  0
ENDSEC
  0
EOF
