999
DXF file: C:\Users\sesa63760\Dev\_Creo\CAD\MCADID0004731_3D-CAD\drw0001_1.dxf
999
Pro/ENGINEER 2019471 by Parametric Technology Corporation
  0
SECTION
  2
HEADER
  9
$ACADVER
  1
AC1024
  9
$DWGCODEPAGE
  3
ANSI_1252
  9
$EXTMAX
 10
79.0769462111
 20
111.8373953556
 30
0.0
  9
$EXTMIN
 10
0.0
 20
0.0
 30
0.0
  9
$LIMMIN
 10
0.0
 20
0.0
  9
$LIMMAX
 10
79.0769462111
 20
111.8373953556
  9
$VIEWCTR
 10
39.5384731055
 20
55.9186976778
  9
$VIEWSIZE
 40
111.8373953556
  9
$CLAYER
  8
0
  9
$LTSCALE
 40
7.2901413269
  9
$CELTYPE
  6
BYLAYER
  9
$DIMSCALE
 40
1.0
  9
$DIMASZ
 40
0.9413922168
  9
$DIMEXO
 40
1.0
  9
$DIMDLI
 40
5.0368249168
  9
$DIMEXE
 40
1.0
  9
$DIMCEN
 40
1.1929322171
  9
$DIMLFAC
 40
1.0
  9
$DIMBLK
  1
_FILLED
  9
$DIMALT
 70
0
  9
$DIMALTF
 40
0.0393700787
  9
$DIMTXT
 40
1.3179491035
  9
$DIMTOL
 70
1
  9
$DIMLIM
 70
0
  9
$DIMTFAC
 40
1.0
  9
$DIMTP
 40
0.01
  9
$DIMTM
 40
0.01
  9
$DIMGAP
 40
0.625
  9
$DIMDSEP
 70
46
  9
$AUNITS
 70
0
  9
$PDMODE
 70
3
  9
$PDSIZE
 40
0.3125
  9
$HANDSEED
  5
25E
  9
$TILEMODE
 70
1
  9
$MEASUREMENT
 70
1
  9
$INSUNITS
 70
4
  0
ENDSEC
  0
SECTION
  2
CLASSES
  0
CLASS
  1
ACDBDICTIONARYWDFLT
  2
AcDbDictionaryWithDefault
  3
AutoCAD 2000
 90
0
 91
1
280
0
281
0
  0
CLASS
  1
ACDBPLACEHOLDER
  2
AcDbPlaceHolder
  3
AutoCAD 2000
 90
0
 91
1
280
0
281
0
  0
CLASS
  1
LAYOUT
  2
AcDbLayout
  3
AutoCAD 2000
 90
0
 91
0
280
0
281
0
  0
ENDSEC
  0
SECTION
  2
TABLES
  0
TABLE
  2
VPORT
  5
8
100
AcDbSymbolTable
 70
2
  0
VPORT
  5
1F4
100
AcDbSymbolTableRecord
100
AcDbViewportTableRecord
  2
*ACTIVE
 70
0
 10
0.0
 20
0.0
 11
1.0
 21
1.0
 12
39.5384731055
 22
55.9186976778
 13
0.0
 23
0.0
 14
1.0
 24
1.0
 15
0.0
 25
0.0
 16
0.0
 26
0.0
 36
1.0
 17
0.0
 27
0.0
 37
0.0
 40
111.8373953556
 41
0.7070707071
 42
50.0
 43
0.0
 44
0.0
 50
0.0
 51
0.0
 71
0
 72
100
 73
1
 74
1
 75
0
 76
0
 77
0
 78
0
  0
ENDTAB
  0
TABLE
  2
LTYPE
  5
5
100
AcDbSymbolTable
 70
6
  0
LTYPE
  5
14
100
AcDbSymbolTableRecord
100
AcDbLinetypeTableRecord
  2
BYBLOCK
 70
0
  3

 72
65
 73
0
 40
0.0
  0
LTYPE
  5
15
100
AcDbSymbolTableRecord
100
AcDbLinetypeTableRecord
  2
BYLAYER
 70
0
  3

 72
65
 73
0
 40
0.0
  0
LTYPE
  5
16
100
AcDbSymbolTableRecord
100
AcDbLinetypeTableRecord
  2
CONTINUOUS
 70
64
  3
Solid line
 72
65
 73
0
 40
0.0
  0
LTYPE
  5
1F5
100
AcDbSymbolTableRecord
100
AcDbLinetypeTableRecord
  2
CENTER
 70
64
  3
____ _ ____ _ ____ _ ____ _ ____ _ ____ _ ____
 72
65
 73
4
 40
0.6
 49
0.375
 74
0
 49
-0.075
 74
0
 49
0.075
 74
0
 49
-0.075
 74
0
  0
LTYPE
  5
1F6
100
AcDbSymbolTableRecord
100
AcDbLinetypeTableRecord
  2
HIDDEN
 70
64
  3
- - - - - - - - - - - - - - - - - - - -
 72
65
 73
2
 40
0.2
 49
0.1
 74
0
 49
-0.1
 74
0
  0
LTYPE
  5
1F7
100
AcDbSymbolTableRecord
100
AcDbLinetypeTableRecord
  2
PHANTOM
 70
64
  3
_____ _ _ _____ _ _ _____ _ _ _____
 72
65
 73
6
 40
0.8
 49
0.45
 74
0
 49
-0.05
 74
0
 49
0.1
 74
0
 49
-0.05
 74
0
 49
0.1
 74
0
 49
-0.05
 74
0
  0
LTYPE
  5
1F8
100
AcDbSymbolTableRecord
100
AcDbLinetypeTableRecord
  2
DOT
 70
64
  3
. . . . . . . . . . . . . . . . . . . .
 72
65
 73
2
 40
0.2
 49
0.1
 74
0
 49
-0.1
 74
0
  0
LTYPE
  5
1F9
100
AcDbSymbolTableRecord
100
AcDbLinetypeTableRecord
  2
DASHED
 70
64
  3
- - - - - - - - - - - - - - - - - - - -
 72
65
 73
2
 40
0.2
 49
0.1
 74
0
 49
-0.1
 74
0
  0
ENDTAB
  0
TABLE
  2
LAYER
  5
2
100
AcDbSymbolTable
 70
36
  0
LAYER
  5
10
100
AcDbSymbolTableRecord
100
AcDbLayerTableRecord
  2
0
 70
0
 62
7
  6
CONTINUOUS
370
-3
390
F
  0
LAYER
  5
1FA
100
AcDbSymbolTableRecord
100
AcDbLayerTableRecord
  2
DEFAULT_1
 70
0
 62
7
  6
CENTER
370
-3
390
F
  0
LAYER
  5
1FB
100
AcDbSymbolTableRecord
100
AcDbLayerTableRecord
  2
DEFAULT_2
 70
0
 62
7
  6
HIDDEN
370
-3
390
F
  0
LAYER
  5
1FC
100
AcDbSymbolTableRecord
100
AcDbLayerTableRecord
  2
DEFAULT_3
 70
0
 62
7
  6
PHANTOM
370
-3
390
F
  0
LAYER
  5
1FD
100
AcDbSymbolTableRecord
100
AcDbLayerTableRecord
  2
00_COMPONENTS
 70
0
 62
7
  6
CONTINUOUS
370
-3
390
F
  0
LAYER
  5
1FE
100
AcDbSymbolTableRecord
100
AcDbLayerTableRecord
  2
01_1_DEFAULT_DATUMS
 70
0
 62
7
  6
CONTINUOUS
370
-3
390
F
  0
LAYER
  5
1FF
100
AcDbSymbolTableRecord
100
AcDbLayerTableRecord
  2
01_PLANES
 70
0
 62
7
  6
CONTINUOUS
370
-3
390
F
  0
LAYER
  5
200
100
AcDbSymbolTableRecord
100
AcDbLayerTableRecord
  2
02_COORD_SYS
 70
0
 62
7
  6
CONTINUOUS
370
-3
390
F
  0
LAYER
  5
201
100
AcDbSymbolTableRecord
100
AcDbLayerTableRecord
  2
03_AXES
 70
0
 62
7
  6
CONTINUOUS
370
-3
390
F
  0
LAYER
  5
202
100
AcDbSymbolTableRecord
100
AcDbLayerTableRecord
  2
04_POINTS
 70
0
 62
7
  6
CONTINUOUS
370
-3
390
F
  0
LAYER
  5
203
100
AcDbSymbolTableRecord
100
AcDbLayerTableRecord
  2
05_CURVES
 70
0
 62
7
  6
CONTINUOUS
370
-3
390
F
  0
LAYER
  5
204
100
AcDbSymbolTableRecord
100
AcDbLayerTableRecord
  2
06_SURFS
 70
0
 62
7
  6
CONTINUOUS
370
-3
390
F
  0
LAYER
  5
205
100
AcDbSymbolTableRecord
100
AcDbLayerTableRecord
  2
07_COSMETICS
 70
0
 62
7
  6
CONTINUOUS
370
-3
390
F
  0
LAYER
  5
206
100
AcDbSymbolTableRecord
100
AcDbLayerTableRecord
  2
10_NOTES
 70
0
 62
7
  6
CONTINUOUS
370
-3
390
F
  0
LAYER
  5
207
100
AcDbSymbolTableRecord
100
AcDbLayerTableRecord
  2
11_NOTES_PUB
 70
0
 62
7
  6
CONTINUOUS
370
-3
390
F
  0
LAYER
  5
208
100
AcDbSymbolTableRecord
100
AcDbLayerTableRecord
  2
13_REF_GTOL
 70
0
 62
7
  6
CONTINUOUS
370
-3
390
F
  0
LAYER
  5
209
100
AcDbSymbolTableRecord
100
AcDbLayerTableRecord
  2
16_MISC
 70
0
 62
7
  6
CONTINUOUS
370
-3
390
F
  0
LAYER
  5
20A
100
AcDbSymbolTableRecord
100
AcDbLayerTableRecord
  2
17_NO_PRINT
 70
0
 62
7
  6
CONTINUOUS
370
-3
390
F
  0
LAYER
  5
20B
100
AcDbSymbolTableRecord
100
AcDbLayerTableRecord
  2
18_DATUM_CAMS_JOINTS
 70
0
 62
7
  6
CONTINUOUS
370
-3
390
F
  0
LAYER
  5
20C
100
AcDbSymbolTableRecord
100
AcDbLayerTableRecord
  2
19_DATUM_FUNCTIONAL
 70
0
 62
7
  6
CONTINUOUS
370
-3
390
F
  0
LAYER
  5
20D
100
AcDbSymbolTableRecord
100
AcDbLayerTableRecord
  2
20_DATUM_KINEMATIC_SCHEME
 70
0
 62
7
  6
CONTINUOUS
370
-3
390
F
  0
ENDTAB
  0
TABLE
  2
STYLE
  5
3
100
AcDbSymbolTable
 70
1
  0
STYLE
  5
11
100
AcDbSymbolTableRecord
100
AcDbTextStyleTableRecord
  2
STANDARD
 70
0
 40
0.0
 41
1.0
 50
0.0
 71
0
 42
0.2
  3
ARIAL.TTF
  4

  0
STYLE
  5
20E
100
AcDbSymbolTableRecord
100
AcDbTextStyleTableRecord
  2
TEXTSTYLE_1
 70
0
 40
0.0
 41
0.8
 50
0.0
 71
0
 42
0.2
  3
gdt
  4

  0
ENDTAB
  0
TABLE
  2
VIEW
  5
6
100
AcDbSymbolTable
 70
0
  0
ENDTAB
  0
TABLE
  2
UCS
  5
7
100
AcDbSymbolTable
 70
0
  0
ENDTAB
  0
TABLE
  2
APPID
  5
9
100
AcDbSymbolTable
 70
1
  0
APPID
  5
20F
100
AcDbSymbolTableRecord
100
AcDbRegAppTableRecord
  2
ACAD
 70
0
  0
ENDTAB
  0
TABLE
  2
BLOCK_RECORD
  5
1
100
AcDbSymbolTable
 70
0
  0
BLOCK_RECORD
  5
210
100
AcDbSymbolTableRecord
100
AcDbBlockTableRecord
  2
*Model_Space
  0
BLOCK_RECORD
  5
211
100
AcDbSymbolTableRecord
100
AcDbBlockTableRecord
  2
*Paper_Space
  0
BLOCK_RECORD
  5
212
100
AcDbSymbolTableRecord
100
AcDbBlockTableRecord
  2
_FILLED
  0
ENDTAB
  0
TABLE
  2
DIMSTYLE
  5
A
100
AcDbSymbolTable
 70
1
100
AcDbDimStyleTable
 71
0
  0
DIMSTYLE
105
213
100
AcDbSymbolTableRecord
100
AcDbDimStyleTableRecord
  2
STANDARD
 70
0
  3

  4

 40
1.0
 41
0.9413922168
 42
1.0
 43
0.38
 44
1.0
 45
0.0
 46
0.0
 47
0.01
 48
0.01
140
1.3179491035
141
0.09
142
0.0
143
25.4
144
1.0
145
0.0
146
1.0
147
0.625
 71
1
 72
0
 73
0
 74
0
 75
0
 76
0
 77
1
 78
8
 79
2
170
0
171
1
172
0
173
0
174
0
175
0
176
0
177
0
178
0
270
2
179
2
271
2
272
2
273
2
274
2
275
0
280
0
281
0
282
0
283
1
284
8
285
0
286
0
287
3
288
0
340
11
278
46
341
212
342
212
343
212
344
212
  0
ENDTAB
  0
ENDSEC
  0
SECTION
  2
BLOCKS
  0
BLOCK
  5
20
100
AcDbEntity
  8
0
100
AcDbBlockBegin
  2
*Model_Space
 70
0
 10
0.0
 20
0.0
 30
0.0
  3
*Model_Space
  1

  0
ENDBLK
  5
21
100
AcDbEntity
  8
0
100
AcDbBlockEnd
  0
BLOCK
  5
1C
100
AcDbEntity
  8
0
100
AcDbBlockBegin
  2
*Paper_Space
 70
0
 10
0.0
 20
0.0
 30
0.0
  3
*Paper_Space
  1

  0
ENDBLK
  5
1D
100
AcDbEntity
  8
0
100
AcDbBlockEnd
  0
BLOCK
  5
214
100
AcDbEntity
  8
0
100
AcDbBlockBegin
  2
_FILLED
 70
64
 10
0.0
 20
0.0
  3
_FILLED
  1

  0
SOLID
  5
215
100
AcDbEntity
  8
0
  6
BYBLOCK
 62
0
100
AcDbTrace
 10
0.0
 20
0.0
 11
-1.0
 21
0.25
 12
-1.0
 22
-0.25
 13
-1.0
 23
-0.25
  0
ENDBLK
  5
216
100
AcDbEntity
  8
0
  6
BYBLOCK
 62
0
100
AcDbBlockEnd
  0
ENDSEC
  0
SECTION
  2
ENTITIES
  0
LINE
  5
217
100
AcDbEntity
  8
0
100
AcDbLine
 62
7
  6
BYLAYER
 10
9.1738355622
 20
44.4607772576
 11
9.1738355622
 21
67.4861454206
  0
LINE
  5
218
100
AcDbEntity
  8
0
100
AcDbLine
 62
7
  6
BYLAYER
 10
9.6131798064
 20
43.8484110268
 11
9.6131798064
 21
66.8737791898
  0
LINE
  5
219
100
AcDbEntity
  8
0
100
AcDbLine
 62
7
  6
BYLAYER
 10
29.0586972479
 20
30.5805342346
 11
14.2093930199
 21
39.1535900796
  0
LINE
  5
21A
100
AcDbEntity
  8
0
100
AcDbLine
 62
7
  6
BYLAYER
 10
14.2093930199
 20
41.1948461224
 11
14.2093930199
 21
39.1535900796
  0
LINE
  5
21B
100
AcDbEntity
  8
0
100
AcDbLine
 62
7
  6
BYLAYER
 10
9.6131709745
 20
68.0985065524
 11
33.9375429747
 21
82.1421054456
  0
LINE
  5
21C
100
AcDbEntity
  8
0
100
AcDbLine
 62
7
  6
BYLAYER
 10
14.2093930199
 20
41.1948461224
 11
9.6131798064
 21
43.8484110268
  0
LINE
  5
21D
100
AcDbEntity
  8
0
100
AcDbLine
 62
7
  6
BYLAYER
 10
29.0586972479
 20
32.6217902775
 11
33.6549104614
 21
29.9682253731
  0
LINE
  5
21E
100
AcDbEntity
  8
0
100
AcDbLine
 62
7
  6
BYLAYER
 10
29.0586972479
 20
32.6217902775
 11
29.0586972479
 21
30.5805342346
  0
LINE
  5
21F
100
AcDbEntity
  8
0
100
AcDbLine
 62
7
  6
BYLAYER
 10
33.6549104614
 20
52.9935935361
 11
33.6549104614
 21
29.9682253731
  0
LINE
  5
220
100
AcDbEntity
  8
0
100
AcDbLine
 62
7
  6
BYLAYER
 10
54.2977539676
 20
71.6121203387
 11
54.620434724
 21
71.7984190482
  0
LINE
  5
221
100
AcDbEntity
  8
0
100
AcDbLine
 62
7
  6
BYLAYER
 10
54.620434724
 20
71.6877289936
 11
65.095805745
 21
77.7356511713
  0
LINE
  5
222
100
AcDbEntity
  8
0
100
AcDbLine
 62
7
  6
BYLAYER
 10
55.6810993117
 20
71.1860579164
 11
55.3584185553
 21
70.9997592069
  0
LINE
  5
223
100
AcDbEntity
  8
0
100
AcDbLine
 62
7
  6
BYLAYER
 10
9.6131798064
 20
66.8737791898
 11
33.6549104614
 21
52.9935935361
  0
LINE
  5
224
100
AcDbEntity
  8
0
100
AcDbLine
 62
7
  6
BYLAYER
 10
35.7762308049
 20
29.9682304721
 11
35.7762308049
 21
52.9935986352
  0
LINE
  5
225
100
AcDbEntity
  8
0
100
AcDbLine
 62
7
  6
BYLAYER
 10
68.1056796447
 20
75.5440265536
 11
69.1663354005
 21
76.1563927845
  0
LINE
  5
226
100
AcDbEntity
  8
0
100
AcDbLine
 62
7
  6
BYLAYER
 10
70.0351809659
 20
74.9522860915
 11
68.9745252101
 21
74.3399198607
  0
LINE
  5
227
100
AcDbEntity
  8
0
100
AcDbLine
 62
7
  6
BYLAYER
 10
35.7762308049
 20
52.9935986352
 11
60.1006028051
 21
67.0371975283
  0
LINE
  5
228
100
AcDbEntity
  8
0
100
AcDbLine
 62
7
  6
BYLAYER
 10
60.5399382174
 20
63.5583473763
 11
70.0957833606
 21
69.0753842098
  0
LINE
  5
229
100
AcDbEntity
  8
0
100
AcDbLine
 62
7
  6
BYLAYER
 10
69.1663354005
 20
76.1563927845
 11
68.334101529
 21
75.2644453122
  0
LINE
  5
22A
100
AcDbEntity
  8
0
100
AcDbLine
 62
7
  6
BYLAYER
 10
54.620434724
 20
71.7984190482
 11
54.620434724
 21
71.4258247317
  0
LINE
  5
22B
100
AcDbEntity
  8
0
100
AcDbLine
 62
7
  6
BYLAYER
 10
29.0586972479
 20
30.5805342346
 11
30.8265021089
 21
31.6011707546
  0
LINE
  5
22C
100
AcDbEntity
  8
0
100
AcDbLine
 62
7
  6
BYLAYER
 10
60.1006028051
 20
67.0371975283
 11
60.1006028051
 21
44.0118293653
  0
LINE
  5
22D
100
AcDbEntity
  8
0
100
AcDbLine
 62
7
  6
BYLAYER
 10
60.5399382174
 20
44.6241904971
 11
60.5399382174
 21
67.6495586601
  0
LINE
  5
22E
100
AcDbEntity
  8
0
100
AcDbLine
 62
7
  6
BYLAYER
 10
35.7762308049
 20
29.9682304721
 11
60.1006028051
 21
44.0118293653
  0
LINE
  5
22F
100
AcDbEntity
  8
0
100
AcDbLine
 62
7
  6
BYLAYER
 10
36.0588633182
 20
82.1421105446
 11
60.1005939732
 21
68.2619248909
  0
ARC
  5
230
100
AcDbEntity
  8
0
100
AcDbCircle
 62
7
  6
BYLAYER
 10
55.3034920645
 20
69.8605408282
 40
1.6244093958
100
AcDbArc
 50
109.1312422388
 51
109.5763215677
  0
SPLINE
  5
231
100
AcDbEntity
  8
0
100
AcDbSpline
 62
7
  6
BYLAYER
 70
0
 71
3
 72
10
 73
6
 74
0
 42
0.0000001
 43
0.0000001
 44
0.0000000001
 40
0.0
 40
0.0
 40
0.0
 40
0.0
 40
0.2357459364
 40
0.6068689956
 40
1.0
 40
1.0
 40
1.0
 40
1.0
 10
53.4229122824
 20
72.135942104
 30
0.0
 10
53.5204468924
 20
72.1253213914
 30
0.0
 10
53.7703689719
 20
72.086511121
 30
0.0
 10
54.173617737
 20
71.9797424223
 30
0.0
 10
54.470856794
 20
71.8647129228
 30
0.0
 10
54.620434724
 20
71.7984190482
 30
0.0
  0
SPLINE
  5
232
100
AcDbEntity
  8
0
100
AcDbSpline
 62
7
  6
BYLAYER
 70
0
 71
3
 72
9
 73
5
 74
0
 42
0.0000001
 43
0.0000001
 44
0.0000000001
 40
0.0
 40
0.0
 40
0.0
 40
0.0
 40
0.4880671319
 40
1.0
 40
1.0
 40
1.0
 40
1.0
 10
55.6810993117
 20
71.1860579164
 30
0.0
 10
55.8920447057
 20
71.0359769854
 30
0.0
 10
56.30795534
 20
70.7051611195
 30
0.0
 10
56.6909642935
 20
70.337081963
 30
0.0
 10
56.8786317749
 20
70.1408219663
 30
0.0
  0
SPLINE
  5
233
100
AcDbEntity
  8
0
100
AcDbSpline
 62
7
  6
BYLAYER
 70
0
 71
3
 72
16
 73
12
 74
0
 42
0.0000001
 43
0.0000001
 44
0.0000000001
 40
0.0
 40
0.0
 40
0.0
 40
0.0
 40
0.0479361206
 40
0.0964446146
 40
0.197092647
 40
0.305654121
 40
0.4242601833
 40
0.5537113055
 40
0.6936802178
 40
0.8430580024
 40
1.0
 40
1.0
 40
1.0
 40
1.0
 10
65.0958136541
 20
77.7356374367
 30
0.0
 10
65.1607791261
 20
77.7731372231
 30
0.0
 10
65.2967870624
 20
77.8398099967
 30
0.0
 10
65.5900554121
 20
77.9377202777
 30
0.0
 10
65.9946463168
 20
77.9886424657
 30
0.0
 10
66.5084446385
 20
77.9352899422
 30
0.0
 10
67.0452523126
 20
77.7727305042
 30
0.0
 10
67.5930696431
 20
77.5059555949
 30
0.0
 10
68.1399670503
 20
77.1417845298
 30
0.0
 10
68.6733135888
 20
76.6888683196
 30
0.0
 10
69.005175499
 20
76.3417042731
 30
0.0
 10
69.1663354005
 20
76.1563927845
 30
0.0
  0
SPLINE
  5
234
100
AcDbEntity
  8
0
100
AcDbSpline
 62
7
  6
BYLAYER
 70
0
 71
3
 72
9
 73
5
 74
0
 42
0.0000001
 43
0.0000001
 44
0.0000000001
 40
0.0
 40
0.0
 40
0.0
 40
0.0
 40
0.2390511744
 40
1.0
 40
1.0
 40
1.0
 40
1.0
 10
54.7820737354
 20
71.3347762106
 30
0.0
 10
54.8401553968
 20
71.3292389838
 30
0.0
 10
55.0822704118
 20
71.2973098375
 30
0.0
 10
55.319475024
 20
71.2321760135
 30
0.0
 10
55.4941069142
 20
71.1689530029
 30
0.0
  0
SPLINE
  5
235
100
AcDbEntity
  8
0
100
AcDbSpline
 62
7
  6
BYLAYER
 70
0
 71
3
 72
10
 73
6
 74
0
 42
0.0000001
 43
0.0000001
 44
0.0000000001
 40
0.0
 40
0.0
 40
0.0
 40
0.0
 40
0.2329436178
 40
0.4781699353
 40
1.0
 40
1.0
 40
1.0
 40
1.0
 10
55.9777499495
 20
70.9543952176
 30
0.0
 10
56.1109781543
 20
70.8846023949
 30
0.0
 10
56.377237458
 20
70.727185399
 30
0.0
 10
56.9019461276
 20
70.349983174
 30
0.0
 10
57.2672466501
 20
70.0117926394
 30
0.0
 10
57.4985647607
 20
69.7668235799
 30
0.0
  0
SPLINE
  5
236
100
AcDbEntity
  8
0
100
AcDbSpline
 62
7
  6
BYLAYER
 70
0
 71
3
 72
11
 73
7
 74
0
 42
0.0000001
 43
0.0000001
 44
0.0000000001
 40
0.0
 40
0.0
 40
0.0
 40
0.0
 40
0.2658278213
 40
0.5253184868
 40
0.7718544947
 40
1.0
 40
1.0
 40
1.0
 40
1.0
 10
70.0351809659
 20
74.9522860915
 30
0.0
 10
70.2071933578
 20
74.6636523615
 30
0.0
 10
70.5144006779
 20
74.0730078379
 30
0.0
 10
70.8603536708
 20
73.1582605144
 30
0.0
 10
71.0768425823
 20
72.2532504436
 30
0.0
 10
71.1313431785
 20
71.6526865353
 30
0.0
 10
71.1313431785
 20
71.3643139179
 30
0.0
  0
SPLINE
  5
237
100
AcDbEntity
  8
0
100
AcDbSpline
 62
7
  6
BYLAYER
 70
0
 71
3
 72
15
 73
11
 74
0
 42
0.0000001
 43
0.0000001
 44
0.0000000001
 40
0.0
 40
0.0
 40
0.0
 40
0.0
 40
0.1485418262
 40
0.2895063404
 40
0.4227362867
 40
0.5486409758
 40
0.6679977695
 40
0.7819394063
 40
0.8919883256
 40
1.0
 40
1.0
 40
1.0
 40
1.0
 10
71.1313431785
 20
71.3643139179
 30
0.0
 10
71.1313431785
 20
71.2341358322
 30
0.0
 10
71.1208104975
 20
70.9802480053
 30
0.0
 10
71.0708873845
 20
70.6125639563
 30
0.0
 10
70.9873732141
 20
70.271273328
 30
0.0
 10
70.871038752
 20
69.9597328587
 30
0.0
 10
70.7227217249
 20
69.680931274
 30
0.0
 10
70.5436340682
 20
69.4376558879
 30
0.0
 10
70.3353617863
 20
69.2327108178
 30
0.0
 10
70.1777565518
 20
69.1227196008
 30
0.0
 10
70.0957754515
 20
69.0753979444
 30
0.0
  0
SPLINE
  5
238
100
AcDbEntity
  8
0
100
AcDbSpline
 62
7
  6
BYLAYER
 70
0
 71
3
 72
9
 73
5
 74
0
 42
0.0000001
 43
0.0000001
 44
0.0000000001
 40
0.0
 40
0.0
 40
0.0
 40
0.0
 40
0.2463695957
 40
1.0
 40
1.0
 40
1.0
 40
1.0
 10
68.1056796447
 20
75.5440265536
 30
0.0
 10
68.1857595356
 20
75.4519458087
 30
0.0
 10
68.5019804328
 20
75.0705947522
 30
0.0
 10
68.7834255351
 20
74.6605817117
 30
0.0
 10
68.9745252101
 20
74.3399198607
 30
0.0
  0
SPLINE
  5
239
100
AcDbEntity
  8
0
100
AcDbSpline
 62
7
  6
BYLAYER
 70
0
 71
3
 72
18
 73
14
 74
0
 42
0.0000001
 43
0.0000001
 44
0.0000000001
 40
0.0
 40
0.0
 40
0.0
 40
0.0
 40
0.1527997903
 40
0.3018465513
 40
0.4440759468
 40
0.576931611
 40
0.69865635
 40
0.7551670918
 40
0.8087957043
 40
0.8597224518
 40
0.9082519441
 40
0.9548240906
 40
1.0
 40
1.0
 40
1.0
 40
1.0
 10
59.2892628246
 20
68.7435049345
 30
0.0
 10
59.1350442999
 20
69.0025349435
 30
0.0
 10
58.8035354208
 20
69.4988255478
 30
0.0
 10
58.2407606622
 20
70.1725035839
 30
0.0
 10
57.6327485863
 20
70.7504702829
 30
0.0
 10
56.9989875153
 20
71.2140246324
 30
0.0
 10
56.4521067975
 20
71.4996386492
 30
0.0
 10
56.0203690466
 20
71.6528378069
 30
0.0
 10
55.7110173925
 20
71.7281709853
 30
0.0
 10
55.4106697596
 20
71.7661269949
 30
0.0
 10
55.1217213649
 20
71.7661078637
 30
0.0
 10
54.8466851413
 20
71.7280730168
 30
0.0
 10
54.6722423333
 20
71.6767218003
 30
0.0
 10
54.5889711629
 20
71.6449435797
 30
0.0
  0
SPLINE
  5
23A
100
AcDbEntity
  8
0
100
AcDbSpline
 62
7
  6
BYLAYER
 70
0
 71
3
 72
16
 73
12
 74
0
 42
0.0000001
 43
0.0000001
 44
0.0000000001
 40
0.0
 40
0.0
 40
0.0
 40
0.0
 40
0.0458331526
 40
0.0930557945
 40
0.1933222241
 40
0.3036262714
 40
0.4249517788
 40
0.5569442279
 40
0.6982458979
 40
0.846782957
 40
1.0
 40
1.0
 40
1.0
 40
1.0
 10
54.7711193181
 20
71.3952346557
 30
0.0
 10
54.8451156778
 20
71.420903539
 30
0.0
 10
54.999340998
 20
71.4621708253
 30
0.0
 10
55.3279942379
 20
71.5032234929
 30
0.0
 10
55.7719650604
 20
71.4718260952
 30
0.0
 10
56.3196596744
 20
71.312390026
 30
0.0
 10
56.8797638074
 20
71.0373520576
 30
0.0
 10
57.4375318815
 20
70.6548480943
 30
0.0
 10
57.9782171455
 20
70.1756218707
 30
0.0
 10
58.4869380491
 20
69.6130650379
 30
0.0
 10
58.7926732526
 20
69.1965747366
 30
0.0
 10
58.937183266
 20
68.9782415537
 30
0.0
  0
SPLINE
  5
23B
100
AcDbEntity
  8
0
100
AcDbSpline
 62
7
  6
BYLAYER
 70
0
 71
3
 72
11
 73
7
 74
0
 42
0.0000001
 43
0.0000001
 44
0.0000000001
 40
0.0
 40
0.0
 40
0.0
 40
0.0
 40
0.2189375418
 40
0.4553110496
 40
0.715017883
 40
1.0
 40
1.0
 40
1.0
 40
1.0
 10
38.1820924475
 20
79.1724409027
 30
0.0
 10
38.1590910418
 20
79.0636446086
 30
0.0
 10
38.0779913187
 20
78.8435836142
 30
0.0
 10
37.8704454048
 20
78.5419868534
 30
0.0
 10
37.5816589929
 20
78.2666579967
 30
0.0
 10
37.3509730295
 20
78.1116493808
 30
0.0
 10
37.225619094
 20
78.0392766844
 30
0.0
  0
SPLINE
  5
23C
100
AcDbEntity
  8
0
100
AcDbSpline
 62
7
  6
BYLAYER
 70
0
 71
3
 72
11
 73
7
 74
0
 42
0.0000001
 43
0.0000001
 44
0.0000000001
 40
0.0
 40
0.0
 40
0.0
 40
0.0
 40
0.2189375418
 40
0.4553110496
 40
0.715017883
 40
1.0
 40
1.0
 40
1.0
 40
1.0
 10
17.6760811683
 20
67.3333604405
 30
0.0
 10
17.6530797626
 20
67.2245641463
 30
0.0
 10
17.5719800395
 20
67.0045031519
 30
0.0
 10
17.3644341256
 20
66.7029063911
 30
0.0
 10
17.0756477137
 20
66.4275775344
 30
0.0
 10
16.8449617503
 20
66.2725689185
 30
0.0
 10
16.7196078148
 20
66.2001962221
 30
0.0
  0
SPLINE
  5
23D
100
AcDbEntity
  8
0
100
AcDbSpline
 62
7
  6
BYLAYER
 70
0
 71
3
 72
11
 73
7
 74
0
 42
0.0000001
 43
0.0000001
 44
0.0000000001
 40
0.0
 40
0.0
 40
0.0
 40
0.0
 40
0.2897048043
 40
0.5490913404
 40
0.7822177947
 40
1.0
 40
1.0
 40
1.0
 40
1.0
 10
9.6131709745
 20
68.0985065524
 30
0.0
 10
9.5473530559
 20
68.0605067862
 30
0.0
 10
9.4279427601
 20
67.9782606587
 30
0.0
 10
9.2852308198
 20
67.828276912
 30
0.0
 10
9.1949559251
 20
67.66235855
 30
0.0
 10
9.1738430364
 20
67.5432774379
 30
0.0
 10
9.173843047
 20
67.4861454206
 30
0.0
  0
SPLINE
  5
23E
100
AcDbEntity
  8
0
100
AcDbSpline
 62
7
  6
BYLAYER
 70
0
 71
3
 72
15
 73
11
 74
0
 42
0.0000001
 43
0.0000001
 44
0.0000000001
 40
0.0
 40
0.0
 40
0.0
 40
0.0
 40
0.1141236058
 40
0.2373475862
 40
0.3669728832
 40
0.5000004526
 40
0.6330279586
 40
0.7626530685
 40
0.8858767805
 40
1.0
 40
1.0
 40
1.0
 40
1.0
 10
36.0588633182
 20
82.1421105446
 30
0.0
 10
35.9862725336
 20
82.1840199055
 30
0.0
 10
35.8274701042
 20
82.2579311938
 30
0.0
 10
35.5689294836
 20
82.3365612509
 30
0.0
 10
35.2889715043
 20
82.3849014655
 30
0.0
 10
34.9982015038
 20
82.401249416
 30
0.0
 10
34.7074317163
 20
82.3849001186
 30
0.0
 10
34.4274743447
 20
82.336558595
 30
0.0
 10
34.1689347487
 20
82.2579272779
 30
0.0
 10
34.0101332112
 20
82.1840151881
 30
0.0
 10
33.9375429747
 20
82.1421054456
 30
0.0
  0
SPLINE
  5
23F
100
AcDbEntity
  8
0
100
AcDbSpline
 62
7
  6
BYLAYER
 70
0
 71
3
 72
21
 73
17
 74
0
 42
0.0000001
 43
0.0000001
 44
0.0000000001
 40
0.0
 40
0.0
 40
0.0
 40
0.0
 40
0.0612296222
 40
0.1262201217
 40
0.1942898552
 40
0.2647242807
 40
0.4090627201
 40
0.5519961674
 40
0.6207308059
 40
0.6865264481
 40
0.7487367157
 40
0.8069017853
 40
0.8608045111
 40
0.9105508969
 40
0.9566376575
 40
1.0
 40
1.0
 40
1.0
 40
1.0
 10
16.7196078148
 20
66.2001962221
 30
0.0
 10
16.6056769533
 20
66.1344186012
 30
0.0
 10
16.3622208212
 20
66.0133805505
 30
0.0
 10
15.9703767698
 20
65.8676166922
 30
0.0
 10
15.5473539515
 20
65.7546021678
 30
0.0
 10
14.9481309805
 20
65.6496806776
 30
0.0
 10
14.176988172
 20
65.6118277018
 30
0.0
 10
13.4129507108
 20
65.69543342
 30
0.0
 10
12.8330289815
 20
65.8365878247
 30
0.0
 10
12.4327291181
 20
65.9745094749
 30
0.0
 10
12.0691532913
 20
66.1431446125
 30
0.0
 10
11.7491476653
 20
66.3394392875
 30
0.0
 10
11.4788171843
 20
66.5599698012
 30
0.0
 10
11.2633980411
 20
66.8010461758
 30
0.0
 10
11.1075204853
 20
67.0584771285
 30
0.0
 10
11.0448017609
 20
67.2422133194
 30
0.0
 10
11.0255123479
 20
67.3333614093
 30
0.0
  0
SPLINE
  5
240
100
AcDbEntity
  8
0
100
AcDbSpline
 62
7
  6
BYLAYER
 70
0
 71
3
 72
21
 73
17
 74
0
 42
0.0000001
 43
0.0000001
 44
0.0000000001
 40
0.0
 40
0.0
 40
0.0
 40
0.0
 40
0.0612296222
 40
0.1262201217
 40
0.1942898552
 40
0.2647242807
 40
0.4090627201
 40
0.5519961674
 40
0.6207308059
 40
0.6865264481
 40
0.7487367157
 40
0.8069017853
 40
0.8608045111
 40
0.9105508969
 40
0.9566376575
 40
1.0
 40
1.0
 40
1.0
 40
1.0
 10
37.2257898441
 20
54.361214341
 30
0.0
 10
37.1118589825
 20
54.2954367201
 30
0.0
 10
36.8684028504
 20
54.1743986694
 30
0.0
 10
36.4765587991
 20
54.0286348111
 30
0.0
 10
36.0535359808
 20
53.9156202867
 30
0.0
 10
35.4543130097
 20
53.8106987965
 30
0.0
 10
34.6831702013
 20
53.7728458207
 30
0.0
 10
33.91913274
 20
53.8564515389
 30
0.0
 10
33.3392110108
 20
53.9976059436
 30
0.0
 10
32.9389111474
 20
54.1355275938
 30
0.0
 10
32.5753353206
 20
54.3041627314
 30
0.0
 10
32.2553296945
 20
54.5004574064
 30
0.0
 10
31.9849992135
 20
54.7209879201
 30
0.0
 10
31.7695800704
 20
54.9620642947
 30
0.0
 10
31.6137025146
 20
55.2194952474
 30
0.0
 10
31.5509837902
 20
55.4032314383
 30
0.0
 10
31.5316943771
 20
55.4943795282
 30
0.0
  0
SPLINE
  5
241
100
AcDbEntity
  8
0
100
AcDbSpline
 62
7
  6
BYLAYER
 70
0
 71
3
 72
21
 73
17
 74
0
 42
0.0000001
 43
0.0000001
 44
0.0000000001
 40
0.0
 40
0.0
 40
0.0
 40
0.0
 40
0.0612296222
 40
0.1262201217
 40
0.1942898552
 40
0.2647242807
 40
0.4090627201
 40
0.5519961674
 40
0.6207308059
 40
0.6865264481
 40
0.7487367157
 40
0.8069017853
 40
0.8608045111
 40
0.9105508969
 40
0.9566376575
 40
1.0
 40
1.0
 40
1.0
 40
1.0
 10
57.7318011233
 20
66.2002948033
 30
0.0
 10
57.6178702617
 20
66.1345171824
 30
0.0
 10
57.3744141296
 20
66.0134791317
 30
0.0
 10
56.9825700783
 20
65.8677152734
 30
0.0
 10
56.55954726
 20
65.754700749
 30
0.0
 10
55.9603242889
 20
65.6497792588
 30
0.0
 10
55.1891814805
 20
65.611926283
 30
0.0
 10
54.4251440192
 20
65.6955320012
 30
0.0
 10
53.84522229
 20
65.8366864058
 30
0.0
 10
53.4449224266
 20
65.9746080561
 30
0.0
 10
53.0813465998
 20
66.1432431937
 30
0.0
 10
52.7613409737
 20
66.3395378687
 30
0.0
 10
52.4910104927
 20
66.5600683824
 30
0.0
 10
52.2755913496
 20
66.801144757
 30
0.0
 10
52.1197137938
 20
67.0585757097
 30
0.0
 10
52.0569950694
 20
67.2423119006
 30
0.0
 10
52.0377056563
 20
67.3334599905
 30
0.0
  0
SPLINE
  5
242
100
AcDbEntity
  8
0
100
AcDbSpline
 62
7
  6
BYLAYER
 70
0
 71
3
 72
21
 73
17
 74
0
 42
0.0000001
 43
0.0000001
 44
0.0000000001
 40
0.0
 40
0.0
 40
0.0
 40
0.0
 40
0.0612296222
 40
0.1262201217
 40
0.1942898552
 40
0.2647242807
 40
0.4090627201
 40
0.5519961674
 40
0.6207308059
 40
0.6865264481
 40
0.7487367157
 40
0.8069017853
 40
0.8608045111
 40
0.9105508969
 40
0.9566376575
 40
1.0
 40
1.0
 40
1.0
 40
1.0
 10
37.225619094
 20
78.0392766844
 30
0.0
 10
37.1116882325
 20
77.9734990635
 30
0.0
 10
36.8682321004
 20
77.8524610128
 30
0.0
 10
36.476388049
 20
77.7066971544
 30
0.0
 10
36.0533652307
 20
77.59368263
 30
0.0
 10
35.4541422597
 20
77.4887611399
 30
0.0
 10
34.6829994512
 20
77.4509081641
 30
0.0
 10
33.91896199
 20
77.5345138823
 30
0.0
 10
33.3390402607
 20
77.6756682869
 30
0.0
 10
32.9387403973
 20
77.8135899371
 30
0.0
 10
32.5751645705
 20
77.9822250748
 30
0.0
 10
32.2551589445
 20
78.1785197498
 30
0.0
 10
31.9848284635
 20
78.3990502634
 30
0.0
 10
31.7694093203
 20
78.6401266381
 30
0.0
 10
31.6135317645
 20
78.8975575908
 30
0.0
 10
31.5508130401
 20
79.0812937817
 30
0.0
 10
31.5315236271
 20
79.1724418716
 30
0.0
  0
SPLINE
  5
243
100
AcDbEntity
  8
0
100
AcDbSpline
 62
7
  6
BYLAYER
 70
0
 71
3
 72
11
 73
7
 74
0
 42
0.0000001
 43
0.0000001
 44
0.0000000001
 40
0.0
 40
0.0
 40
0.0
 40
0.0
 40
0.2897052857
 40
0.5490919933
 40
0.7822182543
 40
1.0
 40
1.0
 40
1.0
 40
1.0
 10
9.6131798064
 20
43.8484110268
 30
0.0
 10
9.5473606566
 20
43.886410871
 30
0.0
 10
9.4279480945
 20
43.9686573122
 30
0.0
 10
9.2852332548
 20
44.1186421704
 30
0.0
 10
9.1949564157
 20
44.2845621398
 30
0.0
 10
9.173843031
 20
44.403644625
 30
0.0
 10
9.173843047
 20
44.4607772576
 30
0.0
  0
SPLINE
  5
244
100
AcDbEntity
  8
0
100
AcDbSpline
 62
7
  6
BYLAYER
 70
0
 71
3
 72
11
 73
7
 74
0
 42
0.0000001
 43
0.0000001
 44
0.0000000001
 40
0.0
 40
0.0
 40
0.0
 40
0.0
 40
0.2189375418
 40
0.4553110496
 40
0.715017883
 40
1.0
 40
1.0
 40
1.0
 40
1.0
 10
58.6882744768
 20
67.3334590216
 30
0.0
 10
58.6652730711
 20
67.2246627275
 30
0.0
 10
58.5841733479
 20
67.0046017331
 30
0.0
 10
58.3766274341
 20
66.7030049723
 30
0.0
 10
58.0878410222
 20
66.4276761156
 30
0.0
 10
57.8571550588
 20
66.2726674997
 30
0.0
 10
57.7318011233
 20
66.2002948033
 30
0.0
  0
SPLINE
  5
245
100
AcDbEntity
  8
0
100
AcDbSpline
 62
7
  6
BYLAYER
 70
0
 71
3
 72
15
 73
11
 74
0
 42
0.0000001
 43
0.0000001
 44
0.0000000001
 40
0.0
 40
0.0
 40
0.0
 40
0.0
 40
0.1141231812
 40
0.2373468278
 40
0.366971913
 40
0.4999994099
 40
0.6330269884
 40
0.76265231
 40
0.885876356
 40
1.0
 40
1.0
 40
1.0
 40
1.0
 10
35.7762308049
 20
29.9682304721
 30
0.0
 10
35.7036405927
 20
29.9263207437
 30
0.0
 10
35.5448391358
 20
29.8524086622
 30
0.0
 10
35.2862996286
 20
29.773777376
 30
0.0
 10
35.006342336
 20
29.7254358323
 30
0.0
 10
34.715572568
 20
29.7090865017
 30
0.0
 10
34.424802548
 20
29.725434419
 30
0.0
 10
34.1448444897
 20
29.7737746134
 30
0.0
 10
33.8863037804
 20
29.8524047014
 30
0.0
 10
33.7275012703
 20
29.9263159982
 30
0.0
 10
33.6549104614
 20
29.9682253731
 30
0.0
  0
SPLINE
  5
246
100
AcDbEntity
  8
0
100
AcDbSpline
 62
7
  6
BYLAYER
 70
0
 71
3
 72
11
 73
7
 74
0
 42
0.0000001
 43
0.0000001
 44
0.0000000001
 40
0.0
 40
0.0
 40
0.0
 40
0.0
 40
0.2189375418
 40
0.4553110496
 40
0.715017883
 40
1.0
 40
1.0
 40
1.0
 40
1.0
 10
38.1822631976
 20
55.4943785594
 30
0.0
 10
38.1592617919
 20
55.3855822652
 30
0.0
 10
38.0781620687
 20
55.1655212708
 30
0.0
 10
37.8706161549
 20
54.86392451
 30
0.0
 10
37.5818297429
 20
54.5885956533
 30
0.0
 10
37.3511437796
 20
54.4335870374
 30
0.0
 10
37.2257898441
 20
54.361214341
 30
0.0
  0
SPLINE
  5
247
100
AcDbEntity
  8
0
100
AcDbSpline
 62
7
  6
BYLAYER
 70
0
 71
3
 72
11
 73
7
 74
0
 42
0.0000001
 43
0.0000001
 44
0.0000000001
 40
0.0
 40
0.0
 40
0.0
 40
0.0
 40
0.2177817009
 40
0.4509079353
 40
0.7102947134
 40
1.0
 40
1.0
 40
1.0
 40
1.0
 10
60.5399307326
 20
67.6495586601
 30
0.0
 10
60.539930722
 20
67.7066912807
 30
0.0
 10
60.5188173891
 20
67.8257737467
 30
0.0
 10
60.4285405433
 20
67.9916937238
 30
0.0
 10
60.2858256862
 20
68.141678575
 30
0.0
 10
60.166413123
 20
68.2239250467
 30
0.0
 10
60.1005939732
 20
68.2619248909
 30
0.0
  0
SPLINE
  5
248
100
AcDbEntity
  8
0
100
AcDbSpline
 62
7
  6
BYLAYER
 70
0
 71
3
 72
11
 73
7
 74
0
 42
0.0000001
 43
0.0000001
 44
0.0000000001
 40
0.0
 40
0.0
 40
0.0
 40
0.0
 40
0.2177821605
 40
0.4509085882
 40
0.7102951949
 40
1.0
 40
1.0
 40
1.0
 40
1.0
 10
60.5399307326
 20
44.6241904971
 30
0.0
 10
60.5399307166
 20
44.5670584918
 30
0.0
 10
60.5188178797
 20
44.4479773989
 30
0.0
 10
60.4285429784
 20
44.2820590291
 30
0.0
 10
60.2858310206
 20
44.1320752895
 30
0.0
 10
60.1664207237
 20
44.0498291315
 30
0.0
 10
60.1006028051
 20
44.0118293653
 30
0.0
  0
SPLINE
  5
249
100
AcDbEntity
  8
0
100
AcDbSpline
 62
7
  6
BYLAYER
 70
0
 71
3
 72
15
 73
11
 74
0
 42
0.0000001
 43
0.0000001
 44
0.0000000001
 40
0.0
 40
0.0
 40
0.0
 40
0.0
 40
0.1141236058
 40
0.2373475862
 40
0.3669728832
 40
0.5000004526
 40
0.6330279586
 40
0.7626530685
 40
0.8858767805
 40
1.0
 40
1.0
 40
1.0
 40
1.0
 10
33.6549104614
 20
52.9935935361
 30
0.0
 10
33.7275012459
 20
52.9516841752
 30
0.0
 10
33.8863036754
 20
52.8777728869
 30
0.0
 10
34.144844296
 20
52.7991428298
 30
0.0
 10
34.4248022753
 20
52.7508026153
 30
0.0
 10
34.7155722758
 20
52.7344546648
 30
0.0
 10
35.0063420633
 20
52.7508039621
 30
0.0
 10
35.2862994349
 20
52.7991454857
 30
0.0
 10
35.5448390308
 20
52.8777768028
 30
0.0
 10
35.7036405683
 20
52.9516888927
 30
0.0
 10
35.7762308049
 20
52.9935986352
 30
0.0
  0
SPLINE
  5
24A
100
AcDbEntity
  8
0
100
AcDbSpline
 62
7
  6
BYLAYER
 70
0
 71
3
 72
23
 73
19
 74
0
 42
0.0000001
 43
0.0000001
 44
0.0000000001
 40
0.0
 40
0.0
 40
0.0
 40
0.0
 40
0.063475327
 40
0.1311738375
 40
0.2022314399
 40
0.2756886836
 40
0.3504124451
 40
0.4252214377
 40
0.4989310334
 40
0.5704057776
 40
0.6386251712
 40
0.7027539439
 40
0.762218099
 40
0.8167977334
 40
0.8667423032
 40
0.9128817154
 40
0.9566618273
 40
1.0
 40
1.0
 40
1.0
 40
1.0
 10
11.9819726563
 20
68.9354092774
 30
0.0
 10
12.108724314
 20
69.0085889443
 30
0.0
 10
12.3813125767
 20
69.1417920545
 30
0.0
 10
12.8218052066
 20
69.2973190587
 30
0.0
 10
13.2983257978
 20
69.4120218963
 30
0.0
 10
13.7995104954
 20
69.4833017905
 30
0.0
 10
14.3136989845
 20
69.5094356143
 30
0.0
 10
14.8287542826
 20
69.4898371878
 30
0.0
 10
15.3325649722
 20
69.4249832086
 30
0.0
 10
15.813288684
 20
69.3163664283
 30
0.0
 10
16.259665724
 20
69.1664967619
 30
0.0
 10
16.6613275003
 20
68.9788098514
 30
0.0
 10
17.0090080523
 20
68.7574430424
 30
0.0
 10
17.294630066
 20
68.5069968516
 30
0.0
 10
17.5112066674
 20
68.2324271165
 30
0.0
 10
17.6524365072
 20
67.9391018712
 30
0.0
 10
17.7126984879
 20
67.6342502775
 30
0.0
 10
17.6967508159
 20
67.4311275546
 30
0.0
 10
17.6760811683
 20
67.3333604405
 30
0.0
  0
SPLINE
  5
24B
100
AcDbEntity
  8
0
100
AcDbSpline
 62
7
  6
BYLAYER
 70
0
 71
3
 72
23
 73
19
 74
0
 42
0.0000001
 43
0.0000001
 44
0.0000000001
 40
0.0
 40
0.0
 40
0.0
 40
0.0
 40
0.063475327
 40
0.1311738375
 40
0.2022314399
 40
0.2756886836
 40
0.3504124451
 40
0.4252214377
 40
0.4989310334
 40
0.5704057776
 40
0.6386251712
 40
0.7027539439
 40
0.762218099
 40
0.8167977334
 40
0.8667423032
 40
0.9128817154
 40
0.9566618273
 40
1.0
 40
1.0
 40
1.0
 40
1.0
 10
32.4881546856
 20
57.0964273963
 30
0.0
 10
32.6149063432
 20
57.1696070632
 30
0.0
 10
32.8874946059
 20
57.3028101734
 30
0.0
 10
33.3279872359
 20
57.4583371776
 30
0.0
 10
33.8045078271
 20
57.5730400153
 30
0.0
 10
34.3056925246
 20
57.6443199094
 30
0.0
 10
34.8198810138
 20
57.6704537332
 30
0.0
 10
35.3349363119
 20
57.6508553067
 30
0.0
 10
35.8387470014
 20
57.5860013275
 30
0.0
 10
36.3194707133
 20
57.4773845472
 30
0.0
 10
36.7658477532
 20
57.3275148808
 30
0.0
 10
37.1675095296
 20
57.1398279704
 30
0.0
 10
37.5151900815
 20
56.9184611613
 30
0.0
 10
37.8008120952
 20
56.6680149705
 30
0.0
 10
38.0173886967
 20
56.3934452354
 30
0.0
 10
38.1586185365
 20
56.1001199901
 30
0.0
 10
38.2188805171
 20
55.7952683964
 30
0.0
 10
38.2029328451
 20
55.5921456735
 30
0.0
 10
38.1822631976
 20
55.4943785594
 30
0.0
  0
SPLINE
  5
24C
100
AcDbEntity
  8
0
100
AcDbSpline
 62
7
  6
BYLAYER
 70
0
 71
3
 72
23
 73
19
 74
0
 42
0.0000001
 43
0.0000001
 44
0.0000000001
 40
0.0
 40
0.0
 40
0.0
 40
0.0
 40
0.063475327
 40
0.1311738375
 40
0.2022314399
 40
0.2756886836
 40
0.3504124451
 40
0.4252214377
 40
0.4989310334
 40
0.5704057776
 40
0.6386251712
 40
0.7027539439
 40
0.762218099
 40
0.8167977334
 40
0.8667423032
 40
0.9128817154
 40
0.9566618273
 40
1.0
 40
1.0
 40
1.0
 40
1.0
 10
52.9941659648
 20
68.9355078586
 30
0.0
 10
53.1209176224
 20
69.0086875254
 30
0.0
 10
53.3935058852
 20
69.1418906357
 30
0.0
 10
53.8339985151
 20
69.2974176399
 30
0.0
 10
54.3105191063
 20
69.4121204775
 30
0.0
 10
54.8117038038
 20
69.4834003716
 30
0.0
 10
55.325892293
 20
69.5095341955
 30
0.0
 10
55.8409475911
 20
69.489935769
 30
0.0
 10
56.3447582806
 20
69.4250817897
 30
0.0
 10
56.8254819925
 20
69.3164650095
 30
0.0
 10
57.2718590324
 20
69.1665953431
 30
0.0
 10
57.6735208088
 20
68.9789084326
 30
0.0
 10
58.0212013607
 20
68.7575416236
 30
0.0
 10
58.3068233744
 20
68.5070954328
 30
0.0
 10
58.5233999759
 20
68.2325256977
 30
0.0
 10
58.6646298157
 20
67.9392004524
 30
0.0
 10
58.7248917963
 20
67.6343488587
 30
0.0
 10
58.7089441243
 20
67.4312261358
 30
0.0
 10
58.6882744768
 20
67.3334590216
 30
0.0
  0
SPLINE
  5
24D
100
AcDbEntity
  8
0
100
AcDbSpline
 62
7
  6
BYLAYER
 70
0
 71
3
 72
23
 73
19
 74
0
 42
0.0000001
 43
0.0000001
 44
0.0000000001
 40
0.0
 40
0.0
 40
0.0
 40
0.0
 40
0.063475327
 40
0.1311738375
 40
0.2022314399
 40
0.2756886836
 40
0.3504124451
 40
0.4252214377
 40
0.4989310334
 40
0.5704057776
 40
0.6386251712
 40
0.7027539439
 40
0.762218099
 40
0.8167977334
 40
0.8667423032
 40
0.9128817154
 40
0.9566618273
 40
1.0
 40
1.0
 40
1.0
 40
1.0
 10
32.4879839355
 20
80.7744897397
 30
0.0
 10
32.6147355932
 20
80.8476694065
 30
0.0
 10
32.8873238559
 20
80.9808725168
 30
0.0
 10
33.3278164858
 20
81.136399521
 30
0.0
 10
33.804337077
 20
81.2511023586
 30
0.0
 10
34.3055217746
 20
81.3223822527
 30
0.0
 10
34.8197102637
 20
81.3485160766
 30
0.0
 10
35.3347655619
 20
81.3289176501
 30
0.0
 10
35.8385762514
 20
81.2640636708
 30
0.0
 10
36.3192999632
 20
81.1554468906
 30
0.0
 10
36.7656770032
 20
81.0055772242
 30
0.0
 10
37.1673387795
 20
80.8178903137
 30
0.0
 10
37.5150193315
 20
80.5965235047
 30
0.0
 10
37.8006413452
 20
80.3460773139
 30
0.0
 10
38.0172179466
 20
80.0715075788
 30
0.0
 10
38.1584477864
 20
79.7781823335
 30
0.0
 10
38.2187097671
 20
79.4733307397
 30
0.0
 10
38.2027620951
 20
79.2702080169
 30
0.0
 10
38.1820924475
 20
79.1724409027
 30
0.0
  0
SPLINE
  5
24E
100
AcDbEntity
  8
0
100
AcDbSpline
 62
7
  6
BYLAYER
 70
0
 71
3
 72
15
 73
11
 74
0
 42
0.0000001
 43
0.0000001
 44
0.0000000001
 40
0.0
 40
0.0
 40
0.0
 40
0.0
 40
0.1165294087
 40
0.2399292319
 40
0.3682038902
 40
0.4990484509
 40
0.6300222263
 40
0.7586655925
 40
0.8826418408
 40
1.0
 40
1.0
 40
1.0
 40
1.0
 10
36.5912051682
 20
54.1032227087
 30
0.0
 10
36.4671902573
 20
54.1614018813
 30
0.0
 10
36.2035181729
 20
54.2639147075
 30
0.0
 10
35.7840229904
 20
54.3737077643
 30
0.0
 10
35.3387449928
 20
54.4417361615
 30
0.0
 10
34.8801099429
 20
54.4661196754
 30
0.0
 10
34.4208275779
 20
54.4461763852
 30
0.0
 10
33.97364493
 20
54.3824576815
 30
0.0
 10
33.5509605668
 20
54.2767511667
 30
0.0
 10
33.2845465571
 20
54.1768334596
 30
0.0
 10
33.1588923498
 20
54.1198827104
 30
0.0
  0
SPLINE
  5
24F
100
AcDbEntity
  8
0
100
AcDbSpline
 62
7
  6
BYLAYER
 70
0
 71
3
 72
15
 73
11
 74
0
 42
0.0000001
 43
0.0000001
 44
0.0000000001
 40
0.0
 40
0.0
 40
0.0
 40
0.0
 40
0.1101994017
 40
0.2201976164
 40
0.332758711
 40
0.4503309135
 40
0.5748202415
 40
0.707570633
 40
0.8493325153
 40
1.0
 40
1.0
 40
1.0
 40
1.0
 10
31.5316943771
 20
55.4943795282
 30
0.0
 10
31.5165079877
 20
55.5661396376
 30
0.0
 10
31.4997840721
 20
55.7128575445
 30
0.0
 10
31.5187172434
 20
55.9349187129
 30
0.0
 10
31.5814456701
 20
56.1538536546
 30
0.0
 10
31.6866171918
 20
56.3664539656
 30
0.0
 10
31.8324584675
 20
56.570048756
 30
0.0
 10
32.0168287021
 20
56.7623073502
 30
0.0
 10
32.2372290727
 20
56.9408226344
 30
0.0
 10
32.4013049784
 20
57.0462849938
 30
0.0
 10
32.4881546856
 20
57.0964273963
 30
0.0
  0
SPLINE
  5
250
100
AcDbEntity
  8
0
100
AcDbSpline
 62
7
  6
BYLAYER
 70
0
 71
3
 72
11
 73
7
 74
0
 42
0.0000001
 43
0.0000001
 44
0.0000000001
 40
0.0
 40
0.0
 40
0.0
 40
0.0
 40
0.242951298
 40
0.5004574013
 40
0.7577247967
 40
1.0
 40
1.0
 40
1.0
 40
1.0
 10
33.5179938391
 20
54.0209742287
 30
0.0
 10
33.7255547655
 20
54.1015770761
 30
0.0
 10
34.1723327714
 20
54.2198611407
 30
0.0
 10
34.8676161411
 20
54.2765083738
 30
0.0
 10
35.5619946261
 20
54.2163513815
 30
0.0
 10
36.0072872779
 20
54.095679226
 30
0.0
 10
36.2137602027
 20
54.0139985359
 30
0.0
  0
SPLINE
  5
251
100
AcDbEntity
  8
0
100
AcDbSpline
 62
7
  6
BYLAYER
 70
0
 71
3
 72
11
 73
7
 74
0
 42
0.0000001
 43
0.0000001
 44
0.0000000001
 40
0.0
 40
0.0
 40
0.0
 40
0.0
 40
0.242951298
 40
0.5004574013
 40
0.7577247967
 40
1.0
 40
1.0
 40
1.0
 40
1.0
 10
54.0240051183
 20
65.860054691
 30
0.0
 10
54.2315660447
 20
65.9406575384
 30
0.0
 10
54.6783440506
 20
66.058941603
 30
0.0
 10
55.3736274203
 20
66.1155888361
 30
0.0
 10
56.0680059053
 20
66.0554318438
 30
0.0
 10
56.5132985571
 20
65.9347596883
 30
0.0
 10
56.7197714819
 20
65.8530789982
 30
0.0
  0
SPLINE
  5
252
100
AcDbEntity
  8
0
100
AcDbSpline
 62
7
  6
BYLAYER
 70
0
 71
3
 72
15
 73
11
 74
0
 42
0.0000001
 43
0.0000001
 44
0.0000000001
 40
0.0
 40
0.0
 40
0.0
 40
0.0
 40
0.1165294087
 40
0.2399292319
 40
0.3682038902
 40
0.4990484509
 40
0.6300222263
 40
0.7586655925
 40
0.8826418408
 40
1.0
 40
1.0
 40
1.0
 40
1.0
 10
36.5910344181
 20
77.7812850521
 30
0.0
 10
36.4670195073
 20
77.8394642247
 30
0.0
 10
36.2033474228
 20
77.9419770508
 30
0.0
 10
35.7838522403
 20
78.0517701077
 30
0.0
 10
35.3385742428
 20
78.1197985049
 30
0.0
 10
34.8799391929
 20
78.1441820187
 30
0.0
 10
34.4206568278
 20
78.1242387286
 30
0.0
 10
33.97347418
 20
78.0605200249
 30
0.0
 10
33.5507898167
 20
77.95481351
 30
0.0
 10
33.2843758071
 20
77.8548958029
 30
0.0
 10
33.1587215997
 20
77.7979450537
 30
0.0
  0
SPLINE
  5
253
100
AcDbEntity
  8
0
100
AcDbSpline
 62
7
  6
BYLAYER
 70
0
 71
3
 72
15
 73
11
 74
0
 42
0.0000001
 43
0.0000001
 44
0.0000000001
 40
0.0
 40
0.0
 40
0.0
 40
0.0
 40
0.1101994017
 40
0.2201976164
 40
0.332758711
 40
0.4503309135
 40
0.5748202415
 40
0.707570633
 40
0.8493325153
 40
1.0
 40
1.0
 40
1.0
 40
1.0
 10
11.0255123479
 20
67.3333614093
 30
0.0
 10
11.0103259584
 20
67.4051215187
 30
0.0
 10
10.9936020428
 20
67.5518394256
 30
0.0
 10
11.0125352141
 20
67.773900594
 30
0.0
 10
11.0752636409
 20
67.9928355357
 30
0.0
 10
11.1804351625
 20
68.2054358467
 30
0.0
 10
11.3262764383
 20
68.4090306371
 30
0.0
 10
11.5106466728
 20
68.6012892313
 30
0.0
 10
11.7310470434
 20
68.7798045155
 30
0.0
 10
11.8951229492
 20
68.8852668749
 30
0.0
 10
11.9819726563
 20
68.9354092774
 30
0.0
  0
SPLINE
  5
254
100
AcDbEntity
  8
0
100
AcDbSpline
 62
7
  6
BYLAYER
 70
0
 71
3
 72
11
 73
7
 74
0
 42
0.0000001
 43
0.0000001
 44
0.0000000001
 40
0.0
 40
0.0
 40
0.0
 40
0.0
 40
0.2177817009
 40
0.4509079353
 40
0.7102947134
 40
1.0
 40
1.0
 40
1.0
 40
1.0
 10
9.173843047
 20
67.4861454206
 30
0.0
 10
9.1738430576
 20
67.4290128
 30
0.0
 10
9.1949563905
 20
67.3099303341
 30
0.0
 10
9.2852332362
 20
67.144010357
 30
0.0
 10
9.4279480934
 20
66.9940255058
 30
0.0
 10
9.5473606566
 20
66.911779034
 30
0.0
 10
9.6131798064
 20
66.8737791898
 30
0.0
  0
SPLINE
  5
255
100
AcDbEntity
  8
0
100
AcDbSpline
 62
7
  6
BYLAYER
 70
0
 71
3
 72
15
 73
11
 74
0
 42
0.0000001
 43
0.0000001
 44
0.0000000001
 40
0.0
 40
0.0
 40
0.0
 40
0.0
 40
0.1165294087
 40
0.2399292319
 40
0.3682038902
 40
0.4990484509
 40
0.6300222263
 40
0.7586655925
 40
0.8826418408
 40
1.0
 40
1.0
 40
1.0
 40
1.0
 10
16.0850231389
 20
65.9422045898
 30
0.0
 10
15.9610082281
 20
66.0003837624
 30
0.0
 10
15.6973361436
 20
66.1028965886
 30
0.0
 10
15.2778409611
 20
66.2126896454
 30
0.0
 10
14.8325629636
 20
66.2807180426
 30
0.0
 10
14.3739279137
 20
66.3051015565
 30
0.0
 10
13.9146455486
 20
66.2851582663
 30
0.0
 10
13.4674629008
 20
66.2214395626
 30
0.0
 10
13.0447785375
 20
66.1157330477
 30
0.0
 10
12.7783645279
 20
66.0158153406
 30
0.0
 10
12.6527103205
 20
65.9588645915
 30
0.0
  0
SPLINE
  5
256
100
AcDbEntity
  8
0
100
AcDbSpline
 62
7
  6
BYLAYER
 70
0
 71
3
 72
15
 73
11
 74
0
 42
0.0000001
 43
0.0000001
 44
0.0000000001
 40
0.0
 40
0.0
 40
0.0
 40
0.0
 40
0.1101994017
 40
0.2201976164
 40
0.332758711
 40
0.4503309135
 40
0.5748202415
 40
0.707570633
 40
0.8493325153
 40
1.0
 40
1.0
 40
1.0
 40
1.0
 10
31.5315236271
 20
79.1724418716
 30
0.0
 10
31.5163372376
 20
79.2442019809
 30
0.0
 10
31.499613322
 20
79.3909198878
 30
0.0
 10
31.5185464933
 20
79.6129810563
 30
0.0
 10
31.5812749201
 20
79.831915998
 30
0.0
 10
31.6864464417
 20
80.044516309
 30
0.0
 10
31.8322877175
 20
80.2481110994
 30
0.0
 10
32.016657952
 20
80.4403696935
 30
0.0
 10
32.2370583226
 20
80.6188849778
 30
0.0
 10
32.4011342284
 20
80.7243473372
 30
0.0
 10
32.4879839355
 20
80.7744897397
 30
0.0
  0
SPLINE
  5
257
100
AcDbEntity
  8
0
100
AcDbSpline
 62
7
  6
BYLAYER
 70
0
 71
3
 72
11
 73
7
 74
0
 42
0.0000001
 43
0.0000001
 44
0.0000000001
 40
0.0
 40
0.0
 40
0.0
 40
0.0
 40
0.2897048043
 40
0.5490913404
 40
0.7822177947
 40
1.0
 40
1.0
 40
1.0
 40
1.0
 10
60.1006028051
 20
67.0371975283
 30
0.0
 10
60.1664207237
 20
67.0751972945
 30
0.0
 10
60.2858310195
 20
67.157443422
 30
0.0
 10
60.4285429598
 20
67.3074271687
 30
0.0
 10
60.5188178545
 20
67.4733455307
 30
0.0
 10
60.5399307432
 20
67.5924266429
 30
0.0
 10
60.5399307326
 20
67.6495586601
 30
0.0
  0
SPLINE
  5
258
100
AcDbEntity
  8
0
100
AcDbSpline
 62
7
  6
BYLAYER
 70
0
 71
3
 72
11
 73
7
 74
0
 42
0.0000001
 43
0.0000001
 44
0.0000000001
 40
0.0
 40
0.0
 40
0.0
 40
0.0
 40
0.242951298
 40
0.5004574013
 40
0.7577247967
 40
1.0
 40
1.0
 40
1.0
 40
1.0
 10
13.0118118098
 20
65.8599561098
 30
0.0
 10
13.2193727362
 20
65.9405589572
 30
0.0
 10
13.6661507422
 20
66.0588430218
 30
0.0
 10
14.3614341118
 20
66.1154902549
 30
0.0
 10
15.0558125968
 20
66.0553332626
 30
0.0
 10
15.5011052487
 20
65.9346611071
 30
0.0
 10
15.7075781734
 20
65.852980417
 30
0.0
  0
SPLINE
  5
259
100
AcDbEntity
  8
0
100
AcDbSpline
 62
7
  6
BYLAYER
 70
0
 71
3
 72
15
 73
11
 74
0
 42
0.0000001
 43
0.0000001
 44
0.0000000001
 40
0.0
 40
0.0
 40
0.0
 40
0.0
 40
0.1165294087
 40
0.2399292319
 40
0.3682038902
 40
0.4990484509
 40
0.6300222263
 40
0.7586655925
 40
0.8826418408
 40
1.0
 40
1.0
 40
1.0
 40
1.0
 10
57.0972164474
 20
65.942303171
 30
0.0
 10
56.9732015365
 20
66.0004823436
 30
0.0
 10
56.7095294521
 20
66.1029951698
 30
0.0
 10
56.2900342696
 20
66.2127882266
 30
0.0
 10
55.844756272
 20
66.2808166238
 30
0.0
 10
55.3861212221
 20
66.3052001376
 30
0.0
 10
54.9268388571
 20
66.2852568475
 30
0.0
 10
54.4796562092
 20
66.2215381438
 30
0.0
 10
54.056971846
 20
66.1158316289
 30
0.0
 10
53.7905578363
 20
66.0159139218
 30
0.0
 10
53.664903629
 20
65.9589631727
 30
0.0
  0
SPLINE
  5
25A
100
AcDbEntity
  8
0
100
AcDbSpline
 62
7
  6
BYLAYER
 70
0
 71
3
 72
15
 73
11
 74
0
 42
0.0000001
 43
0.0000001
 44
0.0000000001
 40
0.0
 40
0.0
 40
0.0
 40
0.0
 40
0.1101994017
 40
0.2201976164
 40
0.332758711
 40
0.4503309135
 40
0.5748202415
 40
0.707570633
 40
0.8493325153
 40
1.0
 40
1.0
 40
1.0
 40
1.0
 10
52.0377056563
 20
67.3334599905
 30
0.0
 10
52.0225192669
 20
67.4052200998
 30
0.0
 10
52.0057953513
 20
67.5519380067
 30
0.0
 10
52.0247285226
 20
67.7739991752
 30
0.0
 10
52.0874569493
 20
67.9929341169
 30
0.0
 10
52.192628471
 20
68.2055344279
 30
0.0
 10
52.3384697467
 20
68.4091292183
 30
0.0
 10
52.5228399813
 20
68.6013878124
 30
0.0
 10
52.7432403519
 20
68.7799030967
 30
0.0
 10
52.9073162576
 20
68.8853654561
 30
0.0
 10
52.9941659648
 20
68.9355078586
 30
0.0
  0
SPLINE
  5
25B
100
AcDbEntity
  8
0
100
AcDbSpline
 62
7
  6
BYLAYER
 70
0
 71
3
 72
11
 73
7
 74
0
 42
0.0000001
 43
0.0000001
 44
0.0000000001
 40
0.0
 40
0.0
 40
0.0
 40
0.0
 40
0.242951298
 40
0.5004574013
 40
0.7577247967
 40
1.0
 40
1.0
 40
1.0
 40
1.0
 10
33.517823089
 20
77.6990365721
 30
0.0
 10
33.7253840154
 20
77.7796394195
 30
0.0
 10
34.1721620214
 20
77.8979234841
 30
0.0
 10
34.867445391
 20
77.9545707172
 30
0.0
 10
35.561823876
 20
77.8944137249
 30
0.0
 10
36.0071165279
 20
77.7737415694
 30
0.0
 10
36.2135894526
 20
77.6920608792
 30
0.0
  0
ENDSEC
  0
SECTION
  2
OBJECTS
  0
DICTIONARY
  5
C
100
AcDbDictionary
280
0
281
1
  3
ACAD_GROUP
350
D
  3
ACAD_MLINESTYLE
350
17
  3
ACAD_LAYOUT
350
1A
  3
ACAD_PLOTSETTINGS
350
19
  3
ACAD_PLOTSTYLENAME
350
E
  0
DICTIONARY
  5
D
102
{ACAD_REACTORS
330
C
102
}
100
AcDbDictionary
280
0
281
1
  0
ACDBDICTIONARYWDFLT
  5
E
102
{ACAD_REACTORS
330
C
102
}
100
AcDbDictionary
281
1
  3
Normal
350
F
100
AcDbDictionaryWithDefault
340
F
  0
DICTIONARY
  5
17
102
{ACAD_REACTORS
330
C
102
}
100
AcDbDictionary
280
0
281
1
  3
Standard
350
18
  0
DICTIONARY
  5
19
102
{ACAD_REACTORS
330
C
102
}
100
AcDbDictionary
281
1
  0
DICTIONARY
  5
1A
102
{ACAD_REACTORS
330
C
102
}
100
AcDbDictionary
281
1
  3
Model
350
25C
  3
Layout1
350
25D
  0
ACDBPLACEHOLDER
  5
F
102
{ACAD_REACTORS
330
E
102
}
  0
MLINESTYLE
  5
18
102
{ACAD_REACTORS
330
17
102
}
100
AcDbMlineStyle
  2
STANDARD
 70
0
  3

 62
256
 51
90.0
 52
90.0
 71
2
 49
0.5
 62
256
  6
BYLAYER
 49
-0.5
 62
256
  6
BYLAYER
  0
LAYOUT
  5
25C
102
{ACAD_REACTORS
330
1A
102
}
100
AcDbPlotSettings
  1

  2
none_device
  4

  6

 40
0.0
 41
0.0
 42
0.0
 43
0.0
 44
210.0
 45
297.0
 46
0.0
 47
0.0
 48
0.0
 49
0.0
140
0.0
141
0.0
142
1.0
143
1.0
 70
1024
 72
1
 73
0
 74
0
  7

 75
0
147
1.0
148
0.0
149
0.0
100
AcDbLayout
  1
Model
 70
0
 71
0
 10
0.0
 20
0.0
 11
210.0
 21
297.0
 12
0.0
 22
0.0
 32
0.0
 14
0.0
 24
0.0
 34
0.0
 15
0.0
 25
0.0
 35
0.0
146
0.0
 13
0.0
 23
0.0
 33
0.0
 16
1.0
 26
0.0
 36
0.0
 17
0.0
 27
1.0
 37
0.0
 76
0
330
210
345
0
346
0
  0
LAYOUT
  5
25D
102
{ACAD_REACTORS
330
1A
102
}
100
AcDbPlotSettings
  1

  2
none_device
  4

  6

 40
0.0
 41
0.0
 42
0.0
 43
0.0
 44
210.0
 45
297.0
 46
0.0
 47
0.0
 48
0.0
 49
0.0
140
0.0
141
0.0
142
1.0
143
1.0
 70
0
 72
1
 73
0
 74
0
  7

 75
0
147
1.0
148
0.0
149
0.0
100
AcDbLayout
  1
Layout1
 70
0
 71
1
 10
0.0
 20
0.0
 11
210.0
 21
297.0
 12
0.0
 22
0.0
 32
0.0
 14
0.0
 24
0.0
 34
0.0
 15
0.0
 25
0.0
 35
0.0
146
0.0
 13
0.0
 23
0.0
 33
0.0
 16
1.0
 26
0.0
 36
0.0
 17
0.0
 27
1.0
 37
0.0
 76
0
330
211
345
0
346
0
  0
ENDSEC
  0
EOF
