999
DXF file: C:\Users\sesa63760\Dev\_Creo\CAD\MCADID0004602_3D-CAD\drw0001_1.dxf
999
Pro/ENGINEER 2019471 by Parametric Technology Corporation
  0
SECTION
  2
HEADER
  9
$ACADVER
  1
AC1024
  9
$DWGCODEPAGE
  3
ANSI_1252
  9
$EXTMAX
 10
136.2394422424
 20
192.6814968857
 30
0.0
  9
$EXTMIN
 10
0.0
 20
0.0
 30
0.0
  9
$LIMMIN
 10
0.0
 20
0.0
  9
$LIMMAX
 10
136.2394422424
 20
192.6814968857
  9
$VIEWCTR
 10
68.1197211212
 20
96.3407484428
  9
$VIEWSIZE
 40
192.6814968857
  9
$CLAYER
  8
0
  9
$LTSCALE
 40
12.5599790563
  9
$CELTYPE
  6
BYLAYER
  9
$DIMSCALE
 40
1.0
  9
$DIMASZ
 40
1.6218981219
  9
$DIMEXO
 40
1.0
  9
$DIMDLI
 40
8.6778037116
  9
$DIMEXE
 40
1.0
  9
$DIMCEN
 40
2.0552693001
  9
$DIMLFAC
 40
1.0
  9
$DIMBLK
  1
_FILLED
  9
$DIMALT
 70
0
  9
$DIMALTF
 40
0.0393700787
  9
$DIMTXT
 40
2.2706573707
  9
$DIMTOL
 70
1
  9
$DIMLIM
 70
0
  9
$DIMTFAC
 40
1.0
  9
$DIMTP
 40
0.01
  9
$DIMTM
 40
0.01
  9
$DIMGAP
 40
0.625
  9
$DIMDSEP
 70
46
  9
$AUNITS
 70
0
  9
$PDMODE
 70
3
  9
$PDSIZE
 40
0.3125
  9
$HANDSEED
  5
2B8
  9
$TILEMODE
 70
1
  9
$MEASUREMENT
 70
1
  9
$INSUNITS
 70
4
  0
ENDSEC
  0
SECTION
  2
CLASSES
  0
CLASS
  1
ACDBDICTIONARYWDFLT
  2
AcDbDictionaryWithDefault
  3
AutoCAD 2000
 90
0
 91
1
280
0
281
0
  0
CLASS
  1
ACDBPLACEHOLDER
  2
AcDbPlaceHolder
  3
AutoCAD 2000
 90
0
 91
1
280
0
281
0
  0
CLASS
  1
LAYOUT
  2
AcDbLayout
  3
AutoCAD 2000
 90
0
 91
0
280
0
281
0
  0
ENDSEC
  0
SECTION
  2
TABLES
  0
TABLE
  2
VPORT
  5
8
100
AcDbSymbolTable
 70
2
  0
VPORT
  5
1F4
100
AcDbSymbolTableRecord
100
AcDbViewportTableRecord
  2
*ACTIVE
 70
0
 10
0.0
 20
0.0
 11
1.0
 21
1.0
 12
68.1197211212
 22
96.3407484428
 13
0.0
 23
0.0
 14
1.0
 24
1.0
 15
0.0
 25
0.0
 16
0.0
 26
0.0
 36
1.0
 17
0.0
 27
0.0
 37
0.0
 40
192.6814968857
 41
0.7070707071
 42
50.0
 43
0.0
 44
0.0
 50
0.0
 51
0.0
 71
0
 72
100
 73
1
 74
1
 75
0
 76
0
 77
0
 78
0
  0
ENDTAB
  0
TABLE
  2
LTYPE
  5
5
100
AcDbSymbolTable
 70
6
  0
LTYPE
  5
14
100
AcDbSymbolTableRecord
100
AcDbLinetypeTableRecord
  2
BYBLOCK
 70
0
  3

 72
65
 73
0
 40
0.0
  0
LTYPE
  5
15
100
AcDbSymbolTableRecord
100
AcDbLinetypeTableRecord
  2
BYLAYER
 70
0
  3

 72
65
 73
0
 40
0.0
  0
LTYPE
  5
16
100
AcDbSymbolTableRecord
100
AcDbLinetypeTableRecord
  2
CONTINUOUS
 70
64
  3
Solid line
 72
65
 73
0
 40
0.0
  0
LTYPE
  5
1F5
100
AcDbSymbolTableRecord
100
AcDbLinetypeTableRecord
  2
CENTER
 70
64
  3
____ _ ____ _ ____ _ ____ _ ____ _ ____ _ ____
 72
65
 73
4
 40
0.6
 49
0.375
 74
0
 49
-0.075
 74
0
 49
0.075
 74
0
 49
-0.075
 74
0
  0
LTYPE
  5
1F6
100
AcDbSymbolTableRecord
100
AcDbLinetypeTableRecord
  2
HIDDEN
 70
64
  3
- - - - - - - - - - - - - - - - - - - -
 72
65
 73
2
 40
0.2
 49
0.1
 74
0
 49
-0.1
 74
0
  0
LTYPE
  5
1F7
100
AcDbSymbolTableRecord
100
AcDbLinetypeTableRecord
  2
PHANTOM
 70
64
  3
_____ _ _ _____ _ _ _____ _ _ _____
 72
65
 73
6
 40
0.8
 49
0.45
 74
0
 49
-0.05
 74
0
 49
0.1
 74
0
 49
-0.05
 74
0
 49
0.1
 74
0
 49
-0.05
 74
0
  0
LTYPE
  5
1F8
100
AcDbSymbolTableRecord
100
AcDbLinetypeTableRecord
  2
DOT
 70
64
  3
. . . . . . . . . . . . . . . . . . . .
 72
65
 73
2
 40
0.2
 49
0.1
 74
0
 49
-0.1
 74
0
  0
LTYPE
  5
1F9
100
AcDbSymbolTableRecord
100
AcDbLinetypeTableRecord
  2
DASHED
 70
64
  3
- - - - - - - - - - - - - - - - - - - -
 72
65
 73
2
 40
0.2
 49
0.1
 74
0
 49
-0.1
 74
0
  0
ENDTAB
  0
TABLE
  2
LAYER
  5
2
100
AcDbSymbolTable
 70
36
  0
LAYER
  5
10
100
AcDbSymbolTableRecord
100
AcDbLayerTableRecord
  2
0
 70
0
 62
7
  6
CONTINUOUS
370
-3
390
F
  0
LAYER
  5
1FA
100
AcDbSymbolTableRecord
100
AcDbLayerTableRecord
  2
DEFAULT_1
 70
0
 62
7
  6
CENTER
370
-3
390
F
  0
LAYER
  5
1FB
100
AcDbSymbolTableRecord
100
AcDbLayerTableRecord
  2
DEFAULT_2
 70
0
 62
7
  6
HIDDEN
370
-3
390
F
  0
LAYER
  5
1FC
100
AcDbSymbolTableRecord
100
AcDbLayerTableRecord
  2
DEFAULT_3
 70
0
 62
7
  6
PHANTOM
370
-3
390
F
  0
LAYER
  5
1FD
100
AcDbSymbolTableRecord
100
AcDbLayerTableRecord
  2
00_COMPONENTS
 70
0
 62
7
  6
CONTINUOUS
370
-3
390
F
  0
LAYER
  5
1FE
100
AcDbSymbolTableRecord
100
AcDbLayerTableRecord
  2
01_1_DEFAULT_DATUMS
 70
0
 62
7
  6
CONTINUOUS
370
-3
390
F
  0
LAYER
  5
1FF
100
AcDbSymbolTableRecord
100
AcDbLayerTableRecord
  2
01_PLANES
 70
0
 62
7
  6
CONTINUOUS
370
-3
390
F
  0
LAYER
  5
200
100
AcDbSymbolTableRecord
100
AcDbLayerTableRecord
  2
02_COORD_SYS
 70
0
 62
7
  6
CONTINUOUS
370
-3
390
F
  0
LAYER
  5
201
100
AcDbSymbolTableRecord
100
AcDbLayerTableRecord
  2
03_AXES
 70
0
 62
7
  6
CONTINUOUS
370
-3
390
F
  0
LAYER
  5
202
100
AcDbSymbolTableRecord
100
AcDbLayerTableRecord
  2
04_POINTS
 70
0
 62
7
  6
CONTINUOUS
370
-3
390
F
  0
LAYER
  5
203
100
AcDbSymbolTableRecord
100
AcDbLayerTableRecord
  2
05_CURVES
 70
0
 62
7
  6
CONTINUOUS
370
-3
390
F
  0
LAYER
  5
204
100
AcDbSymbolTableRecord
100
AcDbLayerTableRecord
  2
06_SURFS
 70
0
 62
7
  6
CONTINUOUS
370
-3
390
F
  0
LAYER
  5
205
100
AcDbSymbolTableRecord
100
AcDbLayerTableRecord
  2
07_COSMETICS
 70
0
 62
7
  6
CONTINUOUS
370
-3
390
F
  0
LAYER
  5
206
100
AcDbSymbolTableRecord
100
AcDbLayerTableRecord
  2
10_NOTES
 70
0
 62
7
  6
CONTINUOUS
370
-3
390
F
  0
LAYER
  5
207
100
AcDbSymbolTableRecord
100
AcDbLayerTableRecord
  2
11_NOTES_PUB
 70
0
 62
7
  6
CONTINUOUS
370
-3
390
F
  0
LAYER
  5
208
100
AcDbSymbolTableRecord
100
AcDbLayerTableRecord
  2
13_REF_GTOL
 70
0
 62
7
  6
CONTINUOUS
370
-3
390
F
  0
LAYER
  5
209
100
AcDbSymbolTableRecord
100
AcDbLayerTableRecord
  2
16_MISC
 70
0
 62
7
  6
CONTINUOUS
370
-3
390
F
  0
LAYER
  5
20A
100
AcDbSymbolTableRecord
100
AcDbLayerTableRecord
  2
17_NO_PRINT
 70
0
 62
7
  6
CONTINUOUS
370
-3
390
F
  0
LAYER
  5
20B
100
AcDbSymbolTableRecord
100
AcDbLayerTableRecord
  2
18_DATUM_CAMS_JOINTS
 70
0
 62
7
  6
CONTINUOUS
370
-3
390
F
  0
LAYER
  5
20C
100
AcDbSymbolTableRecord
100
AcDbLayerTableRecord
  2
19_DATUM_FUNCTIONAL
 70
0
 62
7
  6
CONTINUOUS
370
-3
390
F
  0
LAYER
  5
20D
100
AcDbSymbolTableRecord
100
AcDbLayerTableRecord
  2
20_DATUM_KINEMATIC_SCHEME
 70
0
 62
7
  6
CONTINUOUS
370
-3
390
F
  0
ENDTAB
  0
TABLE
  2
STYLE
  5
3
100
AcDbSymbolTable
 70
1
  0
STYLE
  5
11
100
AcDbSymbolTableRecord
100
AcDbTextStyleTableRecord
  2
STANDARD
 70
0
 40
0.0
 41
1.0
 50
0.0
 71
0
 42
0.2
  3
ARIAL.TTF
  4

  0
STYLE
  5
20E
100
AcDbSymbolTableRecord
100
AcDbTextStyleTableRecord
  2
TEXTSTYLE_1
 70
0
 40
0.0
 41
0.8
 50
0.0
 71
0
 42
0.2
  3
gdt
  4

  0
ENDTAB
  0
TABLE
  2
VIEW
  5
6
100
AcDbSymbolTable
 70
0
  0
ENDTAB
  0
TABLE
  2
UCS
  5
7
100
AcDbSymbolTable
 70
0
  0
ENDTAB
  0
TABLE
  2
APPID
  5
9
100
AcDbSymbolTable
 70
1
  0
APPID
  5
20F
100
AcDbSymbolTableRecord
100
AcDbRegAppTableRecord
  2
ACAD
 70
0
  0
ENDTAB
  0
TABLE
  2
BLOCK_RECORD
  5
1
100
AcDbSymbolTable
 70
0
  0
BLOCK_RECORD
  5
210
100
AcDbSymbolTableRecord
100
AcDbBlockTableRecord
  2
*Model_Space
  0
BLOCK_RECORD
  5
211
100
AcDbSymbolTableRecord
100
AcDbBlockTableRecord
  2
*Paper_Space
  0
BLOCK_RECORD
  5
212
100
AcDbSymbolTableRecord
100
AcDbBlockTableRecord
  2
_FILLED
  0
ENDTAB
  0
TABLE
  2
DIMSTYLE
  5
A
100
AcDbSymbolTable
 70
1
100
AcDbDimStyleTable
 71
0
  0
DIMSTYLE
105
213
100
AcDbSymbolTableRecord
100
AcDbDimStyleTableRecord
  2
STANDARD
 70
0
  3

  4

 40
1.0
 41
1.6218981219
 42
1.0
 43
0.38
 44
1.0
 45
0.0
 46
0.0
 47
0.01
 48
0.01
140
2.2706573707
141
0.09
142
0.0
143
25.4
144
1.0
145
0.0
146
1.0
147
0.625
 71
1
 72
0
 73
0
 74
0
 75
0
 76
0
 77
1
 78
8
 79
2
170
0
171
1
172
0
173
0
174
0
175
0
176
0
177
0
178
0
270
2
179
2
271
2
272
2
273
2
274
2
275
0
280
0
281
0
282
0
283
1
284
8
285
0
286
0
287
3
288
0
340
11
278
46
341
212
342
212
343
212
344
212
  0
ENDTAB
  0
ENDSEC
  0
SECTION
  2
BLOCKS
  0
BLOCK
  5
20
100
AcDbEntity
  8
0
100
AcDbBlockBegin
  2
*Model_Space
 70
0
 10
0.0
 20
0.0
 30
0.0
  3
*Model_Space
  1

  0
ENDBLK
  5
21
100
AcDbEntity
  8
0
100
AcDbBlockEnd
  0
BLOCK
  5
1C
100
AcDbEntity
  8
0
100
AcDbBlockBegin
  2
*Paper_Space
 70
0
 10
0.0
 20
0.0
 30
0.0
  3
*Paper_Space
  1

  0
ENDBLK
  5
1D
100
AcDbEntity
  8
0
100
AcDbBlockEnd
  0
BLOCK
  5
214
100
AcDbEntity
  8
0
100
AcDbBlockBegin
  2
_FILLED
 70
64
 10
0.0
 20
0.0
  3
_FILLED
  1

  0
SOLID
  5
215
100
AcDbEntity
  8
0
  6
BYBLOCK
 62
0
100
AcDbTrace
 10
0.0
 20
0.0
 11
-1.0
 21
0.25
 12
-1.0
 22
-0.25
 13
-1.0
 23
-0.25
  0
ENDBLK
  5
216
100
AcDbEntity
  8
0
  6
BYBLOCK
 62
0
100
AcDbBlockEnd
  0
ENDSEC
  0
SECTION
  2
ENTITIES
  0
LINE
  5
217
100
AcDbEntity
  8
0
100
AcDbLine
 62
7
  6
BYLAYER
 10
27.0183149887
 20
114.3257404142
 11
27.0183149887
 21
122.4454294844
  0
LINE
  5
218
100
AcDbEntity
  8
0
100
AcDbLine
 62
7
  6
BYLAYER
 10
27.2977903108
 20
123.4051097145
 11
27.2116651535
 21
122.9291620596
  0
LINE
  5
219
100
AcDbEntity
  8
0
100
AcDbLine
 62
7
  6
BYLAYER
 10
27.109499951
 20
124.1608126407
 11
27.109499951
 21
122.6784191727
  0
LINE
  5
21A
100
AcDbEntity
  8
0
100
AcDbLine
 62
7
  6
BYLAYER
 10
27.109499951
 20
114.275119797
 11
27.109499951
 21
113.8930868802
  0
LINE
  5
21B
100
AcDbEntity
  8
0
100
AcDbLine
 62
7
  6
BYLAYER
 10
28.4482628124
 20
120.2233731496
 11
28.4482628124
 21
114.8966725806
  0
LINE
  5
21C
100
AcDbEntity
  8
0
100
AcDbLine
 62
7
  6
BYLAYER
 10
32.8323066031
 20
121.0241259646
 11
32.8323066031
 21
122.7544869036
  0
LINE
  5
21D
100
AcDbEntity
  8
0
100
AcDbLine
 62
7
  6
BYLAYER
 10
39.1256308492
 20
106.7148135841
 11
39.1256308492
 21
107.8540415041
  0
LINE
  5
21E
100
AcDbEntity
  8
0
100
AcDbLine
 62
7
  6
BYLAYER
 10
39.1256308492
 20
111.8344907876
 11
39.1256308492
 21
112.9737187077
  0
LINE
  5
21F
100
AcDbEntity
  8
0
100
AcDbLine
 62
7
  6
BYLAYER
 10
27.109499951
 20
113.8930868802
 11
26.0816855144
 21
113.452714769
  0
LINE
  5
220
100
AcDbEntity
  8
0
100
AcDbLine
 62
7
  6
BYLAYER
 10
42.0961718596
 20
113.7921936689
 11
42.0961718596
 21
102.4663309159
  0
LINE
  5
221
100
AcDbEntity
  8
0
100
AcDbLine
 62
7
  6
BYLAYER
 10
43.5450622154
 20
113.9626706451
 11
43.5450622154
 21
101.8475795777
  0
LINE
  5
222
100
AcDbEntity
  8
0
100
AcDbLine
 62
7
  6
BYLAYER
 10
43.5521333127
 20
104.4104948706
 11
43.5521333127
 21
111.3915905371
  0
LINE
  5
223
100
AcDbEntity
  8
0
100
AcDbLine
 62
7
  6
BYLAYER
 10
27.2116651535
 20
114.2287063585
 11
27.2977903111
 21
114.1236768665
  0
LINE
  5
224
100
AcDbEntity
  8
0
100
AcDbLine
 62
7
  6
BYLAYER
 10
43.5521333127
 20
104.4104948706
 11
46.5802450119
 21
106.1587655396
  0
LINE
  5
225
100
AcDbEntity
  8
0
100
AcDbLine
 62
7
  6
BYLAYER
 10
90.9095575768
 20
74.3374807247
 11
90.5678633536
 21
74.481819878
  0
LINE
  5
226
100
AcDbEntity
  8
0
100
AcDbLine
 62
7
  6
BYLAYER
 10
90.5678633536
 20
74.481819878
 11
89.1883192248
 21
75.2782820338
  0
LINE
  5
227
100
AcDbEntity
  8
0
100
AcDbLine
 62
7
  6
BYLAYER
 10
42.0961718596
 20
102.4663309159
 11
40.7166277308
 21
103.2627930717
  0
LINE
  5
228
100
AcDbEntity
  8
0
100
AcDbLine
 62
7
  6
BYLAYER
 10
88.8000846248
 20
75.7201712884
 11
43.5450622154
 21
101.8475795777
  0
LINE
  5
229
100
AcDbEntity
  8
0
100
AcDbLine
 62
7
  6
BYLAYER
 10
88.7930135276
 20
78.2912513964
 11
43.5521333127
 21
104.4104948706
  0
LINE
  5
22A
100
AcDbEntity
  8
0
100
AcDbLine
 62
7
  6
BYLAYER
 10
94.0783089953
 20
76.4269778746
 11
93.5921710592
 21
76.7076433933
  0
LINE
  5
22B
100
AcDbEntity
  8
0
100
AcDbLine
 62
7
  6
BYLAYER
 10
106.3246608283
 20
69.935730375
 11
105.5232228534
 21
70.3984303378
  0
LINE
  5
22C
100
AcDbEntity
  8
0
100
AcDbLine
 62
7
  6
BYLAYER
 10
28.4482628124
 20
114.8966725806
 11
27.6468248375
 21
115.3593725434
  0
LINE
  5
22D
100
AcDbEntity
  8
0
100
AcDbLine
 62
7
  6
BYLAYER
 10
88.7930135276
 20
81.7877636196
 11
67.7580471326
 21
93.93203239
  0
LINE
  5
22E
100
AcDbEntity
  8
0
100
AcDbLine
 62
7
  6
BYLAYER
 10
29.1403101583
 20
116.227488837
 11
67.597533225
 21
94.0247030413
  0
LINE
  5
22F
100
AcDbEntity
  8
0
100
AcDbLine
 62
7
  6
BYLAYER
 10
43.5521333127
 20
111.3915905371
 11
88.7930135276
 21
85.2723470629
  0
LINE
  5
230
100
AcDbEntity
  8
0
100
AcDbLine
 62
7
  6
BYLAYER
 10
27.6468248375
 20
120.6860731124
 11
28.4482628124
 21
120.2233731496
  0
LINE
  5
231
100
AcDbEntity
  8
0
100
AcDbLine
 62
7
  6
BYLAYER
 10
105.5232228534
 20
75.7251309069
 11
106.3246608283
 21
75.262430944
  0
LINE
  5
232
100
AcDbEntity
  8
0
100
AcDbLine
 62
7
  6
BYLAYER
 10
40.7166277308
 20
114.5886558247
 11
42.0961718596
 21
113.7921936689
  0
LINE
  5
233
100
AcDbEntity
  8
0
100
AcDbLine
 62
7
  6
BYLAYER
 10
89.1883192248
 20
86.6041447868
 11
90.5678633536
 21
85.807682631
  0
LINE
  5
234
100
AcDbEntity
  8
0
100
AcDbLine
 62
7
  6
BYLAYER
 10
43.5450622154
 20
113.9626706451
 11
88.8000846248
 21
87.8352623558
  0
LINE
  5
235
100
AcDbEntity
  8
0
100
AcDbLine
 62
7
  6
BYLAYER
 10
32.1402592572
 20
121.4236706471
 11
40.9499185464
 21
116.337526549
  0
LINE
  5
236
100
AcDbEntity
  8
0
100
AcDbLine
 62
7
  6
BYLAYER
 10
32.8323066031
 20
122.7544869036
 11
32.0308686283
 21
123.2171868664
  0
LINE
  5
237
100
AcDbEntity
  8
0
100
AcDbLine
 62
7
  6
BYLAYER
 10
99.0782241601
 20
85.0872808915
 11
98.5920862241
 21
85.3679464102
  0
LINE
  5
238
100
AcDbEntity
  8
0
100
AcDbLine
 62
7
  6
BYLAYER
 10
94.8104672411
 20
91.3053376637
 11
49.5554448317
 21
117.432745953
  0
LINE
  5
239
100
AcDbEntity
  8
0
100
AcDbLine
 62
7
  6
BYLAYER
 10
97.6389017258
 20
89.8901241697
 11
96.2593575969
 21
90.6865863255
  0
LINE
  5
23A
100
AcDbEntity
  8
0
100
AcDbLine
 62
7
  6
BYLAYER
 10
49.1672102318
 20
117.8746352076
 11
47.7876661029
 21
118.6710973634
  0
LINE
  5
23B
100
AcDbEntity
  8
0
100
AcDbLine
 62
7
  6
BYLAYER
 10
47.7876661029
 20
118.6710973634
 11
47.4459717556
 21
118.8154371139
  0
LINE
  5
23C
100
AcDbEntity
  8
0
100
AcDbLine
 62
7
  6
BYLAYER
 10
88.7930135276
 20
85.2723470629
 11
88.7930135276
 21
78.2912513964
  0
LINE
  5
23D
100
AcDbEntity
  8
0
100
AcDbLine
 62
7
  6
BYLAYER
 10
88.8000846248
 20
87.8352623558
 11
88.8000846248
 21
75.7201712884
  0
LINE
  5
23E
100
AcDbEntity
  8
0
100
AcDbLine
 62
7
  6
BYLAYER
 10
89.1883192248
 20
86.6041447868
 11
89.1883192248
 21
75.2782820338
  0
LINE
  5
23F
100
AcDbEntity
  8
0
100
AcDbLine
 62
7
  6
BYLAYER
 10
92.1588602352
 20
82.3556621186
 11
92.1588602352
 21
81.2164341986
  0
LINE
  5
240
100
AcDbEntity
  8
0
100
AcDbLine
 62
7
  6
BYLAYER
 10
92.1588602352
 20
77.2359849151
 11
92.1588602352
 21
76.096756995
  0
LINE
  5
241
100
AcDbEntity
  8
0
100
AcDbLine
 62
7
  6
BYLAYER
 10
99.2298986073
 20
85.2988757373
 11
99.2298986073
 21
86.4381036574
  0
LINE
  5
242
100
AcDbEntity
  8
0
100
AcDbLine
 62
7
  6
BYLAYER
 10
105.5232228534
 20
70.3984303378
 11
105.5232228534
 21
75.7251309069
  0
LINE
  5
243
100
AcDbEntity
  8
0
100
AcDbLine
 62
7
  6
BYLAYER
 10
106.9531706772
 20
76.2960630732
 11
106.9531706772
 21
68.176374003
  0
LINE
  5
244
100
AcDbEntity
  8
0
100
AcDbLine
 62
7
  6
BYLAYER
 10
107.2880645963
 20
76.6980771725
 11
107.2880645963
 21
67.9976214714
  0
LINE
  5
245
100
AcDbEntity
  8
0
100
AcDbLine
 62
7
  6
BYLAYER
 10
108.0640622381
 20
67.1550059083
 11
108.0640622381
 21
77.4227316688
  0
LINE
  5
246
100
AcDbEntity
  8
0
100
AcDbLine
 62
7
  6
BYLAYER
 10
106.7906681157
 20
76.0924402703
 11
106.9531706772
 21
76.2960630732
  0
ARC
  5
247
100
AcDbEntity
  8
0
100
AcDbCircle
 62
7
  6
BYLAYER
 10
42.5983177308
 20
116.4985375442
 40
16.6763907724
100
AcDbArc
 50
157.318230551
 51
159.1081287901
  0
ARC
  5
248
100
AcDbEntity
  8
0
100
AcDbCircle
 62
7
  6
BYLAYER
 10
114.6226937378
 20
70.2475388964
 40
9.7676112072
100
AcDbArc
 50
138.6695525948
 51
141.7391297816
  0
ARC
  5
249
100
AcDbEntity
  8
0
100
AcDbCircle
 62
7
  6
BYLAYER
 10
23.9227423189
 20
122.70386691
 40
9.5
100
AcDbArc
 50
283.1363450029
 51
302.5261321603
  0
ARC
  5
24A
100
AcDbEntity
  8
0
100
AcDbCircle
 62
7
  6
BYLAYER
 10
23.9227423189
 20
122.70386691
 40
9.5
100
AcDbArc
 50
103.1514119143
 51
136.8642372359
  0
ARC
  5
24B
100
AcDbEntity
  8
0
100
AcDbCircle
 62
7
  6
BYLAYER
 10
114.4327871377
 20
70.4490503314
 40
9.5
100
AcDbArc
 50
103.143569502
 51
142.4942580452
  0
ARC
  5
24C
100
AcDbEntity
  8
0
100
AcDbCircle
 62
7
  6
BYLAYER
 10
114.4327871377
 20
70.4490503314
 40
9.5
100
AcDbArc
 50
283.13181293
 51
316.8605776557
  0
ARC
  5
24D
100
AcDbEntity
  8
0
100
AcDbCircle
 62
7
  6
BYLAYER
 10
46.6656220413
 20
109.5676008932
 40
8.5341946314
100
AcDbArc
 50
151.5932745551
 51
155.78382961
  0
ARC
  5
24E
100
AcDbEntity
  8
0
100
AcDbCircle
 62
7
  6
BYLAYER
 10
46.3594396502
 20
109.5997718346
 40
7.6817871397
100
AcDbArc
 50
161.1015234804
 51
162.780536405
  0
ARC
  5
24F
100
AcDbEntity
  8
0
100
AcDbCircle
 62
7
  6
BYLAYER
 10
46.1499195912
 20
109.6656239138
 40
7.4621639122
100
AcDbArc
 50
162.787260115
 51
163.4471642473
  0
ARC
  5
250
100
AcDbEntity
  8
0
100
AcDbCircle
 62
7
  6
BYLAYER
 10
28.4601529148
 20
118.9262537644
 40
4.3592554559
100
AcDbArc
 50
300.0076503794
 51
302.3724942189
  0
ARC
  5
251
100
AcDbEntity
  8
0
100
AcDbCircle
 62
7
  6
BYLAYER
 10
108.884348487
 20
71.391357856
 40
3.7504091654
100
AcDbArc
 50
239.0075870293
 51
244.8094997629
  0
ARC
  5
252
100
AcDbEntity
  8
0
100
AcDbCircle
 62
7
  6
BYLAYER
 10
29.484120083
 20
121.7858008905
 40
3.7229660792
100
AcDbArc
 50
58.9861847259
 51
64.8309020663
  0
ARC
  5
253
100
AcDbEntity
  8
0
100
AcDbCircle
 62
7
  6
BYLAYER
 10
27.6539327267
 20
115.3511211073
 40
1.2064060157
100
AcDbArc
 50
238.2058619468
 51
248.4939618631
  0
ARC
  5
254
100
AcDbEntity
  8
0
100
AcDbCircle
 62
7
  6
BYLAYER
 10
68.2657115917
 20
94.8099983429
 40
1.0141562306
100
AcDbArc
 50
228.9362139836
 51
239.962297849
  0
ARC
  5
255
100
AcDbEntity
  8
0
100
AcDbCircle
 62
7
  6
BYLAYER
 10
68.0988606146
 20
94.8930519671
 40
1.0026588866
100
AcDbArc
 50
240.0006976008
 51
242.6439700393
  0
SPLINE
  5
256
100
AcDbEntity
  8
0
100
AcDbSpline
 62
7
  6
BYLAYER
 70
0
 71
3
 72
12
 73
8
 74
0
 42
0.0000001
 43
0.0000001
 44
0.0000000001
 40
0.0
 40
0.0
 40
0.0
 40
0.0
 40
0.1079093573
 40
0.2183091201
 40
0.4520118302
 40
0.7112755605
 40
1.0
 40
1.0
 40
1.0
 40
1.0
 10
28.4482628124
 20
114.8966725806
 30
0.0
 10
28.5215747495
 20
114.8585464368
 30
0.0
 10
28.6766166631
 20
114.793680766
 30
0.0
 10
29.0143633004
 20
114.7124096331
 30
0.0
 10
29.48315678
 20
114.7106868728
 30
0.0
 10
30.0679166578
 20
114.8584455643
 30
0.0
 10
30.4488105341
 20
115.0407718592
 30
0.0
 10
30.6402847078
 20
115.151318865
 30
0.0
  0
SPLINE
  5
257
100
AcDbEntity
  8
0
100
AcDbSpline
 62
7
  6
BYLAYER
 70
0
 71
3
 72
11
 73
7
 74
0
 42
0.0000001
 43
0.0000001
 44
0.0000000001
 40
0.0
 40
0.0
 40
0.0
 40
0.0
 40
0.2825822591
 40
0.5419764762
 40
0.7797181656
 40
1.0
 40
1.0
 40
1.0
 40
1.0
 10
15.8053427721
 20
125.5532603058
 30
0.0
 10
15.8053427721
 20
125.9223354874
 30
0.0
 10
15.8500722069
 20
126.6315525704
 30
0.0
 10
16.0712653461
 20
127.6304885543
 30
0.0
 10
16.440233938
 20
128.4983105526
 30
0.0
 10
16.7936114438
 20
128.9892659081
 30
0.0
 10
16.9902913354
 20
129.1992460357
 30
0.0
  0
SPLINE
  5
258
100
AcDbEntity
  8
0
100
AcDbSpline
 62
7
  6
BYLAYER
 70
0
 71
3
 72
16
 73
12
 74
0
 42
0.0000001
 43
0.0000001
 44
0.0000000001
 40
0.0
 40
0.0
 40
0.0
 40
0.0
 40
0.1496139374
 40
0.296682481
 40
0.4381997189
 40
0.5715355122
 40
0.6947031597
 40
0.806662226
 40
0.9076899937
 40
0.9547550629
 40
1.0
 40
1.0
 40
1.0
 40
1.0
 10
30.2914672185
 20
125.9979113331
 30
0.0
 10
30.0263180121
 20
126.4800025361
 30
0.0
 10
29.4509011475
 20
127.4096574968
 30
0.0
 10
28.4633337006
 20
128.6866972416
 30
0.0
 10
27.3830115107
 20
129.8051937047
 30
0.0
 10
26.2434493624
 20
130.7301551786
 30
0.0
 10
25.0788129571
 20
131.4329061297
 30
0.0
 10
23.9237957426
 20
131.8911476439
 30
0.0
 10
22.9726806482
 20
132.0583023904
 30
0.0
 10
22.2600041932
 20
132.0453771192
 30
0.0
 10
21.9232642356
 20
131.992620681
 30
0.0
 10
21.7612609157
 20
131.9546854656
 30
0.0
  0
SPLINE
  5
259
100
AcDbEntity
  8
0
100
AcDbSpline
 62
7
  6
BYLAYER
 70
0
 71
3
 72
12
 73
8
 74
0
 42
0.0000001
 43
0.0000001
 44
0.0000000001
 40
0.0
 40
0.0
 40
0.0
 40
0.0
 40
0.1051981263
 40
0.2188509892
 40
0.4644678351
 40
0.7272166719
 40
1.0
 40
1.0
 40
1.0
 40
1.0
 10
31.0674648603
 20
125.15529577
 30
0.0
 10
31.0306797347
 20
125.1726069829
 30
0.0
 10
30.9576444374
 20
125.2160430083
 30
0.0
 10
30.8149677862
 20
125.3252861525
 30
0.0
 10
30.6434393965
 20
125.4950055311
 30
0.0
 10
30.4539948735
 20
125.7305948165
 30
0.0
 10
30.3422709588
 20
125.9055405634
 30
0.0
 10
30.2914672185
 20
125.9979113331
 30
0.0
  0
SPLINE
  5
25A
100
AcDbEntity
  8
0
100
AcDbSpline
 62
7
  6
BYLAYER
 70
0
 71
3
 72
9
 73
5
 74
0
 42
0.0000001
 43
0.0000001
 44
0.0000000001
 40
0.0
 40
0.0
 40
0.0
 40
0.0
 40
0.2457269052
 40
1.0
 40
1.0
 40
1.0
 40
1.0
 10
32.0308686283
 20
123.2171868664
 30
0.0
 10
31.9892415975
 20
123.3645086929
 30
0.0
 10
31.8093465075
 20
123.9610456293
 30
0.0
 10
31.5887797093
 20
124.5451841605
 30
0.0
 10
31.4023587794
 20
124.9765432384
 30
0.0
  0
SPLINE
  5
25B
100
AcDbEntity
  8
0
100
AcDbSpline
 62
7
  6
BYLAYER
 70
0
 71
3
 72
12
 73
8
 74
0
 42
0.0000001
 43
0.0000001
 44
0.0000000001
 40
0.0
 40
0.0
 40
0.0
 40
0.0
 40
0.2895697912
 40
0.5486412638
 40
0.7816368127
 40
0.8918392993
 40
1.0
 40
1.0
 40
1.0
 40
1.0
 10
25.8673073109
 20
119.7441137912
 30
0.0
 10
25.8673073109
 20
119.4906943358
 30
0.0
 10
25.8288943499
 20
119.0088308742
 30
0.0
 10
25.6340897647
 20
118.3471473923
 30
0.0
 10
25.3540645944
 20
117.8906336388
 30
0.0
 10
25.071329461
 20
117.6125290755
 30
0.0
 10
24.913709974
 20
117.5025364073
 30
0.0
 10
24.8317386344
 20
117.4551994265
 30
0.0
  0
SPLINE
  5
25C
100
AcDbEntity
  8
0
100
AcDbSpline
 62
7
  6
BYLAYER
 70
0
 71
3
 72
9
 73
5
 74
0
 42
0.0000001
 43
0.0000001
 44
0.0000000001
 40
0.0
 40
0.0
 40
0.0
 40
0.0
 40
0.2455367618
 40
1.0
 40
1.0
 40
1.0
 40
1.0
 10
21.9942216172
 20
126.0423674681
 30
0.0
 10
21.9915353863
 20
126.011451827
 30
0.0
 10
21.9820338669
 20
125.88541904
 30
0.0
 10
21.9781773269
 20
125.7589727425
 30
0.0
 10
21.9781773269
 20
125.6636200288
 30
0.0
  0
SPLINE
  5
25D
100
AcDbEntity
  8
0
100
AcDbSpline
 62
7
  6
BYLAYER
 70
0
 71
3
 72
20
 73
16
 74
0
 42
0.0000001
 43
0.0000001
 44
0.0000000001
 40
0.0
 40
0.0
 40
0.0
 40
0.0
 40
0.0428323455
 40
0.0874333201
 40
0.1352370252
 40
0.1871689414
 40
0.2436383753
 40
0.3046204527
 40
0.3697458453
 40
0.4383817819
 40
0.5826343577
 40
0.7296940188
 40
0.8711917272
 40
0.9375938706
 40
1.0
 40
1.0
 40
1.0
 40
1.0
 10
19.8317787359
 20
126.1154357011
 30
0.0
 10
19.9550402249
 20
126.1866170038
 30
0.0
 10
20.2267881263
 20
126.299507073
 30
0.0
 10
20.6753209365
 20
126.3652941166
 30
0.0
 10
21.1569969997
 20
126.3298286737
 30
0.0
 10
21.6610824305
 20
126.1958716687
 30
0.0
 10
22.1777074634
 20
125.9675628988
 30
0.0
 10
22.6965714526
 20
125.6501439043
 30
0.0
 10
23.207162529
 20
125.2504023581
 30
0.0
 10
23.8734769117
 20
124.6085625638
 30
0.0
 10
24.613930838
 20
123.6602882578
 30
0.0
 10
25.3013236099
 20
122.3900830329
 30
0.0
 10
25.6816495103
 20
121.2655662102
 30
0.0
 10
25.8391666173
 20
120.3798547588
 30
0.0
 10
25.8673073109
 20
119.9514986094
 30
0.0
 10
25.8673073109
 20
119.7441137912
 30
0.0
  0
SPLINE
  5
25E
100
AcDbEntity
  8
0
100
AcDbSpline
 62
7
  6
BYLAYER
 70
0
 71
3
 72
20
 73
16
 74
0
 42
0.0000001
 43
0.0000001
 44
0.0000000001
 40
0.0
 40
0.0
 40
0.0
 40
0.0
 40
0.0438896256
 40
0.0907890541
 40
0.1414424229
 40
0.1961951081
 40
0.2550515747
 40
0.3177408843
 40
0.3837779478
 40
0.4525137233
 40
0.5948275875
 40
0.7379618089
 40
0.8749458959
 40
0.9392786596
 40
1.0
 40
1.0
 40
1.0
 40
1.0
 10
26.0818002121
 20
113.4524598976
 30
0.0
 10
25.8328135801
 20
113.3943677875
 30
0.0
 10
25.3026551582
 20
113.3334554932
 30
0.0
 10
24.4773451669
 20
113.4045863346
 30
0.0
 10
23.6156884321
 20
113.6314231033
 30
0.0
 10
22.7330867565
 20
114.0084938095
 30
0.0
 10
21.8445775542
 20
114.5282197862
 30
0.0
 10
20.965831123
 20
115.1809761417
 30
0.0
 10
20.1124819
 20
115.9548718651
 30
0.0
 10
19.017073262
 20
117.1427369326
 30
0.0
 10
17.8133479983
 20
118.8305508415
 30
0.0
 10
16.7055165424
 20
121.038008701
 30
0.0
 10
16.0992309501
 20
122.9626111804
 30
0.0
 10
15.8495568038
 20
124.4705708424
 30
0.0
 10
15.8053427721
 20
125.1995355016
 30
0.0
 10
15.8053427721
 20
125.5532603058
 30
0.0
  0
SPLINE
  5
25F
100
AcDbEntity
  8
0
100
AcDbSpline
 62
7
  6
BYLAYER
 70
0
 71
3
 72
15
 73
11
 74
0
 42
0.0000001
 43
0.0000001
 44
0.0000000001
 40
0.0
 40
0.0
 40
0.0
 40
0.0
 40
0.1153582296
 40
0.2401924193
 40
0.3715713833
 40
0.5059357393
 40
0.639465866
 40
0.7684068394
 40
0.8894257376
 40
1.0
 40
1.0
 40
1.0
 40
1.0
 10
21.9781773269
 20
125.6636200288
 30
0.0
 10
21.9781773269
 20
125.3673892516
 30
0.0
 10
22.0357135744
 20
124.7499877349
 30
0.0
 10
22.2633797767
 20
123.8205913967
 30
0.0
 10
22.626704087
 20
122.8828917389
 30
0.0
 10
23.1105469391
 20
121.9762091697
 30
0.0
 10
23.6947001517
 20
121.1382392184
 30
0.0
 10
24.3549976195
 20
120.4038498489
 30
0.0
 10
25.0637850944
 20
119.8036603957
 30
0.0
 10
25.5758296948
 20
119.4938663571
 30
0.0
 10
25.8325264322
 20
119.3724905946
 30
0.0
  0
SPLINE
  5
260
100
AcDbEntity
  8
0
100
AcDbSpline
 62
7
  6
BYLAYER
 70
0
 71
3
 72
18
 73
14
 74
0
 42
0.0000001
 43
0.0000001
 44
0.0000000001
 40
0.0
 40
0.0
 40
0.0
 40
0.0
 40
0.0428462794
 40
0.087463574
 40
0.1352852537
 40
0.1872351281
 40
0.243727934
 40
0.3047349114
 40
0.4383691439
 40
0.5826752532
 40
0.7297918958
 40
0.8713417396
 40
1.0
 40
1.0
 40
1.0
 40
1.0
 10
29.1403203412
 20
116.2275064756
 30
0.0
 10
29.0663626252
 20
116.2702057877
 30
0.0
 10
28.9261561336
 20
116.3775030972
 30
0.0
 10
28.7574307466
 20
116.5908491082
 30
0.0
 10
28.6313719311
 20
116.8517745696
 30
0.0
 10
28.5497111102
 20
117.153879309
 30
0.0
 10
28.5133538237
 20
117.4908425219
 30
0.0
 10
28.5262326962
 20
117.9924053613
 30
0.0
 10
28.6623264009
 20
118.6596363722
 30
0.0
 10
28.981230253
 20
119.44869545
 30
0.0
 10
29.4354243304
 20
120.187453426
 30
0.0
 10
29.9871300926
 20
120.8151447543
 30
0.0
 10
30.4182053451
 20
121.146870179
 30
0.0
 10
30.6402847078
 20
121.2750869935
 30
0.0
  0
SPLINE
  5
261
100
AcDbEntity
  8
0
100
AcDbSpline
 62
7
  6
BYLAYER
 70
0
 71
3
 72
12
 73
8
 74
0
 42
0.0000001
 43
0.0000001
 44
0.0000000001
 40
0.0
 40
0.0
 40
0.0
 40
0.0
 40
0.2895552168
 40
0.548651933
 40
0.781633379
 40
0.8918404203
 40
1.0
 40
1.0
 40
1.0
 40
1.0
 10
30.6402847078
 20
121.2750869935
 30
0.0
 10
30.7719533583
 20
121.3511054705
 30
0.0
 10
31.0338589595
 20
121.4756833203
 30
0.0
 10
31.4361018918
 20
121.57299882
 30
0.0
 10
31.7573065569
 20
121.5643897269
 30
0.0
 10
31.9866358976
 20
121.5009711143
 30
0.0
 10
32.0910659822
 20
121.4520487503
 30
0.0
 10
32.1402490744
 20
121.4236530086
 30
0.0
  0
SPLINE
  5
262
100
AcDbEntity
  8
0
100
AcDbSpline
 62
7
  6
BYLAYER
 70
0
 71
3
 72
12
 73
8
 74
0
 42
0.0000001
 43
0.0000001
 44
0.0000000001
 40
0.0
 40
0.0
 40
0.0
 40
0.0
 40
0.1079093573
 40
0.2183091201
 40
0.4520118302
 40
0.7112755605
 40
1.0
 40
1.0
 40
1.0
 40
1.0
 10
32.8323066031
 20
122.7544869036
 30
0.0
 10
32.758994666
 20
122.7926130473
 30
0.0
 10
32.6039527524
 20
122.8574787181
 30
0.0
 10
32.2662061152
 20
122.938749851
 30
0.0
 10
31.7974126355
 20
122.9404726114
 30
0.0
 10
31.2126527577
 20
122.7927139198
 30
0.0
 10
30.8317588814
 20
122.610387625
 30
0.0
 10
30.6402847078
 20
122.4998406191
 30
0.0
  0
SPLINE
  5
263
100
AcDbEntity
  8
0
100
AcDbSpline
 62
7
  6
BYLAYER
 70
0
 71
3
 72
12
 73
8
 74
0
 42
0.0000001
 43
0.0000001
 44
0.0000000001
 40
0.0
 40
0.0
 40
0.0
 40
0.0
 40
0.2887167611
 40
0.5479768366
 40
0.7816844896
 40
0.8920887432
 40
1.0
 40
1.0
 40
1.0
 40
1.0
 10
29.8388467329
 20
122.962540582
 30
0.0
 10
30.0303159932
 20
123.0730847511
 30
0.0
 10
30.4112004935
 20
123.2554108004
 30
0.0
 10
30.9959541664
 20
123.4031749423
 30
0.0
 10
31.4647536458
 20
123.401456658
 30
0.0
 10
31.8025079127
 20
123.3201791186
 30
0.0
 10
31.9575553322
 20
123.2553137169
 30
0.0
 10
32.0308686283
 20
123.2171868664
 30
0.0
  0
SPLINE
  5
264
100
AcDbEntity
  8
0
100
AcDbSpline
 62
7
  6
BYLAYER
 70
0
 71
3
 72
9
 73
5
 74
0
 42
0.0000001
 43
0.0000001
 44
0.0000000001
 40
0.0
 40
0.0
 40
0.0
 40
0.0
 40
0.5130068338
 40
1.0
 40
1.0
 40
1.0
 40
1.0
 10
27.6468248375
 20
115.3593725434
 30
0.0
 10
27.5665703048
 20
115.1680123499
 30
0.0
 10
27.384387855
 20
114.8050387108
 30
0.0
 10
27.1469840091
 20
114.4748966193
 30
0.0
 10
27.0183149887
 20
114.3257404142
 30
0.0
  0
SPLINE
  5
265
100
AcDbEntity
  8
0
100
AcDbSpline
 62
7
  6
BYLAYER
 70
0
 71
3
 72
20
 73
16
 74
0
 42
0.0000001
 43
0.0000001
 44
0.0000000001
 40
0.0
 40
0.0
 40
0.0
 40
0.0
 40
0.0428323455
 40
0.0874333201
 40
0.1352370252
 40
0.1871689414
 40
0.2436383753
 40
0.3046204527
 40
0.3697458453
 40
0.4383817819
 40
0.5826343577
 40
0.7296940188
 40
0.8711917272
 40
0.9375938706
 40
1.0
 40
1.0
 40
1.0
 40
1.0
 10
24.8317386344
 20
117.4551994265
 30
0.0
 10
24.7084771454
 20
117.3840181238
 30
0.0
 10
24.436729244
 20
117.2711280546
 30
0.0
 10
23.9881964338
 20
117.205341011
 30
0.0
 10
23.5065203706
 20
117.2408064539
 30
0.0
 10
23.0024349397
 20
117.3747634588
 30
0.0
 10
22.4858099069
 20
117.6030722288
 30
0.0
 10
21.9669459177
 20
117.9204912232
 30
0.0
 10
21.4563548413
 20
118.3202327695
 30
0.0
 10
20.7900404586
 20
118.9620725638
 30
0.0
 10
20.0495865322
 20
119.9103468698
 30
0.0
 10
19.3621937603
 20
121.1805520947
 30
0.0
 10
18.9818678599
 20
122.3050689174
 30
0.0
 10
18.8243507529
 20
123.1907803688
 30
0.0
 10
18.7962100594
 20
123.6191365182
 30
0.0
 10
18.7962100594
 20
123.8265213364
 30
0.0
  0
SPLINE
  5
266
100
AcDbEntity
  8
0
100
AcDbSpline
 62
7
  6
BYLAYER
 70
0
 71
3
 72
11
 73
7
 74
0
 42
0.0000001
 43
0.0000001
 44
0.0000000001
 40
0.0
 40
0.0
 40
0.0
 40
0.0
 40
0.2662242595
 40
0.5252931368
 40
0.771459433
 40
1.0
 40
1.0
 40
1.0
 40
1.0
 10
27.6468248375
 20
120.6860731124
 30
0.0
 10
27.7919912467
 20
120.92919017
 30
0.0
 10
28.1047251688
 20
121.3937675772
 30
0.0
 10
28.6373075824
 20
122.0203414116
 30
0.0
 10
29.2121891261
 20
122.5510734374
 30
0.0
 10
29.6283342832
 20
122.841001888
 30
0.0
 10
29.8388467329
 20
122.962540582
 30
0.0
  0
SPLINE
  5
267
100
AcDbEntity
  8
0
100
AcDbSpline
 62
7
  6
BYLAYER
 70
0
 71
3
 72
9
 73
5
 74
0
 42
0.0000001
 43
0.0000001
 44
0.0000000001
 40
0.0
 40
0.0
 40
0.0
 40
0.0
 40
0.2539463829
 40
1.0
 40
1.0
 40
1.0
 40
1.0
 10
27.0183149887
 20
122.4454294844
 30
0.0
 10
27.0810780499
 20
122.3002021421
 30
0.0
 10
27.3191209072
 20
121.7244466019
 30
0.0
 10
27.520441798
 20
121.1333541191
 30
0.0
 10
27.6468248375
 20
120.6860731124
 30
0.0
  0
SPLINE
  5
268
100
AcDbEntity
  8
0
100
AcDbSpline
 62
7
  6
BYLAYER
 70
0
 71
3
 72
9
 73
5
 74
0
 42
0.0000001
 43
0.0000001
 44
0.0000000001
 40
0.0
 40
0.0
 40
0.0
 40
0.0
 40
0.50051644
 40
1.0
 40
1.0
 40
1.0
 40
1.0
 10
27.109499951
 20
124.1608126407
 30
0.0
 10
27.1725963357
 20
124.046091528
 30
0.0
 10
27.2655527215
 20
123.7979790933
 30
0.0
 10
27.2977862413
 20
123.5357455916
 30
0.0
 10
27.297828738
 20
123.4050879899
 30
0.0
  0
SPLINE
  5
269
100
AcDbEntity
  8
0
100
AcDbSpline
 62
7
  6
BYLAYER
 70
0
 71
3
 72
12
 73
8
 74
0
 42
0.0000001
 43
0.0000001
 44
0.0000000001
 40
0.0
 40
0.0
 40
0.0
 40
0.0
 40
0.2895697912
 40
0.5486412638
 40
0.7816368127
 40
0.8918392993
 40
1.0
 40
1.0
 40
1.0
 40
1.0
 10
18.7962100594
 20
123.8265213364
 30
0.0
 10
18.7962100594
 20
124.0799407918
 30
0.0
 10
18.8346230203
 20
124.5618042534
 30
0.0
 10
19.0294276056
 20
125.2234877353
 30
0.0
 10
19.3094527759
 20
125.6800014888
 30
0.0
 10
19.5921879092
 20
125.9581060521
 30
0.0
 10
19.7498073963
 20
126.0680987202
 30
0.0
 10
19.8317787359
 20
126.1154357011
 30
0.0
  0
SPLINE
  5
26A
100
AcDbEntity
  8
0
100
AcDbSpline
 62
7
  6
BYLAYER
 70
0
 71
3
 72
10
 73
6
 74
0
 42
0.0000001
 43
0.0000001
 44
0.0000000001
 40
0.0
 40
0.0
 40
0.0
 40
0.0
 40
0.3901065118
 40
0.6631012021
 40
1.0
 40
1.0
 40
1.0
 40
1.0
 10
27.2978288433
 20
114.1239419635
 30
0.0
 10
27.297779038
 20
114.0841754418
 30
0.0
 10
27.2607019649
 20
114.0196831018
 30
0.0
 10
27.1885909711
 20
113.9492941478
 30
0.0
 10
27.1381163611
 20
113.9120742675
 30
0.0
 10
27.109499951
 20
113.8930868802
 30
0.0
  0
SPLINE
  5
26B
100
AcDbEntity
  8
0
100
AcDbSpline
 62
7
  6
BYLAYER
 70
0
 71
3
 72
20
 73
16
 74
0
 42
0.0000001
 43
0.0000001
 44
0.0000000001
 40
0.0
 40
0.0
 40
0.0
 40
0.0
 40
0.0465720326
 40
0.092521773
 40
0.1389740742
 40
0.1869943628
 40
0.2374787938
 40
0.2910882117
 40
0.3482329456
 40
0.4090970387
 40
0.4736638619
 40
0.5417516145
 40
0.6870203695
 40
0.8413384571
 40
1.0
 40
1.0
 40
1.0
 40
1.0
 10
16.9902913354
 20
129.1992460357
 30
0.0
 10
17.1271244769
 20
129.3453323502
 30
0.0
 10
17.4259433249
 20
129.6118603043
 30
0.0
 10
17.9429454033
 20
129.9181639126
 30
0.0
 10
18.5151367776
 20
130.1213526197
 30
0.0
 10
19.1337439378
 20
130.2189876316
 30
0.0
 10
19.7902482673
 20
130.2107907443
 30
0.0
 10
20.4763002254
 20
130.0978588173
 30
0.0
 10
21.183721893
 20
129.8824684743
 30
0.0
 10
21.9041626593
 20
129.5675975332
 30
0.0
 10
22.629190058
 20
129.1573412394
 30
0.0
 10
23.6114712877
 20
128.4752852255
 30
0.0
 10
24.7904024998
 20
127.4125212066
 30
0.0
 10
26.0566943459
 20
125.8971441772
 30
0.0
 10
26.7808761049
 20
124.7583126952
 30
0.0
 10
27.109499951
 20
124.1608126407
 30
0.0
  0
SPLINE
  5
26C
100
AcDbEntity
  8
0
100
AcDbSpline
 62
7
  6
BYLAYER
 70
0
 71
3
 72
9
 73
5
 74
0
 42
0.0000001
 43
0.0000001
 44
0.0000000001
 40
0.0
 40
0.0
 40
0.0
 40
0.0
 40
0.5130920611
 40
1.0
 40
1.0
 40
1.0
 40
1.0
 10
67.6065843346
 20
97.5044685384
 30
0.0
 10
67.4653265103
 20
97.2617495071
 30
0.0
 10
67.2275207019
 20
96.7658549778
 30
0.0
 10
67.0759361483
 20
96.2362370618
 30
0.0
 10
67.0293819713
 20
95.9738347259
 30
0.0
  0
SPLINE
  5
26D
100
AcDbEntity
  8
0
100
AcDbSpline
 62
7
  6
BYLAYER
 70
0
 71
3
 72
13
 73
9
 74
0
 42
0.0000001
 43
0.0000001
 44
0.0000000001
 40
0.0
 40
0.0
 40
0.0
 40
0.0
 40
0.3000358791
 40
0.5637901759
 40
0.6823536924
 40
0.7931504927
 40
0.8981417953
 40
1.0
 40
1.0
 40
1.0
 40
1.0
 10
67.0293819713
 20
95.9738347259
 30
0.0
 10
66.9917589293
 20
95.761772678
 30
0.0
 10
66.9540757249
 20
95.3561683219
 30
0.0
 10
67.0169410396
 20
94.8642897431
 30
0.0
 10
67.140411376
 20
94.5310000604
 30
0.0
 10
67.2618002983
 20
94.3223622915
 30
0.0
 10
67.4134712178
 20
94.1500651794
 30
0.0
 10
67.5342209079
 20
94.0612758856
 30
0.0
 10
67.5975417436
 20
94.0247177962
 30
0.0
  0
SPLINE
  5
26E
100
AcDbEntity
  8
0
100
AcDbSpline
 62
7
  6
BYLAYER
 70
0
 71
3
 72
11
 73
7
 74
0
 42
0.0000001
 43
0.0000001
 44
0.0000000001
 40
0.0
 40
0.0
 40
0.0
 40
0.0
 40
0.2285219733
 40
0.4746740491
 40
0.7337546731
 40
1.0
 40
1.0
 40
1.0
 40
1.0
 10
30.6402847078
 20
122.4998406191
 30
0.0
 10
30.4297894307
 20
122.3783118397
 30
0.0
 10
30.0136712416
 20
122.088406563
 30
0.0
 10
29.4388021509
 20
121.557694599
 30
0.0
 10
28.9061985549
 20
120.9311130838
 30
0.0
 10
28.5934406777
 20
120.4665093933
 30
0.0
 10
28.4482628124
 20
120.2233731496
 30
0.0
  0
SPLINE
  5
26F
100
AcDbEntity
  8
0
100
AcDbSpline
 62
7
  6
BYLAYER
 70
0
 71
3
 72
10
 73
6
 74
0
 42
0.0000001
 43
0.0000001
 44
0.0000000001
 40
0.0
 40
0.0
 40
0.0
 40
0.0
 40
0.2777300335
 40
0.5367460087
 40
1.0
 40
1.0
 40
1.0
 40
1.0
 10
107.7152447488
 20
78.0015983764
 30
0.0
 10
107.8459615683
 20
78.0770673169
 30
0.0
 10
108.1069159168
 20
78.2096637119
 30
0.0
 10
108.6185362111
 20
78.3939526145
 30
0.0
 10
109.017132601
 20
78.4480357115
 30
0.0
 10
109.2683125845
 20
78.4308726696
 30
0.0
  0
SPLINE
  5
270
100
AcDbEntity
  8
0
100
AcDbSpline
 62
7
  6
BYLAYER
 70
0
 71
3
 72
11
 73
7
 74
0
 42
0.0000001
 43
0.0000001
 44
0.0000000001
 40
0.0
 40
0.0
 40
0.0
 40
0.0
 40
0.2662453269
 40
0.5253259509
 40
0.7714780267
 40
1.0
 40
1.0
 40
1.0
 40
1.0
 10
105.5232228534
 20
75.7251309069
 30
0.0
 10
105.6684007187
 20
75.9682671506
 30
0.0
 10
105.9811585959
 20
76.4328708411
 30
0.0
 10
106.5137621919
 20
77.0594523563
 30
0.0
 10
107.0886312826
 20
77.5901643203
 30
0.0
 10
107.5047494718
 20
77.880069597
 30
0.0
 10
107.7152447488
 20
78.0015983764
 30
0.0
  0
SPLINE
  5
271
100
AcDbEntity
  8
0
100
AcDbSpline
 62
7
  6
BYLAYER
 70
0
 71
3
 72
11
 73
7
 74
0
 42
0.0000001
 43
0.0000001
 44
0.0000000001
 40
0.0
 40
0.0
 40
0.0
 40
0.0
 40
0.2187447678
 40
0.4549094333
 40
0.7145575335
 40
1.0
 40
1.0
 40
1.0
 40
1.0
 10
67.5995135581
 20
94.0453461082
 30
0.0
 10
67.5235807014
 20
94.1114565302
 30
0.0
 10
67.3855220341
 20
94.2729455931
 30
0.0
 10
67.2406771434
 20
94.5713107195
 30
0.0
 10
67.1540543377
 20
94.9225121398
 30
0.0
 10
67.1367111219
 20
95.1739924821
 30
0.0
 10
67.1367101705
 20
95.3053704366
 30
0.0
  0
SPLINE
  5
272
100
AcDbEntity
  8
0
100
AcDbSpline
 62
7
  6
BYLAYER
 70
0
 71
3
 72
9
 73
5
 74
0
 42
0.0000001
 43
0.0000001
 44
0.0000000001
 40
0.0
 40
0.0
 40
0.0
 40
0.0
 40
0.2455367618
 40
1.0
 40
1.0
 40
1.0
 40
1.0
 10
112.504266436
 20
73.7875508895
 30
0.0
 10
112.5015802051
 20
73.7566352484
 30
0.0
 10
112.4920786857
 20
73.6306024614
 30
0.0
 10
112.4882221457
 20
73.504156164
 30
0.0
 10
112.4882221457
 20
73.4088034502
 30
0.0
  0
SPLINE
  5
273
100
AcDbEntity
  8
0
100
AcDbSpline
 62
7
  6
BYLAYER
 70
0
 71
3
 72
20
 73
16
 74
0
 42
0.0000001
 43
0.0000001
 44
0.0000000001
 40
0.0
 40
0.0
 40
0.0
 40
0.0
 40
0.0428323455
 40
0.0874333201
 40
0.1352370252
 40
0.1871689414
 40
0.2436383753
 40
0.3046204527
 40
0.3697458453
 40
0.4383817819
 40
0.5826343577
 40
0.7296940188
 40
0.8711917272
 40
0.9375938706
 40
1.0
 40
1.0
 40
1.0
 40
1.0
 10
110.3418235547
 20
73.8606191225
 30
0.0
 10
110.4650850437
 20
73.9318004252
 30
0.0
 10
110.7368329451
 20
74.0446904944
 30
0.0
 10
111.1853657553
 20
74.110477538
 30
0.0
 10
111.6670418185
 20
74.0750120951
 30
0.0
 10
112.1711272494
 20
73.9410550901
 30
0.0
 10
112.6877522822
 20
73.7127463202
 30
0.0
 10
113.2066162714
 20
73.3953273257
 30
0.0
 10
113.7172073478
 20
72.9955857795
 30
0.0
 10
114.3835217305
 20
72.3537459852
 30
0.0
 10
115.1239756568
 20
71.4054716792
 30
0.0
 10
115.8113684287
 20
70.1352664543
 30
0.0
 10
116.1916943291
 20
69.0107496316
 30
0.0
 10
116.3492114361
 20
68.1250381802
 30
0.0
 10
116.3773521297
 20
67.6966820308
 30
0.0
 10
116.3773521297
 20
67.4892972126
 30
0.0
  0
SPLINE
  5
274
100
AcDbEntity
  8
0
100
AcDbSpline
 62
7
  6
BYLAYER
 70
0
 71
3
 72
9
 73
5
 74
0
 42
0.0000001
 43
0.0000001
 44
0.0000000001
 40
0.0
 40
0.0
 40
0.0
 40
0.0
 40
0.2539463829
 40
1.0
 40
1.0
 40
1.0
 40
1.0
 10
106.9531706772
 20
68.176374003
 30
0.0
 10
106.8904076159
 20
68.3216013453
 30
0.0
 10
106.6523647586
 20
68.8973568855
 30
0.0
 10
106.4510438678
 20
69.4884493684
 30
0.0
 10
106.3246608283
 20
69.935730375
 30
0.0
  0
SPLINE
  5
275
100
AcDbEntity
  8
0
100
AcDbSpline
 62
7
  6
BYLAYER
 70
0
 71
3
 72
12
 73
8
 74
0
 42
0.0000001
 43
0.0000001
 44
0.0000000001
 40
0.0
 40
0.0
 40
0.0
 40
0.0
 40
0.2728433559
 40
0.5355300399
 40
0.7810243952
 40
0.8948913112
 40
1.0
 40
1.0
 40
1.0
 40
1.0
 10
108.0640622381
 20
67.1550059083
 30
0.0
 10
108.0132469699
 20
67.2473976378
 30
0.0
 10
107.9015246549
 20
67.4223438693
 30
0.0
 10
107.7121042583
 20
67.657900056
 30
0.0
 10
107.5405561389
 20
67.8276010633
 30
0.0
 10
107.3979387345
 20
67.9369365542
 30
0.0
 10
107.3248186996
 20
67.9803248577
 30
0.0
 10
107.2880645963
 20
67.9976214714
 30
0.0
  0
SPLINE
  5
276
100
AcDbEntity
  8
0
100
AcDbSpline
 62
7
  6
BYLAYER
 70
0
 71
3
 72
12
 73
8
 74
0
 42
0.0000001
 43
0.0000001
 44
0.0000000001
 40
0.0
 40
0.0
 40
0.0
 40
0.0
 40
0.2895697912
 40
0.5486412638
 40
0.7816368127
 40
0.8918392993
 40
1.0
 40
1.0
 40
1.0
 40
1.0
 10
116.3773521297
 20
67.4892972126
 30
0.0
 10
116.3773521297
 20
67.2358777572
 30
0.0
 10
116.3389391687
 20
66.7540142956
 30
0.0
 10
116.1441345835
 20
66.0923308137
 30
0.0
 10
115.8641094132
 20
65.6358170602
 30
0.0
 10
115.5813742798
 20
65.3577124969
 30
0.0
 10
115.4237547928
 20
65.2477198287
 30
0.0
 10
115.3417834532
 20
65.2003828479
 30
0.0
  0
SPLINE
  5
277
100
AcDbEntity
  8
0
100
AcDbSpline
 62
7
  6
BYLAYER
 70
0
 71
3
 72
21
 73
17
 74
0
 42
0.0000001
 43
0.0000001
 44
0.0000000001
 40
0.0
 40
0.0
 40
0.0
 40
0.0
 40
0.0607411247
 40
0.1251144289
 40
0.1925226562
 40
0.262276918
 40
0.4054152578
 40
0.5476897659
 40
0.6163967443
 40
0.682403481
 40
0.7450638669
 40
0.8038932854
 40
0.8586204281
 40
0.9092500418
 40
0.9561283912
 40
1.0
 40
1.0
 40
1.0
 40
1.0
 10
122.5501866844
 20
67.5996569357
 30
0.0
 10
122.5501866844
 20
67.9535671683
 30
0.0
 10
122.5058845126
 20
68.6829890214
 30
0.0
 10
122.3224958088
 20
69.7913005842
 30
0.0
 10
122.0233739161
 20
70.9285189742
 30
0.0
 10
121.4731457434
 20
72.4679706671
 30
0.0
 10
120.540317984
 20
74.3253901653
 30
0.0
 10
119.3364776654
 20
76.0126229284
 30
0.0
 10
118.2409565587
 20
77.2001142057
 30
0.0
 10
117.3876520611
 20
77.9736197356
 30
0.0
 10
116.5089836459
 20
78.6260055079
 30
0.0
 10
115.6205782475
 20
79.1453708103
 30
0.0
 10
114.7381091277
 20
79.5221036121
 30
0.0
 10
113.8766094334
 20
79.748619919
 30
0.0
 10
113.0514790266
 20
79.8194626218
 30
0.0
 10
112.5214627633
 20
79.7583847767
 30
0.0
 10
112.2725506628
 20
79.700212139
 30
0.0
  0
SPLINE
  5
278
100
AcDbEntity
  8
0
100
AcDbSpline
 62
7
  6
BYLAYER
 70
0
 71
3
 72
9
 73
5
 74
0
 42
0.0000001
 43
0.0000001
 44
0.0000000001
 40
0.0
 40
0.0
 40
0.0
 40
0.0
 40
0.2583460269
 40
1.0
 40
1.0
 40
1.0
 40
1.0
 10
106.3246608283
 20
75.262430944
 30
0.0
 10
106.3564053903
 20
75.3381231862
 30
0.0
 10
106.4871138168
 20
75.6277079667
 30
0.0
 10
106.6506853829
 20
75.902897244
 30
0.0
 10
106.7906650603
 20
76.0924441435
 30
0.0
  0
SPLINE
  5
279
100
AcDbEntity
  8
0
100
AcDbSpline
 62
7
  6
BYLAYER
 70
0
 71
3
 72
11
 73
7
 74
0
 42
0.0000001
 43
0.0000001
 44
0.0000000001
 40
0.0
 40
0.0
 40
0.0
 40
0.0
 40
0.220250543
 40
0.4579635721
 40
0.7174034886
 40
1.0
 40
1.0
 40
1.0
 40
1.0
 10
121.3648513018
 20
63.9531916747
 30
0.0
 10
121.5615859624
 20
64.1631263312
 30
0.0
 10
121.9148388034
 20
64.6541847571
 30
0.0
 10
122.2842840618
 20
65.5219233192
 30
0.0
 10
122.505420973
 20
66.5211123393
 30
0.0
 10
122.5501866844
 20
67.2305052317
 30
0.0
 10
122.5501866844
 20
67.5996569357
 30
0.0
  0
SPLINE
  5
27A
100
AcDbEntity
  8
0
100
AcDbSpline
 62
7
  6
BYLAYER
 70
0
 71
3
 72
16
 73
12
 74
0
 42
0.0000001
 43
0.0000001
 44
0.0000000001
 40
0.0
 40
0.0
 40
0.0
 40
0.0
 40
0.0452479446
 40
0.092320276
 40
0.193368959
 40
0.3053455561
 40
0.4285204878
 40
0.5618515175
 40
0.7033568177
 40
0.8504083208
 40
1.0
 40
1.0
 40
1.0
 40
1.0
 10
116.5911166796
 20
61.1974643424
 30
0.0
 10
116.429113046
 20
61.1596957572
 30
0.0
 10
116.0923872773
 20
61.1072646087
 30
0.0
 10
115.3797982201
 20
61.094900434
 30
0.0
 10
114.4289141932
 20
61.2626212192
 30
0.0
 10
113.2742803972
 20
61.7212687696
 30
0.0
 10
112.1101304404
 20
62.4241850914
 30
0.0
 10
110.9711112803
 20
63.3490707914
 30
0.0
 10
109.8913321894
 20
64.4672822584
 30
0.0
 10
108.9042642074
 20
65.7438681241
 30
0.0
 10
108.3290944611
 20
66.6731274031
 30
0.0
 10
108.0640622381
 20
67.1550059083
 30
0.0
  0
SPLINE
  5
27B
100
AcDbEntity
  8
0
100
AcDbSpline
 62
7
  6
BYLAYER
 70
0
 71
3
 72
15
 73
11
 74
0
 42
0.0000001
 43
0.0000001
 44
0.0000000001
 40
0.0
 40
0.0
 40
0.0
 40
0.0
 40
0.1153582296
 40
0.2401924193
 40
0.3715713833
 40
0.5059357393
 40
0.639465866
 40
0.7684068394
 40
0.8894257376
 40
1.0
 40
1.0
 40
1.0
 40
1.0
 10
112.4882221457
 20
73.4088034502
 30
0.0
 10
112.4882221457
 20
73.112572673
 30
0.0
 10
112.5457583933
 20
72.4951711563
 30
0.0
 10
112.7734245956
 20
71.5657748181
 30
0.0
 10
113.1367489058
 20
70.6280751603
 30
0.0
 10
113.6205917579
 20
69.7213925911
 30
0.0
 10
114.2047449705
 20
68.8834226398
 30
0.0
 10
114.8650424383
 20
68.1490332703
 30
0.0
 10
115.5738299132
 20
67.5488438171
 30
0.0
 10
116.0858745136
 20
67.2390497786
 30
0.0
 10
116.342571251
 20
67.117674016
 30
0.0
  0
SPLINE
  5
27C
100
AcDbEntity
  8
0
100
AcDbSpline
 62
7
  6
BYLAYER
 70
0
 71
3
 72
23
 73
19
 74
0
 42
0.0000001
 43
0.0000001
 44
0.0000000001
 40
0.0
 40
0.0
 40
0.0
 40
0.0
 40
0.0428605109
 40
0.0871380656
 40
0.1344051236
 40
0.1857407091
 40
0.2416649926
 40
0.3022242945
 40
0.3670864927
 40
0.4356322945
 40
0.5070301219
 40
0.580302735
 40
0.6543851774
 40
0.7281743694
 40
0.8005855139
 40
0.8705941629
 40
0.9373067534
 40
1.0
 40
1.0
 40
1.0
 40
1.0
 10
108.0640622381
 20
77.4227316688
 30
0.0
 10
108.2855082927
 20
77.5696642158
 30
0.0
 10
108.7773267499
 20
77.8102795441
 30
0.0
 10
109.6022009158
 20
77.9758474707
 30
0.0
 10
110.4944555402
 20
77.9477613684
 30
0.0
 10
111.4329616624
 20
77.7310004743
 30
0.0
 10
112.3986508432
 20
77.333026515
 30
0.0
 10
113.3718322142
 20
76.7636528322
 30
0.0
 10
114.3322486243
 20
76.035563438
 30
0.0
 10
115.259406153
 20
75.1646792743
 30
0.0
 10
116.1332036288
 20
74.170045534
 30
0.0
 10
116.9345116431
 20
73.0734969204
 30
0.0
 10
117.6458022948
 20
71.8992151242
 30
0.0
 10
118.2512257132
 20
70.6729491624
 30
0.0
 10
118.738044046
 20
69.4219281105
 30
0.0
 10
119.0949086445
 20
68.1731426713
 30
0.0
 10
119.3147315771
 20
66.9542257513
 30
0.0
 10
119.3682194169
 20
66.1512903585
 30
0.0
 10
119.3682194169
 20
65.7625582432
 30
0.0
  0
SPLINE
  5
27D
100
AcDbEntity
  8
0
100
AcDbSpline
 62
7
  6
BYLAYER
 70
0
 71
3
 72
11
 73
7
 74
0
 42
0.0000001
 43
0.0000001
 44
0.0000000001
 40
0.0
 40
0.0
 40
0.0
 40
0.0
 40
0.2924658111
 40
0.5619665793
 40
0.8011647295
 40
1.0
 40
1.0
 40
1.0
 40
1.0
 10
107.2880645963
 20
76.6980771725
 30
0.0
 10
107.3565642689
 20
76.7759796004
 30
0.0
 10
107.4916689599
 20
76.9226383659
 30
0.0
 10
107.6938692188
 20
77.1224956186
 30
0.0
 10
107.8818695551
 20
77.2888625925
 30
0.0
 10
108.0052963308
 20
77.3837396694
 30
0.0
 10
108.0640622381
 20
77.4227316688
 30
0.0
  0
SPLINE
  5
27E
100
AcDbEntity
  8
0
100
AcDbSpline
 62
7
  6
BYLAYER
 70
0
 71
3
 72
20
 73
16
 74
0
 42
0.0000001
 43
0.0000001
 44
0.0000000001
 40
0.0
 40
0.0
 40
0.0
 40
0.0
 40
0.0428323455
 40
0.0874333201
 40
0.1352370252
 40
0.1871689414
 40
0.2436383753
 40
0.3046204527
 40
0.3697458453
 40
0.4383817819
 40
0.5826343577
 40
0.7296940188
 40
0.8711917272
 40
0.9375938706
 40
1.0
 40
1.0
 40
1.0
 40
1.0
 10
115.3417834532
 20
65.2003828479
 30
0.0
 10
115.2185219642
 20
65.1292015452
 30
0.0
 10
114.9467740628
 20
65.016311476
 30
0.0
 10
114.4982412526
 20
64.9505244324
 30
0.0
 10
114.0165651894
 20
64.9859898753
 30
0.0
 10
113.5124797585
 20
65.1199468802
 30
0.0
 10
112.9958547257
 20
65.3482556502
 30
0.0
 10
112.4769907365
 20
65.6656746446
 30
0.0
 10
111.9663996601
 20
66.0654161909
 30
0.0
 10
111.3000852774
 20
66.7072559852
 30
0.0
 10
110.559631351
 20
67.6555302912
 30
0.0
 10
109.8722385792
 20
68.9257355161
 30
0.0
 10
109.4919126788
 20
70.0502523388
 30
0.0
 10
109.3343955717
 20
70.9359637902
 30
0.0
 10
109.3062548782
 20
71.3643199396
 30
0.0
 10
109.3062548782
 20
71.5717047578
 30
0.0
  0
SPLINE
  5
27F
100
AcDbEntity
  8
0
100
AcDbSpline
 62
7
  6
BYLAYER
 70
0
 71
3
 72
11
 73
7
 74
0
 42
0.0000001
 43
0.0000001
 44
0.0000000001
 40
0.0
 40
0.0
 40
0.0
 40
0.0
 40
0.2282644363
 40
0.4746569245
 40
0.7340080109
 40
1.0
 40
1.0
 40
1.0
 40
1.0
 10
67.1367101705
 20
95.3053704366
 30
0.0
 10
67.1367089464
 20
95.4743985097
 30
0.0
 10
67.1679158298
 20
95.8262064816
 30
0.0
 10
67.2922152658
 20
96.3568192417
 30
0.0
 10
67.491194177
 20
96.893951779
 30
0.0
 10
67.6680251037
 20
97.2415635209
 30
0.0
 10
67.7670982422
 20
97.4117978872
 30
0.0
  0
SPLINE
  5
280
100
AcDbEntity
  8
0
100
AcDbSpline
 62
7
  6
BYLAYER
 70
0
 71
3
 72
15
 73
11
 74
0
 42
0.0000001
 43
0.0000001
 44
0.0000000001
 40
0.0
 40
0.0
 40
0.0
 40
0.0
 40
0.151316015
 40
0.2929719816
 40
0.425214728
 40
0.5489028849
 40
0.6656410697
 40
0.7777698002
 40
0.8881778923
 40
1.0
 40
1.0
 40
1.0
 40
1.0
 10
119.3682194169
 20
65.7625582432
 30
0.0
 10
119.3682194169
 20
65.4708640038
 30
0.0
 10
119.3399239257
 20
64.9054790598
 30
0.0
 10
119.2031666092
 20
64.0951819516
 30
0.0
 10
118.9749690819
 20
63.3607368256
 30
0.0
 10
118.6574023125
 20
62.7126846775
 30
0.0
 10
118.2534659223
 20
62.1612640005
 30
0.0
 10
117.7686404248
 20
61.7155592151
 30
0.0
 10
117.2101938472
 20
61.3846484249
 30
0.0
 10
116.8010483255
 20
61.2464065857
 30
0.0
 10
116.5911166796
 20
61.1974643424
 30
0.0
  0
SPLINE
  5
281
100
AcDbEntity
  8
0
100
AcDbSpline
 62
7
  6
BYLAYER
 70
0
 71
3
 72
12
 73
8
 74
0
 42
0.0000001
 43
0.0000001
 44
0.0000000001
 40
0.0
 40
0.0
 40
0.0
 40
0.0
 40
0.2895697912
 40
0.5486412638
 40
0.7816368127
 40
0.8918392993
 40
1.0
 40
1.0
 40
1.0
 40
1.0
 10
109.3062548782
 20
71.5717047578
 30
0.0
 10
109.3062548782
 20
71.8251242132
 30
0.0
 10
109.3446678391
 20
72.3069876748
 30
0.0
 10
109.5394724244
 20
72.9686711567
 30
0.0
 10
109.8194975947
 20
73.4251849102
 30
0.0
 10
110.102232728
 20
73.7032894735
 30
0.0
 10
110.2598522151
 20
73.8132821416
 30
0.0
 10
110.3418235547
 20
73.8606191225
 30
0.0
  0
SPLINE
  5
282
100
AcDbEntity
  8
0
100
AcDbSpline
 62
7
  6
BYLAYER
 70
0
 71
3
 72
11
 73
7
 74
0
 42
0.0000001
 43
0.0000001
 44
0.0000000001
 40
0.0
 40
0.0
 40
0.0
 40
0.0
 40
0.2439979995
 40
0.4897001767
 40
0.7402534145
 40
1.0
 40
1.0
 40
1.0
 40
1.0
 10
39.0665251646
 20
108.2018443142
 30
0.0
 10
38.8668942326
 20
108.3455022825
 30
0.0
 10
38.5074482132
 20
108.6956086384
 30
0.0
 10
38.1315535853
 20
109.3493831227
 30
0.0
 10
37.9177612738
 20
110.0871160131
 30
0.0
 10
37.8756234893
 20
110.6030504793
 30
0.0
 10
37.8756234893
 20
110.8648722813
 30
0.0
  0
SPLINE
  5
283
100
AcDbEntity
  8
0
100
AcDbSpline
 62
7
  6
BYLAYER
 70
0
 71
3
 72
13
 73
9
 74
0
 42
0.0000001
 43
0.0000001
 44
0.0000000001
 40
0.0
 40
0.0
 40
0.0
 40
0.0
 40
0.1174652238
 40
0.246434802
 40
0.3806648776
 40
0.5146705238
 40
0.769018027
 40
1.0
 40
1.0
 40
1.0
 40
1.0
 10
40.7166277308
 20
103.2627930717
 30
0.0
 10
40.5825964536
 20
103.340174315
 30
0.0
 10
40.3226577792
 20
103.5399637961
 30
0.0
 10
39.9875307302
 20
103.9157988558
 30
0.0
 10
39.7010770356
 20
104.3559539398
 30
0.0
 10
39.4028512538
 20
104.9781749578
 30
0.0
 10
39.1778305851
 20
105.7696134484
 30
0.0
 10
39.1256308492
 20
106.4104856314
 30
0.0
 10
39.1256308492
 20
106.7148135841
 30
0.0
  0
SPLINE
  5
284
100
AcDbEntity
  8
0
100
AcDbSpline
 62
7
  6
BYLAYER
 70
0
 71
3
 72
15
 73
11
 74
0
 42
0.0000001
 43
0.0000001
 44
0.0000000001
 40
0.0
 40
0.0
 40
0.0
 40
0.0
 40
0.1141497651
 40
0.237317272
 40
0.3669653315
 40
0.4999866814
 40
0.6330164299
 40
0.7626557786
 40
0.8858634558
 40
1.0
 40
1.0
 40
1.0
 40
1.0
 10
95.3408701725
 20
79.0220917171
 30
0.0
 10
95.3408680318
 20
79.1897709839
 30
0.0
 10
95.3715743489
 20
79.5387018107
 30
0.0
 10
95.4939937052
 20
80.0651120671
 30
0.0
 10
95.6901238517
 20
80.5983280935
 30
0.0
 10
95.9526321437
 20
81.1183132986
 30
0.0
 10
96.271706216
 20
81.6056192264
 30
0.0
 10
96.6353978235
 20
82.0421774951
 30
0.0
 10
97.0301188942
 20
82.411391775
 30
0.0
 10
97.3169558315
 20
82.6125061435
 30
0.0
 10
97.4621537341
 20
82.6963356913
 30
0.0
  0
SPLINE
  5
285
100
AcDbEntity
  8
0
100
AcDbSpline
 62
7
  6
BYLAYER
 70
0
 71
3
 72
15
 73
11
 74
0
 42
0.0000001
 43
0.0000001
 44
0.0000000001
 40
0.0
 40
0.0
 40
0.0
 40
0.0
 40
0.1379331978
 40
0.2732278245
 40
0.4044197473
 40
0.5307331092
 40
0.6522750547
 40
0.7700195201
 40
0.8854502306
 40
1.0
 40
1.0
 40
1.0
 40
1.0
 10
39.4185757016
 20
114.3496082477
 30
0.0
 10
39.658510022
 20
114.7301259312
 30
0.0
 10
40.1729002872
 20
115.4600896977
 30
0.0
 10
41.0444209259
 20
116.4534381952
 30
0.0
 10
41.9956787911
 20
117.316062306
 30
0.0
 10
43.0121889747
 20
118.0261178267
 30
0.0
 10
44.0824629343
 20
118.5625280921
 30
0.0
 10
45.1957341122
 20
118.9004956425
 30
0.0
 10
46.332608597
 20
119.0105525996
 30
0.0
 10
47.0846076486
 20
118.9103108352
 30
0.0
 10
47.445931321
 20
118.8153825304
 30
0.0
  0
SPLINE
  5
286
100
AcDbEntity
  8
0
100
AcDbSpline
 62
7
  6
BYLAYER
 70
0
 71
3
 72
9
 73
5
 74
0
 42
0.0000001
 43
0.0000001
 44
0.0000000001
 40
0.0
 40
0.0
 40
0.0
 40
0.0
 40
0.2555628479
 40
1.0
 40
1.0
 40
1.0
 40
1.0
 10
99.2510742077
 20
84.9201464268
 30
0.0
 10
99.2477637011
 20
84.9522972126
 30
0.0
 10
99.236062667
 20
85.0782171711
 30
0.0
 10
99.2298986073
 20
85.2047275239
 30
0.0
 10
99.2298986073
 20
85.2988757373
 30
0.0
  0
SPLINE
  5
287
100
AcDbEntity
  8
0
100
AcDbSpline
 62
7
  6
BYLAYER
 70
0
 71
3
 72
13
 73
9
 74
0
 42
0.0000001
 43
0.0000001
 44
0.0000000001
 40
0.0
 40
0.0
 40
0.0
 40
0.0
 40
0.2613554436
 40
0.5113287133
 40
0.6341677843
 40
0.7563481118
 40
0.8779839565
 40
1.0
 40
1.0
 40
1.0
 40
1.0
 10
97.426983465
 20
76.7499781153
 30
0.0
 10
97.1685305377
 20
76.5819046204
 30
0.0
 10
96.631641473
 20
76.2972517419
 30
0.0
 10
95.9002740304
 20
76.1025425065
 30
0.0
 10
95.3151321074
 20
76.0739185844
 30
0.0
 10
94.8830971393
 20
76.1187175213
 30
0.0
 10
94.46486601
 20
76.2325737483
 30
0.0
 10
94.2029574228
 20
76.3550136994
 30
0.0
 10
94.0783089953
 20
76.4269778746
 30
0.0
  0
SPLINE
  5
288
100
AcDbEntity
  8
0
100
AcDbSpline
 62
7
  6
BYLAYER
 70
0
 71
3
 72
13
 73
9
 74
0
 42
0.0000001
 43
0.0000001
 44
0.0000000001
 40
0.0
 40
0.0
 40
0.0
 40
0.0
 40
0.1225199305
 40
0.2448391238
 40
0.3675514333
 40
0.4907460882
 40
0.7405577743
 40
1.0
 40
1.0
 40
1.0
 40
1.0
 10
99.0782241601
 20
85.0872808915
 30
0.0
 10
99.1941371203
 20
85.0203600267
 30
0.0
 10
99.4154373665
 20
84.8677126959
 30
0.0
 10
99.706585351
 20
84.5889668389
 30
0.0
 10
99.9525955605
 20
84.2687721917
 30
0.0
 10
100.2179650749
 20
83.7948579653
 30
0.0
 10
100.4307441241
 20
83.1296733011
 30
0.0
 10
100.4799059673
 20
82.5714664838
 30
0.0
 10
100.4799059673
 20
82.2880449601
 30
0.0
  0
SPLINE
  5
289
100
AcDbEntity
  8
0
100
AcDbSpline
 62
7
  6
BYLAYER
 70
0
 71
3
 72
13
 73
9
 74
0
 42
0.0000001
 43
0.0000001
 44
0.0000000001
 40
0.0
 40
0.0
 40
0.0
 40
0.0
 40
0.2309821067
 40
0.485329633
 40
0.6193353515
 40
0.7535655045
 40
0.8825350279
 40
1.0
 40
1.0
 40
1.0
 40
1.0
 10
99.2298986073
 20
86.4381036574
 30
0.0
 10
99.2298986073
 20
86.7424317853
 30
0.0
 10
99.1776988205
 20
87.3833041748
 30
0.0
 10
98.9526779889
 20
88.1747429361
 30
0.0
 10
98.6544519769
 20
88.7969640981
 30
0.0
 10
98.3679980764
 20
89.2371192003
 30
0.0
 10
98.0328710844
 20
89.6129539022
 30
0.0
 10
97.7729327154
 20
89.8127430924
 30
0.0
 10
97.6389017258
 20
89.8901241697
 30
0.0
  0
SPLINE
  5
28A
100
AcDbEntity
  8
0
100
AcDbSpline
 62
7
  6
BYLAYER
 70
0
 71
3
 72
11
 73
7
 74
0
 42
0.0000001
 43
0.0000001
 44
0.0000000001
 40
0.0
 40
0.0
 40
0.0
 40
0.0
 40
0.2743850144
 40
0.5342439265
 40
0.7766400234
 40
1.0
 40
1.0
 40
1.0
 40
1.0
 10
39.1256308492
 20
112.9737187077
 30
0.0
 10
39.1256308492
 20
113.1038701915
 30
0.0
 10
39.1341538959
 20
113.3574365168
 30
0.0
 10
39.1811366165
 20
113.7235854342
 30
0.0
 10
39.2683785372
 20
114.0576504653
 30
0.0
 10
39.3620664226
 20
114.2599881586
 30
0.0
 10
39.4185779301
 20
114.3496067776
 30
0.0
  0
SPLINE
  5
28B
100
AcDbEntity
  8
0
100
AcDbSpline
 62
7
  6
BYLAYER
 70
0
 71
3
 72
13
 73
9
 74
0
 42
0.0000001
 43
0.0000001
 44
0.0000000001
 40
0.0
 40
0.0
 40
0.0
 40
0.0
 40
0.2675514728
 40
0.5203402677
 40
0.6423969712
 40
0.7624663936
 40
0.8814368134
 40
1.0
 40
1.0
 40
1.0
 40
1.0
 10
97.1626635187
 20
76.5860486898
 30
0.0
 10
96.7216496055
 20
76.1519206494
 30
0.0
 10
95.7923530092
 20
75.3758508766
 30
0.0
 10
94.472873762
 20
74.663201375
 30
0.0
 10
93.3779224673
 20
74.3185981503
 30
0.0
 10
92.5507433733
 20
74.1820078493
 30
0.0
 10
91.7200885485
 20
74.1764716055
 30
0.0
 10
91.1748300545
 20
74.2678519906
 30
0.0
 10
90.9095981356
 20
74.337534711
 30
0.0
  0
SPLINE
  5
28C
100
AcDbEntity
  8
0
100
AcDbSpline
 62
7
  6
BYLAYER
 70
0
 71
3
 72
9
 73
5
 74
0
 42
0.0000001
 43
0.0000001
 44
0.0000000001
 40
0.0
 40
0.0
 40
0.0
 40
0.0
 40
0.239638768
 40
1.0
 40
1.0
 40
1.0
 40
1.0
 10
39.0376314389
 20
111.0892252132
 30
0.0
 10
39.0505493087
 20
111.1478220852
 30
0.0
 10
39.0996728935
 20
111.393287769
 30
0.0
 10
39.1256308492
 20
111.6441016486
 30
0.0
 10
39.1256308492
 20
111.8344907876
 30
0.0
  0
SPLINE
  5
28D
100
AcDbEntity
  8
0
100
AcDbSpline
 62
7
  6
BYLAYER
 70
0
 71
3
 72
15
 73
11
 74
0
 42
0.0000001
 43
0.0000001
 44
0.0000000001
 40
0.0
 40
0.0
 40
0.0
 40
0.0
 40
0.118465615
 40
0.2423320717
 40
0.3703599362
 40
0.5006916285
 40
0.630903742
 40
0.7586400701
 40
0.8820048013
 40
1.0
 40
1.0
 40
1.0
 40
1.0
 10
37.8756234893
 20
110.8648722813
 30
0.0
 10
37.8756234893
 20
111.1368598728
 30
0.0
 10
37.9229924874
 20
111.6938584656
 30
0.0
 10
38.1146818033
 20
112.5246632537
 30
0.0
 10
38.4191896946
 20
113.350053559
 30
0.0
 10
38.8249865619
 20
114.1467765905
 30
0.0
 10
39.3194260199
 20
114.8909512586
 30
0.0
 10
39.8880619544
 20
115.5595332854
 30
0.0
 10
40.5164376292
 20
116.1315857321
 30
0.0
 10
40.9777050081
 20
116.4435352537
 30
0.0
 10
41.2143376094
 20
116.575428826
 30
0.0
  0
SPLINE
  5
28E
100
AcDbEntity
  8
0
100
AcDbSpline
 62
7
  6
BYLAYER
 70
0
 71
3
 72
9
 73
5
 74
0
 42
0.0000001
 43
0.0000001
 44
0.0000000001
 40
0.0
 40
0.0
 40
0.0
 40
0.0
 40
0.48658148
 40
1.0
 40
1.0
 40
1.0
 40
1.0
 10
39.1256308492
 20
107.8540415041
 30
0.0
 10
39.1256308492
 20
108.049959224
 30
0.0
 10
39.0861185404
 20
108.4522787165
 30
0.0
 10
39.0123267084
 20
108.8481161779
 30
0.0
 10
38.9697425202
 20
109.0504059643
 30
0.0
  0
SPLINE
  5
28F
100
AcDbEntity
  8
0
100
AcDbSpline
 62
7
  6
BYLAYER
 70
0
 71
3
 72
10
 73
6
 74
0
 42
0.0000001
 43
0.0000001
 44
0.0000000001
 40
0.0
 40
0.0
 40
0.0
 40
0.0
 40
0.230521754
 40
0.4761900894
 40
1.0
 40
1.0
 40
1.0
 40
1.0
 10
38.2417436928
 20
110.354567089
 30
0.0
 10
38.2417436928
 20
110.5701347801
 30
0.0
 10
38.272144977
 20
111.0158028246
 30
0.0
 10
38.441764443
 20
111.9367139323
 30
0.0
 10
38.6815331119
 20
112.6214096992
 30
0.0
 10
38.8823990835
 20
113.0681606194
 30
0.0
  0
SPLINE
  5
290
100
AcDbEntity
  8
0
100
AcDbSpline
 62
7
  6
BYLAYER
 70
0
 71
3
 72
12
 73
8
 74
0
 42
0.0000001
 43
0.0000001
 44
0.0000000001
 40
0.0
 40
0.0
 40
0.0
 40
0.0
 40
0.2895792189
 40
0.5486323172
 40
0.7816355253
 40
0.891837575
 40
1.0
 40
1.0
 40
1.0
 40
1.0
 10
96.0921286417
 20
85.1203069874
 30
0.0
 10
96.3115959752
 20
85.2470157551
 30
0.0
 10
96.7480833492
 20
85.4546863124
 30
0.0
 10
97.4184944846
 20
85.6167751586
 30
0.0
 10
97.9538420768
 20
85.6025934538
 30
0.0
 10
98.336029613
 20
85.4967326099
 30
0.0
 10
98.5101113544
 20
85.4152735453
 30
0.0
 10
98.5920862241
 20
85.3679464102
 30
0.0
  0
SPLINE
  5
291
100
AcDbEntity
  8
0
100
AcDbSpline
 62
7
  6
BYLAYER
 70
0
 71
3
 72
15
 73
11
 74
0
 42
0.0000001
 43
0.0000001
 44
0.0000000001
 40
0.0
 40
0.0
 40
0.0
 40
0.0
 40
0.1141549864
 40
0.2373269314
 40
0.3669770891
 40
0.5000016033
 40
0.6330258946
 40
0.7626754009
 40
0.8858463197
 40
1.0
 40
1.0
 40
1.0
 40
1.0
 10
92.5566094556
 20
78.9965741324
 30
0.0
 10
92.5566094556
 20
79.2760530582
 30
0.0
 10
92.6077980485
 20
79.8576293376
 30
0.0
 10
92.8118648099
 20
80.7350033902
 30
0.0
 10
93.1387706637
 20
81.6237168936
 30
0.0
 10
93.5763002495
 20
82.490349685
 30
0.0
 10
94.1080566178
 20
83.3025790977
 30
0.0
 10
94.7142461888
 20
84.0300435898
 30
0.0
 10
95.3720341756
 20
84.645454322
 30
0.0
 10
95.8500952002
 20
84.980569749
 30
0.0
 10
96.0921286417
 20
85.1203069874
 30
0.0
  0
SPLINE
  5
292
100
AcDbEntity
  8
0
100
AcDbSpline
 62
7
  6
BYLAYER
 70
0
 71
3
 72
11
 73
7
 74
0
 42
0.0000001
 43
0.0000001
 44
0.0000000001
 40
0.0
 40
0.0
 40
0.0
 40
0.0
 40
0.2366560638
 40
0.4860179065
 40
0.7416570765
 40
1.0
 40
1.0
 40
1.0
 40
1.0
 10
92.1588602352
 20
81.2164341986
 30
0.0
 10
92.1588602352
 20
81.0381736667
 30
0.0
 10
92.1918478147
 20
80.6722829607
 30
0.0
 10
92.2890695819
 20
80.1220374987
 30
0.0
 10
92.4161585596
 20
79.5611033408
 30
0.0
 10
92.5096340548
 20
79.1854152129
 30
0.0
 10
92.5566094556
 20
78.9965741324
 30
0.0
  0
SPLINE
  5
293
100
AcDbEntity
  8
0
100
AcDbSpline
 62
7
  6
BYLAYER
 70
0
 71
3
 72
18
 73
14
 74
0
 42
0.0000001
 43
0.0000001
 44
0.0000000001
 40
0.0
 40
0.0
 40
0.0
 40
0.0
 40
0.0453136223
 40
0.0904843336
 40
0.136624968
 40
0.1847974949
 40
0.2358217879
 40
0.2902518106
 40
0.4100973351
 40
0.5444272848
 40
0.6905324731
 40
0.844101099
 40
1.0
 40
1.0
 40
1.0
 40
1.0
 10
99.2298986073
 20
86.4381036574
 30
0.0
 10
99.1276335246
 20
86.5331109028
 30
0.0
 10
98.9045523121
 20
86.7037489719
 30
0.0
 10
98.5236738529
 20
86.889032165
 30
0.0
 10
98.1054178961
 20
86.9984377043
 30
0.0
 10
97.6566386862
 20
87.0309627431
 30
0.0
 10
97.1835054896
 20
86.9872321643
 30
0.0
 10
96.507004521
 20
86.8234045577
 30
0.0
 10
95.6355720292
 20
86.4214554203
 30
0.0
 10
94.6321130981
 20
85.6951564874
 30
0.0
 10
93.6834634484
 20
84.7459118057
 30
0.0
 10
92.8369909931
 20
83.621579433
 30
0.0
 10
92.3666438333
 20
82.7886255438
 30
0.0
 10
92.1588602352
 20
82.3556621186
 30
0.0
  0
SPLINE
  5
294
100
AcDbEntity
  8
0
100
AcDbSpline
 62
7
  6
BYLAYER
 70
0
 71
3
 72
20
 73
16
 74
0
 42
0.0000001
 43
0.0000001
 44
0.0000000001
 40
0.0
 40
0.0
 40
0.0
 40
0.0
 40
0.1540699987
 40
0.3096338295
 40
0.4587776265
 40
0.5287972466
 40
0.5948086323
 40
0.6563761651
 40
0.7133449917
 40
0.7659226708
 40
0.8147611245
 40
0.860985115
 40
0.9061276157
 40
0.9519468563
 40
1.0
 40
1.0
 40
1.0
 40
1.0
 10
92.1588602352
 20
81.2164341986
 30
0.0
 10
92.3227595467
 20
81.6992799483
 30
0.0
 10
92.7378105114
 20
82.6423227258
 30
0.0
 10
93.563784625
 20
83.9230796858
 30
0.0
 10
94.4008467126
 20
84.8479307315
 30
0.0
 10
95.1290721316
 20
85.4505172353
 30
0.0
 10
95.6752256782
 20
85.8127564638
 30
0.0
 10
96.2224341092
 20
86.0878161347
 30
0.0
 10
96.7608481731
 20
86.2701605614
 30
0.0
 10
97.2808110351
 20
86.3555727952
 30
0.0
 10
97.7727154326
 20
86.3409864476
 30
0.0
 10
98.2262569792
 20
86.2246756734
 30
0.0
 10
98.6302927862
 20
86.0076368494
 30
0.0
 10
98.9738917252
 20
85.6953909304
 30
0.0
 10
99.1523780826
 20
85.4377379788
 30
0.0
 10
99.2298986073
 20
85.2988757373
 30
0.0
  0
SPLINE
  5
295
100
AcDbEntity
  8
0
100
AcDbSpline
 62
7
  6
BYLAYER
 70
0
 71
3
 72
11
 73
7
 74
0
 42
0.0000001
 43
0.0000001
 44
0.0000000001
 40
0.0
 40
0.0
 40
0.0
 40
0.0
 40
0.2198928316
 40
0.4573024769
 40
0.7167924735
 40
1.0
 40
1.0
 40
1.0
 40
1.0
 10
97.6389017258
 20
89.8901241697
 30
0.0
 10
97.3766288531
 20
89.9570319707
 30
0.0
 10
96.810923436
 20
90.023379472
 30
0.0
 10
95.9281192643
 20
89.9248018229
 30
0.0
 10
95.0064744706
 20
89.6387851662
 30
0.0
 10
94.4052869539
 20
89.3413712447
 30
0.0
 10
94.1033825397
 20
89.1670676903
 30
0.0
  0
SPLINE
  5
296
100
AcDbEntity
  8
0
100
AcDbSpline
 62
7
  6
BYLAYER
 70
0
 71
3
 72
13
 73
9
 74
0
 42
0.0000001
 43
0.0000001
 44
0.0000000001
 40
0.0
 40
0.0
 40
0.0
 40
0.0
 40
0.1174652238
 40
0.246434802
 40
0.3806648776
 40
0.5146705238
 40
0.769018027
 40
1.0
 40
1.0
 40
1.0
 40
1.0
 10
90.5678633536
 20
85.807682631
 30
0.0
 10
90.7018946308
 20
85.7303013876
 30
0.0
 10
90.9618333052
 20
85.5305119066
 30
0.0
 10
91.2969603542
 20
85.1546768469
 30
0.0
 10
91.5834140488
 20
84.7145217629
 30
0.0
 10
91.8816398306
 20
84.0923007449
 30
0.0
 10
92.1066604993
 20
83.3008622543
 30
0.0
 10
92.1588602352
 20
82.6599900713
 30
0.0
 10
92.1588602352
 20
82.3556621186
 30
0.0
  0
SPLINE
  5
297
100
AcDbEntity
  8
0
100
AcDbSpline
 62
7
  6
BYLAYER
 70
0
 71
3
 72
11
 73
7
 74
0
 42
0.0000001
 43
0.0000001
 44
0.0000000001
 40
0.0
 40
0.0
 40
0.0
 40
0.0
 40
0.2302044972
 40
0.4757069368
 40
0.7335340741
 40
1.0
 40
1.0
 40
1.0
 40
1.0
 10
94.1033825397
 20
89.1670676903
 30
0.0
 10
93.7770131187
 20
88.978639342
 30
0.0
 10
93.1292461535
 20
88.5419692426
 30
0.0
 10
92.2163514435
 20
87.7584055257
 30
0.0
 10
91.3487860281
 20
86.8415777366
 30
0.0
 10
90.8202400373
 20
86.163483592
 30
0.0
 10
90.5678633536
 20
85.807682631
 30
0.0
  0
SPLINE
  5
298
100
AcDbEntity
  8
0
100
AcDbSpline
 62
7
  6
BYLAYER
 70
0
 71
3
 72
14
 73
10
 74
0
 42
0.0000001
 43
0.0000001
 44
0.0000000001
 40
0.0
 40
0.0
 40
0.0
 40
0.0
 40
0.23272579
 40
0.3453795434
 40
0.459438916
 40
0.5788150269
 40
0.7071747363
 40
0.8471638048
 40
1.0
 40
1.0
 40
1.0
 40
1.0
 10
39.4185779301
 20
114.3496067776
 30
0.0
 10
39.4798382296
 20
114.4467562555
 30
0.0
 10
39.5935034028
 20
114.5802090154
 30
0.0
 10
39.7878773473
 20
114.6999806101
 30
0.0
 10
39.9510178713
 20
114.7554767342
 30
0.0
 10
40.130115701
 20
114.773493056
 30
0.0
 10
40.3215424843
 20
114.7520056258
 30
0.0
 10
40.5211676243
 20
114.6905847198
 30
0.0
 10
40.6513069892
 20
114.6263679193
 30
0.0
 10
40.7166277308
 20
114.5886558247
 30
0.0
  0
SPLINE
  5
299
100
AcDbEntity
  8
0
100
AcDbSpline
 62
7
  6
BYLAYER
 70
0
 71
3
 72
9
 73
5
 74
0
 42
0.0000001
 43
0.0000001
 44
0.0000000001
 40
0.0
 40
0.0
 40
0.0
 40
0.0
 40
0.2481412665
 40
1.0
 40
1.0
 40
1.0
 40
1.0
 10
38.9697425202
 20
109.0504059643
 30
0.0
 10
38.9518224436
 20
109.135532595
 30
0.0
 10
38.8762658734
 20
109.4778911775
 30
0.0
 10
38.7915105821
 20
109.8181132198
 30
0.0
 10
38.7278816288
 20
110.0739015703
 30
0.0
  0
SPLINE
  5
29A
100
AcDbEntity
  8
0
100
AcDbSpline
 62
7
  6
BYLAYER
 70
0
 71
3
 72
15
 73
11
 74
0
 42
0.0000001
 43
0.0000001
 44
0.0000000001
 40
0.0
 40
0.0
 40
0.0
 40
0.0
 40
0.1491669004
 40
0.2907735695
 40
0.4233092517
 40
0.5458806993
 40
0.6591919103
 40
0.7670861209
 40
0.8774562622
 40
1.0
 40
1.0
 40
1.0
 40
1.0
 10
92.1588602352
 20
76.096756995
 30
0.0
 10
92.1588602352
 20
75.9709510735
 30
0.0
 10
92.1508724509
 20
75.7255682322
 30
0.0
 10
92.107217184
 20
75.3706083693
 30
0.0
 10
92.0262407548
 20
75.0448375928
 30
0.0
 10
91.9017461161
 20
74.7580560076
 30
0.0
 10
91.7267752911
 20
74.5225359047
 30
0.0
 10
91.4942801544
 20
74.3568947846
 30
0.0
 10
91.2086225067
 20
74.2865927698
 30
0.0
 10
91.0095039098
 20
74.3111654904
 30
0.0
 10
90.9095577598
 20
74.3374798417
 30
0.0
  0
SPLINE
  5
29B
100
AcDbEntity
  8
0
100
AcDbSpline
 62
7
  6
BYLAYER
 70
0
 71
3
 72
11
 73
7
 74
0
 42
0.0000001
 43
0.0000001
 44
0.0000000001
 40
0.0
 40
0.0
 40
0.0
 40
0.0
 40
0.2832075265
 40
0.5426975231
 40
0.7801071684
 40
1.0
 40
1.0
 40
1.0
 40
1.0
 10
44.2521469168
 20
117.948040884
 30
0.0
 10
44.5540513311
 20
118.1223444384
 30
0.0
 10
45.1552388477
 20
118.4197583599
 30
0.0
 10
46.0768836414
 20
118.7057750166
 30
0.0
 10
46.9596878132
 20
118.8043526656
 30
0.0
 10
47.5253932303
 20
118.7380051644
 30
0.0
 10
47.7876661029
 20
118.6710973634
 30
0.0
  0
SPLINE
  5
29C
100
AcDbEntity
  8
0
100
AcDbSpline
 62
7
  6
BYLAYER
 70
0
 71
3
 72
11
 73
7
 74
0
 42
0.0000001
 43
0.0000001
 44
0.0000000001
 40
0.0
 40
0.0
 40
0.0
 40
0.0
 40
0.2664659259
 40
0.5242930632
 40
0.7697955028
 40
1.0
 40
1.0
 40
1.0
 40
1.0
 10
40.7166277308
 20
114.5886558247
 30
0.0
 10
40.9690044144
 20
114.9444567857
 30
0.0
 10
41.4975504052
 20
115.6225509303
 30
0.0
 10
42.3651158207
 20
116.5393787194
 30
0.0
 10
43.2780105307
 20
117.3229424363
 30
0.0
 10
43.9257774958
 20
117.7596125357
 30
0.0
 10
44.2521469168
 20
117.948040884
 30
0.0
  0
SPLINE
  5
29D
100
AcDbEntity
  8
0
100
AcDbSpline
 62
7
  6
BYLAYER
 70
0
 71
3
 72
12
 73
8
 74
0
 42
0.0000001
 43
0.0000001
 44
0.0000000001
 40
0.0
 40
0.0
 40
0.0
 40
0.0
 40
0.108162425
 40
0.2183644747
 40
0.4513676828
 40
0.7104207811
 40
1.0
 40
1.0
 40
1.0
 40
1.0
 10
99.0782241601
 20
85.0872808915
 30
0.0
 10
98.9962492904
 20
85.1346080265
 30
0.0
 10
98.822167549
 20
85.2160670911
 30
0.0
 10
98.4399800129
 20
85.3219279351
 30
0.0
 10
97.9046324207
 20
85.3361096399
 30
0.0
 10
97.2342212853
 20
85.1740207937
 30
0.0
 10
96.7977339112
 20
84.9663502364
 30
0.0
 10
96.5782665777
 20
84.8396414687
 30
0.0
  0
SPLINE
  5
29E
100
AcDbEntity
  8
0
100
AcDbSpline
 62
7
  6
BYLAYER
 70
0
 71
3
 72
9
 73
5
 74
0
 42
0.0000001
 43
0.0000001
 44
0.0000000001
 40
0.0
 40
0.0
 40
0.0
 40
0.0
 40
0.2456650646
 40
1.0
 40
1.0
 40
1.0
 40
1.0
 10
38.7278816288
 20
110.0739015703
 30
0.0
 10
38.7565311652
 20
110.1559918011
 30
0.0
 10
38.873174853
 20
110.4899978739
 30
0.0
 10
38.9801560517
 20
110.8285105636
 30
0.0
 10
39.0376314389
 20
111.0892252132
 30
0.0
  0
SPLINE
  5
29F
100
AcDbEntity
  8
0
100
AcDbSpline
 62
7
  6
BYLAYER
 70
0
 71
3
 72
12
 73
8
 74
0
 42
0.0000001
 43
0.0000001
 44
0.0000000001
 40
0.0
 40
0.0
 40
0.0
 40
0.0
 40
0.1081616756
 40
0.2183630921
 40
0.4513656991
 40
0.7104193237
 40
1.0
 40
1.0
 40
1.0
 40
1.0
 10
93.5921710592
 20
76.7076433933
 30
0.0
 10
93.5101935065
 20
76.7549720774
 30
0.0
 10
93.3525998731
 20
76.8650028381
 30
0.0
 10
93.0698146992
 20
77.1430631728
 30
0.0
 10
92.7898462245
 20
77.5996136384
 30
0.0
 10
92.5950057941
 20
78.2612787213
 30
0.0
 10
92.5566094556
 20
78.743144137
 30
0.0
 10
92.5566094556
 20
78.9965741324
 30
0.0
  0
SPLINE
  5
2A0
100
AcDbEntity
  8
0
100
AcDbSpline
 62
7
  6
BYLAYER
 70
0
 71
3
 72
14
 73
10
 74
0
 42
0.0000001
 43
0.0000001
 44
0.0000000001
 40
0.0
 40
0.0
 40
0.0
 40
0.0
 40
0.1108273924
 40
0.2212798459
 40
0.3340167272
 40
0.4515896475
 40
0.7078854829
 40
0.8493813159
 40
1.0
 40
1.0
 40
1.0
 40
1.0
 10
92.1588602352
 20
76.096756995
 30
0.0
 10
92.2599922716
 20
76.0028023827
 30
0.0
 10
92.4803606623
 20
75.8338691312
 30
0.0
 10
92.8561767352
 20
75.6494632044
 30
0.0
 10
93.2687307943
 20
75.5391737204
 30
0.0
 10
93.8756987551
 20
75.4908891645
 30
0.0
 10
94.5188474161
 20
75.6027919202
 30
0.0
 10
95.1596401506
 20
75.8409327451
 30
0.0
 10
95.4854358086
 20
76.0050466151
 30
0.0
 10
95.6487364942
 20
76.0973909979
 30
0.0
  0
SPLINE
  5
2A1
100
AcDbEntity
  8
0
100
AcDbSpline
 62
7
  6
BYLAYER
 70
0
 71
3
 72
9
 73
5
 74
0
 42
0.0000001
 43
0.0000001
 44
0.0000000001
 40
0.0
 40
0.0
 40
0.0
 40
0.0
 40
0.2558404886
 40
1.0
 40
1.0
 40
1.0
 40
1.0
 10
94.4369884228
 20
76.2380190435
 30
0.0
 10
94.4030810433
 20
76.231652061
 30
0.0
 10
94.270141967
 20
76.2090111049
 30
0.0
 10
94.1355787272
 20
76.1956303374
 30
0.0
 10
94.0353096864
 20
76.1916101727
 30
0.0
  0
SPLINE
  5
2A2
100
AcDbEntity
  8
0
100
AcDbSpline
 62
7
  6
BYLAYER
 70
0
 71
3
 72
11
 73
7
 74
0
 42
0.0000001
 43
0.0000001
 44
0.0000000001
 40
0.0
 40
0.0
 40
0.0
 40
0.0
 40
0.2576343464
 40
0.5013746604
 40
0.7444015399
 40
1.0
 40
1.0
 40
1.0
 40
1.0
 10
94.0353096864
 20
76.1916101727
 30
0.0
 10
93.8411488823
 20
76.1838255326
 30
0.0
 10
93.4590506533
 20
76.2122275904
 30
0.0
 10
92.9253775516
 20
76.4110056401
 30
0.0
 10
92.4762173992
 20
76.7587335047
 30
0.0
 10
92.2528301033
 20
77.0676570232
 30
0.0
 10
92.1588602352
 20
77.2359849151
 30
0.0
  0
SPLINE
  5
2A3
100
AcDbEntity
  8
0
100
AcDbSpline
 62
7
  6
BYLAYER
 70
0
 71
3
 72
9
 73
5
 74
0
 42
0.0000001
 43
0.0000001
 44
0.0000000001
 40
0.0
 40
0.0
 40
0.0
 40
0.0
 40
0.2544439735
 40
1.0
 40
1.0
 40
1.0
 40
1.0
 10
38.997007002
 20
111.7915899871
 30
0.0
 10
38.9796503459
 20
111.7331895203
 30
0.0
 10
38.9142744642
 20
111.5028383829
 30
0.0
 10
38.8603734815
 20
111.2691933153
 30
0.0
 10
38.8275011151
 20
111.0937269902
 30
0.0
  0
SPLINE
  5
2A4
100
AcDbEntity
  8
0
100
AcDbSpline
 62
7
  6
BYLAYER
 70
0
 71
3
 72
9
 73
5
 74
0
 42
0.0000001
 43
0.0000001
 44
0.0000000001
 40
0.0
 40
0.0
 40
0.0
 40
0.0
 40
0.2597048674
 40
1.0
 40
1.0
 40
1.0
 40
1.0
 10
38.8275011151
 20
111.0937269902
 30
0.0
 10
38.8111543786
 20
111.0064712766
 30
0.0
 10
38.7552239804
 20
110.6692613701
 30
0.0
 10
38.7278816288
 20
110.3269532815
 30
0.0
 10
38.7278816288
 20
110.0739015703
 30
0.0
  0
SPLINE
  5
2A5
100
AcDbEntity
  8
0
100
AcDbSpline
 62
7
  6
BYLAYER
 70
0
 71
3
 72
9
 73
5
 74
0
 42
0.0000001
 43
0.0000001
 44
0.0000000001
 40
0.0
 40
0.0
 40
0.0
 40
0.0
 40
0.4788391088
 40
1.0
 40
1.0
 40
1.0
 40
1.0
 10
92.5566094556
 20
78.9965741324
 30
0.0
 10
92.4613474939
 20
78.7236176587
 30
0.0
 10
92.262220734
 20
78.1541088236
 30
0.0
 10
92.1588602352
 20
77.5506391563
 30
0.0
 10
92.1588602352
 20
77.2359849151
 30
0.0
  0
SPLINE
  5
2A6
100
AcDbEntity
  8
0
100
AcDbSpline
 62
7
  6
BYLAYER
 70
0
 71
3
 72
15
 73
11
 74
0
 42
0.0000001
 43
0.0000001
 44
0.0000000001
 40
0.0
 40
0.0
 40
0.0
 40
0.0
 40
0.1141536803
 40
0.2373245991
 40
0.3669741054
 40
0.4999983967
 40
0.6330229109
 40
0.7626730686
 40
0.8858450136
 40
1.0
 40
1.0
 40
1.0
 40
1.0
 10
96.5782665777
 20
84.8396414687
 30
0.0
 10
96.3362331362
 20
84.6999042302
 30
0.0
 10
95.8581721117
 20
84.3647888032
 30
0.0
 10
95.2003841249
 20
83.7493780711
 30
0.0
 10
94.5941945538
 20
83.021913579
 30
0.0
 10
94.0624381856
 20
82.2096841662
 30
0.0
 10
93.6249085997
 20
81.3430513749
 30
0.0
 10
93.2980027459
 20
80.4543378715
 30
0.0
 10
93.0939359845
 20
79.5769638189
 30
0.0
 10
93.0427473916
 20
78.9953875394
 30
0.0
 10
93.0427473916
 20
78.7159086137
 30
0.0
  0
SPLINE
  5
2A7
100
AcDbEntity
  8
0
100
AcDbSpline
 62
7
  6
BYLAYER
 70
0
 71
3
 72
15
 73
11
 74
0
 42
0.0000001
 43
0.0000001
 44
0.0000000001
 40
0.0
 40
0.0
 40
0.0
 40
0.0
 40
0.1484811764
 40
0.2829612979
 40
0.4047774858
 40
0.5177584133
 40
0.6277105532
 40
0.7413143909
 40
0.8642384134
 40
1.0
 40
1.0
 40
1.0
 40
1.0
 10
94.8105143446
 20
78.7159128629
 30
0.0
 10
94.8105143446
 20
78.5441904319
 30
0.0
 10
94.8342055632
 20
78.2160634893
 30
0.0
 10
94.9528017939
 20
77.7600046029
 30
0.0
 10
95.1519517759
 20
77.3772081976
 30
0.0
 10
95.4285441368
 20
77.0820808941
 30
0.0
 10
95.7741032406
 20
76.8895168133
 30
0.0
 10
96.1723103713
 20
76.8083360754
 30
0.0
 10
96.6060276275
 20
76.8377798347
 30
0.0
 10
96.8950383577
 20
76.9234973046
 30
0.0
 10
97.0412305398
 20
76.9807736396
 30
0.0
  0
SPLINE
  5
2A8
100
AcDbEntity
  8
0
100
AcDbSpline
 62
7
  6
BYLAYER
 70
0
 71
3
 72
15
 73
11
 74
0
 42
0.0000001
 43
0.0000001
 44
0.0000000001
 40
0.0
 40
0.0
 40
0.0
 40
0.0
 40
0.1077404824
 40
0.2269729701
 40
0.3552690037
 40
0.4891525403
 40
0.62458457
 40
0.7573788143
 40
0.8836062086
 40
1.0
 40
1.0
 40
1.0
 40
1.0
 10
97.0412305398
 20
76.9807736396
 30
0.0
 10
97.241032034
 20
77.0590534568
 30
0.0
 10
97.6432636356
 20
77.2730243298
 30
0.0
 10
98.2029847935
 20
77.7102092317
 30
0.0
 10
98.7289955172
 20
78.2617150494
 30
0.0
 10
99.197549957
 20
78.9027465066
 30
0.0
 10
99.5877242267
 20
79.6044855252
 30
0.0
 10
99.8819091394
 20
80.3353635423
 30
0.0
 10
100.0667929001
 20
81.062196205
 30
0.0
 10
100.1137931237
 20
81.5459202196
 30
0.0
 10
100.1137931237
 20
81.7777440169
 30
0.0
  0
SPLINE
  5
2A9
100
AcDbEntity
  8
0
100
AcDbSpline
 62
7
  6
BYLAYER
 70
0
 71
3
 72
11
 73
7
 74
0
 42
0.0000001
 43
0.0000001
 44
0.0000000001
 40
0.0
 40
0.0
 40
0.0
 40
0.0
 40
0.2184319062
 40
0.4541225257
 40
0.7138167359
 40
1.0
 40
1.0
 40
1.0
 40
1.0
 10
39.0520552115
 20
108.2215861344
 30
0.0
 10
38.9196229154
 20
108.3301534943
 30
0.0
 10
38.6778709286
 20
108.5991342805
 30
0.0
 10
38.4238064815
 20
109.1034975885
 30
0.0
 10
38.2720469701
 20
109.7011708327
 30
0.0
 10
38.2417436928
 20
110.1302054857
 30
0.0
 10
38.2417436928
 20
110.354567089
 30
0.0
  0
SPLINE
  5
2AA
100
AcDbEntity
  8
0
100
AcDbSpline
 62
7
  6
BYLAYER
 70
0
 71
3
 72
25
 73
21
 74
0
 42
0.0000001
 43
0.0000001
 44
0.0000000001
 40
0.0
 40
0.0
 40
0.0
 40
0.0
 40
0.0603548078
 40
0.1143610946
 40
0.1629240756
 40
0.1858956905
 40
0.2084405757
 40
0.2309850581
 40
0.2539554289
 40
0.3025220042
 40
0.3565184885
 40
0.4168778724
 40
0.4834426893
 40
0.55526551
 40
0.6308662203
 40
0.7084330561
 40
0.7860034181
 40
0.8616023736
 40
0.9334384874
 40
1.0
 40
1.0
 40
1.0
 40
1.0
 10
100.1137931237
 20
81.7777440169
 30
0.0
 10
100.1137931237
 20
81.9677942713
 30
0.0
 10
100.0849666186
 20
82.3291820663
 30
0.0
 10
99.9389006776
 20
82.8254621649
 30
0.0
 10
99.7288591254
 20
83.1677901169
 30
0.0
 10
99.5168169866
 20
83.3764492997
 30
0.0
 10
99.3401905343
 20
83.499680595
 30
0.0
 10
99.1451628096
 20
83.5910291944
 30
0.0
 10
98.8584355839
 20
83.670363725
 30
0.0
 10
98.4569953754
 20
83.6810698673
 30
0.0
 10
97.9540507428
 20
83.5594395627
 30
0.0
 10
97.4366291936
 20
83.3133136699
 30
0.0
 10
96.9222327003
 20
82.9526488196
 30
0.0
 10
96.4287368099
 20
82.4910080526
 30
0.0
 10
95.9741534271
 20
81.945441425
 30
0.0
 10
95.5753106792
 20
81.3362776387
 30
0.0
 10
95.2471919934
 20
80.6863092343
 30
0.0
 10
95.0019483286
 20
80.0197622869
 30
0.0
 10
94.8489307664
 20
79.3617090317
 30
0.0
 10
94.8105143446
 20
78.9255073074
 30
0.0
 10
94.8105143446
 20
78.7159128629
 30
0.0
  0
SPLINE
  5
2AB
100
AcDbEntity
  8
0
100
AcDbSpline
 62
7
  6
BYLAYER
 70
0
 71
3
 72
15
 73
11
 74
0
 42
0.0000001
 43
0.0000001
 44
0.0000000001
 40
0.0
 40
0.0
 40
0.0
 40
0.0
 40
0.1448721958
 40
0.2745376186
 40
0.3911087606
 40
0.4999980713
 40
0.608881235
 40
0.7254727502
 40
0.8551006054
 40
1.0
 40
1.0
 40
1.0
 40
1.0
 10
97.4621537341
 20
77.7973211885
 30
0.0
 10
97.3304970709
 20
77.7213096323
 30
0.0
 10
97.0686259278
 20
77.5967115992
 30
0.0
 10
96.6661942775
 20
77.499513007
 30
0.0
 10
96.2883022953
 20
77.5092127154
 30
0.0
 10
95.9519864487
 20
77.6311145171
 30
0.0
 10
95.6782017376
 20
77.8614079972
 30
0.0
 10
95.4809539924
 20
78.1838547514
 30
0.0
 10
95.3638515771
 20
78.5809543275
 30
0.0
 10
95.3408721136
 20
78.8700393825
 30
0.0
 10
95.3408701725
 20
79.0220917171
 30
0.0
  0
SPLINE
  5
2AC
100
AcDbEntity
  8
0
100
AcDbSpline
 62
7
  6
BYLAYER
 70
0
 71
3
 72
23
 73
19
 74
0
 42
0.0000001
 43
0.0000001
 44
0.0000000001
 40
0.0
 40
0.0
 40
0.0
 40
0.0
 40
0.0603672746
 40
0.1143980125
 40
0.1629724598
 40
0.2083459204
 40
0.253716769
 40
0.3022995715
 40
0.356314474
 40
0.4166928914
 40
0.4832771296
 40
0.5551215351
 40
0.6307461459
 40
0.7083384644
 40
0.7859357115
 40
0.8615553276
 40
0.9334233002
 40
1.0
 40
1.0
 40
1.0
 40
1.0
 10
97.4621537341
 20
82.6963356913
 30
0.0
 10
97.5938099368
 20
82.7723469816
 30
0.0
 10
97.8556801705
 20
82.8969446326
 30
0.0
 10
98.258110406
 20
82.9941435279
 30
0.0
 10
98.6360011943
 20
82.9844443981
 30
0.0
 10
98.9723164064
 20
82.8625460209
 30
0.0
 10
99.246101058
 20
82.6322495535
 30
0.0
 10
99.4433503856
 20
82.3098290393
 30
0.0
 10
99.5604512709
 20
81.9126310086
 30
0.0
 10
99.5968218664
 20
81.455729527
 30
0.0
 10
99.5527386922
 20
80.955078596
 30
0.0
 10
99.4303164136
 20
80.4285243266
 30
0.0
 10
99.2341882228
 20
79.8953476144
 30
0.0
 10
98.9716796542
 20
79.3753485874
 30
0.0
 10
98.6526051755
 20
78.8880434418
 30
0.0
 10
98.2889125763
 20
78.4514822197
 30
0.0
 10
97.8941902128
 20
78.0822663658
 30
0.0
 10
97.607352197
 20
77.8811510597
 30
0.0
 10
97.4621537341
 20
77.7973211885
 30
0.0
  0
SPLINE
  5
2AD
100
AcDbEntity
  8
0
100
AcDbSpline
 62
7
  6
BYLAYER
 70
0
 71
3
 72
12
 73
8
 74
0
 42
0.0000001
 43
0.0000001
 44
0.0000000001
 40
0.0
 40
0.0
 40
0.0
 40
0.0
 40
0.2895806763
 40
0.5486343009
 40
0.7816369079
 40
0.8918383244
 40
1.0
 40
1.0
 40
1.0
 40
1.0
 10
93.0427473916
 20
78.7159086137
 30
0.0
 10
93.0427473916
 20
78.4624786182
 30
0.0
 10
93.0811437301
 20
77.9806132026
 30
0.0
 10
93.2759841605
 20
77.3189481197
 30
0.0
 10
93.5559526353
 20
76.862397654
 30
0.0
 10
93.8387378092
 20
76.5843373193
 30
0.0
 10
93.9963314425
 20
76.4743065586
 30
0.0
 10
94.0783089953
 20
76.4269778746
 30
0.0
  0
SPLINE
  5
2AE
100
AcDbEntity
  8
0
100
AcDbSpline
 62
7
  6
BYLAYER
 70
0
 71
3
 72
9
 73
5
 74
0
 42
0.0000001
 43
0.0000001
 44
0.0000000001
 40
0.0
 40
0.0
 40
0.0
 40
0.0
 40
0.2651878253
 40
1.0
 40
1.0
 40
1.0
 40
1.0
 10
38.7278816288
 20
110.0739015703
 30
0.0
 10
38.7278816288
 20
109.9775135076
 30
0.0
 10
38.7390684488
 20
109.6143182247
 30
0.0
 10
38.7970891448
 20
109.2511379145
 30
0.0
 10
38.8743748712
 20
108.9954815653
 30
0.0
  0
SPLINE
  5
2AF
100
AcDbEntity
  8
0
100
AcDbSpline
 62
7
  6
BYLAYER
 70
0
 71
3
 72
9
 73
5
 74
0
 42
0.0000001
 43
0.0000001
 44
0.0000000001
 40
0.0
 40
0.0
 40
0.0
 40
0.0
 40
0.2570676596
 40
1.0
 40
1.0
 40
1.0
 40
1.0
 10
38.8743748712
 20
108.9954815653
 30
0.0
 10
38.8852131895
 20
108.9596290861
 30
0.0
 10
38.9300431766
 20
108.8209939779
 30
0.0
 10
38.9858848991
 20
108.6858318752
 30
0.0
 10
39.0340387444
 20
108.5888869045
 30
0.0
  0
ELLIPSE
  5
2B0
100
AcDbEntity
  8
0
100
AcDbEllipse
 62
7
  6
BYLAYER
 10
51.7554408981
 20
106.635014419
 30
0.0
 11
16.4687378877
 21
-3.082849946
 31
0.0
 40
0.4107575126
 41
-2.1186836719
 42
-2.0142816948
  0
ELLIPSE
  5
2B1
100
AcDbEntity
  8
0
100
AcDbEllipse
 62
7
  6
BYLAYER
 10
86.6000885584
 20
86.5179028224
 30
0.0
 11
-3.7305692509
 21
11.7943314387
 31
0.0
 40
0.2019132542
 41
-3.6240171021
 42
-3.519615125
  0
ELLIPSE
  5
2B2
100
AcDbEntity
  8
0
100
AcDbEllipse
 62
7
  6
BYLAYER
 10
51.7554408981
 20
106.635014419
 30
0.0
 11
-3.7305692509
 21
11.7943314387
 31
0.0
 40
0.2019132542
 41
-0.4824244485
 42
-0.3780224714
  0
ELLIPSE
  5
2B3
100
AcDbEntity
  8
0
100
AcDbEllipse
 62
7
  6
BYLAYER
 10
86.6000885584
 20
86.5179028224
 30
0.0
 11
16.4687378877
 21
-3.082849946
 31
0.0
 40
0.4107575126
 41
1.0229089817
 42
1.1273109588
  0
ELLIPSE
  5
2B4
100
AcDbEntity
  8
0
100
AcDbEllipse
 62
7
  6
BYLAYER
 10
86.6000885584
 20
86.5179028224
 30
0.0
 11
-3.7305692509
 21
11.7943314387
 31
0.0
 40
0.2019132542
 41
-1.6272778981
 42
-1.5228759209
  0
ELLIPSE
  5
2B5
100
AcDbEntity
  8
0
100
AcDbEllipse
 62
7
  6
BYLAYER
 10
51.7554408981
 20
106.635014419
 30
0.0
 11
16.4687378877
 21
-3.082849946
 31
0.0
 40
0.4107575126
 41
2.1677624312
 42
2.2721644083
  0
ENDSEC
  0
SECTION
  2
OBJECTS
  0
DICTIONARY
  5
C
100
AcDbDictionary
280
0
281
1
  3
ACAD_GROUP
350
D
  3
ACAD_MLINESTYLE
350
17
  3
ACAD_LAYOUT
350
1A
  3
ACAD_PLOTSETTINGS
350
19
  3
ACAD_PLOTSTYLENAME
350
E
  0
DICTIONARY
  5
D
102
{ACAD_REACTORS
330
C
102
}
100
AcDbDictionary
280
0
281
1
  0
ACDBDICTIONARYWDFLT
  5
E
102
{ACAD_REACTORS
330
C
102
}
100
AcDbDictionary
281
1
  3
Normal
350
F
100
AcDbDictionaryWithDefault
340
F
  0
DICTIONARY
  5
17
102
{ACAD_REACTORS
330
C
102
}
100
AcDbDictionary
280
0
281
1
  3
Standard
350
18
  0
DICTIONARY
  5
19
102
{ACAD_REACTORS
330
C
102
}
100
AcDbDictionary
281
1
  0
DICTIONARY
  5
1A
102
{ACAD_REACTORS
330
C
102
}
100
AcDbDictionary
281
1
  3
Model
350
2B6
  3
Layout1
350
2B7
  0
ACDBPLACEHOLDER
  5
F
102
{ACAD_REACTORS
330
E
102
}
  0
MLINESTYLE
  5
18
102
{ACAD_REACTORS
330
17
102
}
100
AcDbMlineStyle
  2
STANDARD
 70
0
  3

 62
256
 51
90.0
 52
90.0
 71
2
 49
0.5
 62
256
  6
BYLAYER
 49
-0.5
 62
256
  6
BYLAYER
  0
LAYOUT
  5
2B6
102
{ACAD_REACTORS
330
1A
102
}
100
AcDbPlotSettings
  1

  2
none_device
  4

  6

 40
0.0
 41
0.0
 42
0.0
 43
0.0
 44
210.0
 45
297.0
 46
0.0
 47
0.0
 48
0.0
 49
0.0
140
0.0
141
0.0
142
1.0
143
1.0
 70
1024
 72
1
 73
0
 74
0
  7

 75
0
147
1.0
148
0.0
149
0.0
100
AcDbLayout
  1
Model
 70
0
 71
0
 10
0.0
 20
0.0
 11
210.0
 21
297.0
 12
0.0
 22
0.0
 32
0.0
 14
0.0
 24
0.0
 34
0.0
 15
0.0
 25
0.0
 35
0.0
146
0.0
 13
0.0
 23
0.0
 33
0.0
 16
1.0
 26
0.0
 36
0.0
 17
0.0
 27
1.0
 37
0.0
 76
0
330
210
345
0
346
0
  0
LAYOUT
  5
2B7
102
{ACAD_REACTORS
330
1A
102
}
100
AcDbPlotSettings
  1

  2
none_device
  4

  6

 40
0.0
 41
0.0
 42
0.0
 43
0.0
 44
210.0
 45
297.0
 46
0.0
 47
0.0
 48
0.0
 49
0.0
140
0.0
141
0.0
142
1.0
143
1.0
 70
0
 72
1
 73
0
 74
0
  7

 75
0
147
1.0
148
0.0
149
0.0
100
AcDbLayout
  1
Layout1
 70
0
 71
1
 10
0.0
 20
0.0
 11
210.0
 21
297.0
 12
0.0
 22
0.0
 32
0.0
 14
0.0
 24
0.0
 34
0.0
 15
0.0
 25
0.0
 35
0.0
146
0.0
 13
0.0
 23
0.0
 33
0.0
 16
1.0
 26
0.0
 36
0.0
 17
0.0
 27
1.0
 37
0.0
 76
0
330
211
345
0
346
0
  0
ENDSEC
  0
EOF
