999
DXF file: C:\Users\sesa63760\Dev\_Creo\CAD\MCADID0004564_3D-CAD\drw0001_1.dxf
999
Pro/ENGINEER 2019471 by Parametric Technology Corporation
  0
SECTION
  2
HEADER
  9
$ACADVER
  1
AC1024
  9
$DWGCODEPAGE
  3
ANSI_1252
  9
$EXTMAX
 10
78.0330562878
 20
110.3610367499
 30
0.0
  9
$EXTMIN
 10
-0.0
 20
0.0
 30
0.0
  9
$LIMMIN
 10
-0.0
 20
0.0
  9
$LIMMAX
 10
78.0330562878
 20
110.3610367499
  9
$VIEWCTR
 10
39.0165281439
 20
55.180518375
  9
$VIEWSIZE
 40
110.3610367499
  9
$CLAYER
  8
0
  9
$LTSCALE
 40
7.1939046178
  9
$CELTYPE
  6
BYLAYER
  9
$DIMSCALE
 40
1.0
  9
$DIMASZ
 40
0.9289649558
  9
$DIMEXO
 40
1.0
  9
$DIMDLI
 40
4.9703340996
  9
$DIMEXE
 40
1.0
  9
$DIMCEN
 40
1.177184392
  9
$DIMLFAC
 40
1.0
  9
$DIMBLK
  1
_FILLED
  9
$DIMALT
 70
0
  9
$DIMALTF
 40
0.0393700787
  9
$DIMTXT
 40
1.3005509381
  9
$DIMTOL
 70
1
  9
$DIMLIM
 70
0
  9
$DIMTFAC
 40
1.0
  9
$DIMTP
 40
0.01
  9
$DIMTM
 40
0.01
  9
$DIMGAP
 40
0.625
  9
$DIMDSEP
 70
46
  9
$AUNITS
 70
0
  9
$PDMODE
 70
3
  9
$PDSIZE
 40
0.3125
  9
$HANDSEED
  5
2BE
  9
$TILEMODE
 70
1
  9
$MEASUREMENT
 70
1
  9
$INSUNITS
 70
4
  0
ENDSEC
  0
SECTION
  2
CLASSES
  0
CLASS
  1
ACDBDICTIONARYWDFLT
  2
AcDbDictionaryWithDefault
  3
AutoCAD 2000
 90
0
 91
1
280
0
281
0
  0
CLASS
  1
ACDBPLACEHOLDER
  2
AcDbPlaceHolder
  3
AutoCAD 2000
 90
0
 91
1
280
0
281
0
  0
CLASS
  1
LAYOUT
  2
AcDbLayout
  3
AutoCAD 2000
 90
0
 91
0
280
0
281
0
  0
ENDSEC
  0
SECTION
  2
TABLES
  0
TABLE
  2
VPORT
  5
8
100
AcDbSymbolTable
 70
2
  0
VPORT
  5
1F4
100
AcDbSymbolTableRecord
100
AcDbViewportTableRecord
  2
*ACTIVE
 70
0
 10
0.0
 20
0.0
 11
1.0
 21
1.0
 12
39.0165281439
 22
55.180518375
 13
0.0
 23
0.0
 14
1.0
 24
1.0
 15
0.0
 25
0.0
 16
0.0
 26
0.0
 36
1.0
 17
0.0
 27
0.0
 37
0.0
 40
110.3610367499
 41
0.7070707071
 42
50.0
 43
0.0
 44
0.0
 50
0.0
 51
0.0
 71
0
 72
100
 73
1
 74
1
 75
0
 76
0
 77
0
 78
0
  0
ENDTAB
  0
TABLE
  2
LTYPE
  5
5
100
AcDbSymbolTable
 70
6
  0
LTYPE
  5
14
100
AcDbSymbolTableRecord
100
AcDbLinetypeTableRecord
  2
BYBLOCK
 70
0
  3

 72
65
 73
0
 40
0.0
  0
LTYPE
  5
15
100
AcDbSymbolTableRecord
100
AcDbLinetypeTableRecord
  2
BYLAYER
 70
0
  3

 72
65
 73
0
 40
0.0
  0
LTYPE
  5
16
100
AcDbSymbolTableRecord
100
AcDbLinetypeTableRecord
  2
CONTINUOUS
 70
64
  3
Solid line
 72
65
 73
0
 40
0.0
  0
LTYPE
  5
1F5
100
AcDbSymbolTableRecord
100
AcDbLinetypeTableRecord
  2
CENTER
 70
64
  3
____ _ ____ _ ____ _ ____ _ ____ _ ____ _ ____
 72
65
 73
4
 40
0.6
 49
0.375
 74
0
 49
-0.075
 74
0
 49
0.075
 74
0
 49
-0.075
 74
0
  0
LTYPE
  5
1F6
100
AcDbSymbolTableRecord
100
AcDbLinetypeTableRecord
  2
HIDDEN
 70
64
  3
- - - - - - - - - - - - - - - - - - - -
 72
65
 73
2
 40
0.2
 49
0.1
 74
0
 49
-0.1
 74
0
  0
LTYPE
  5
1F7
100
AcDbSymbolTableRecord
100
AcDbLinetypeTableRecord
  2
PHANTOM
 70
64
  3
_____ _ _ _____ _ _ _____ _ _ _____
 72
65
 73
6
 40
0.8
 49
0.45
 74
0
 49
-0.05
 74
0
 49
0.1
 74
0
 49
-0.05
 74
0
 49
0.1
 74
0
 49
-0.05
 74
0
  0
LTYPE
  5
1F8
100
AcDbSymbolTableRecord
100
AcDbLinetypeTableRecord
  2
DOT
 70
64
  3
. . . . . . . . . . . . . . . . . . . .
 72
65
 73
2
 40
0.2
 49
0.1
 74
0
 49
-0.1
 74
0
  0
LTYPE
  5
1F9
100
AcDbSymbolTableRecord
100
AcDbLinetypeTableRecord
  2
DASHED
 70
64
  3
- - - - - - - - - - - - - - - - - - - -
 72
65
 73
2
 40
0.2
 49
0.1
 74
0
 49
-0.1
 74
0
  0
ENDTAB
  0
TABLE
  2
LAYER
  5
2
100
AcDbSymbolTable
 70
36
  0
LAYER
  5
10
100
AcDbSymbolTableRecord
100
AcDbLayerTableRecord
  2
0
 70
0
 62
7
  6
CONTINUOUS
370
-3
390
F
  0
LAYER
  5
1FA
100
AcDbSymbolTableRecord
100
AcDbLayerTableRecord
  2
DEFAULT_1
 70
0
 62
7
  6
CENTER
370
-3
390
F
  0
LAYER
  5
1FB
100
AcDbSymbolTableRecord
100
AcDbLayerTableRecord
  2
DEFAULT_2
 70
0
 62
7
  6
HIDDEN
370
-3
390
F
  0
LAYER
  5
1FC
100
AcDbSymbolTableRecord
100
AcDbLayerTableRecord
  2
DEFAULT_3
 70
0
 62
7
  6
PHANTOM
370
-3
390
F
  0
LAYER
  5
1FD
100
AcDbSymbolTableRecord
100
AcDbLayerTableRecord
  2
00_COMPONENTS
 70
0
 62
7
  6
CONTINUOUS
370
-3
390
F
  0
LAYER
  5
1FE
100
AcDbSymbolTableRecord
100
AcDbLayerTableRecord
  2
01_1_DEFAULT_DATUMS
 70
0
 62
7
  6
CONTINUOUS
370
-3
390
F
  0
LAYER
  5
1FF
100
AcDbSymbolTableRecord
100
AcDbLayerTableRecord
  2
01_PLANES
 70
0
 62
7
  6
CONTINUOUS
370
-3
390
F
  0
LAYER
  5
200
100
AcDbSymbolTableRecord
100
AcDbLayerTableRecord
  2
02_COORD_SYS
 70
0
 62
7
  6
CONTINUOUS
370
-3
390
F
  0
LAYER
  5
201
100
AcDbSymbolTableRecord
100
AcDbLayerTableRecord
  2
03_AXES
 70
0
 62
7
  6
CONTINUOUS
370
-3
390
F
  0
LAYER
  5
202
100
AcDbSymbolTableRecord
100
AcDbLayerTableRecord
  2
04_POINTS
 70
0
 62
7
  6
CONTINUOUS
370
-3
390
F
  0
LAYER
  5
203
100
AcDbSymbolTableRecord
100
AcDbLayerTableRecord
  2
05_CURVES
 70
0
 62
7
  6
CONTINUOUS
370
-3
390
F
  0
LAYER
  5
204
100
AcDbSymbolTableRecord
100
AcDbLayerTableRecord
  2
06_SURFS
 70
0
 62
7
  6
CONTINUOUS
370
-3
390
F
  0
LAYER
  5
205
100
AcDbSymbolTableRecord
100
AcDbLayerTableRecord
  2
07_COSMETICS
 70
0
 62
7
  6
CONTINUOUS
370
-3
390
F
  0
LAYER
  5
206
100
AcDbSymbolTableRecord
100
AcDbLayerTableRecord
  2
10_NOTES
 70
0
 62
7
  6
CONTINUOUS
370
-3
390
F
  0
LAYER
  5
207
100
AcDbSymbolTableRecord
100
AcDbLayerTableRecord
  2
11_NOTES_PUB
 70
0
 62
7
  6
CONTINUOUS
370
-3
390
F
  0
LAYER
  5
208
100
AcDbSymbolTableRecord
100
AcDbLayerTableRecord
  2
13_REF_GTOL
 70
0
 62
7
  6
CONTINUOUS
370
-3
390
F
  0
LAYER
  5
209
100
AcDbSymbolTableRecord
100
AcDbLayerTableRecord
  2
16_MISC
 70
0
 62
7
  6
CONTINUOUS
370
-3
390
F
  0
LAYER
  5
20A
100
AcDbSymbolTableRecord
100
AcDbLayerTableRecord
  2
17_NO_PRINT
 70
0
 62
7
  6
CONTINUOUS
370
-3
390
F
  0
LAYER
  5
20B
100
AcDbSymbolTableRecord
100
AcDbLayerTableRecord
  2
18_DATUM_CAMS_JOINTS
 70
0
 62
7
  6
CONTINUOUS
370
-3
390
F
  0
LAYER
  5
20C
100
AcDbSymbolTableRecord
100
AcDbLayerTableRecord
  2
19_DATUM_FUNCTIONAL
 70
0
 62
7
  6
CONTINUOUS
370
-3
390
F
  0
LAYER
  5
20D
100
AcDbSymbolTableRecord
100
AcDbLayerTableRecord
  2
20_DATUM_KINEMATIC_SCHEME
 70
0
 62
7
  6
CONTINUOUS
370
-3
390
F
  0
LAYER
  5
20E
100
AcDbSymbolTableRecord
100
AcDbLayerTableRecord
  2
INTFCLR_2609
 70
0
 62
7
  6
CONTINUOUS
370
-3
390
F
  0
ENDTAB
  0
TABLE
  2
STYLE
  5
3
100
AcDbSymbolTable
 70
1
  0
STYLE
  5
11
100
AcDbSymbolTableRecord
100
AcDbTextStyleTableRecord
  2
STANDARD
 70
0
 40
0.0
 41
1.0
 50
0.0
 71
0
 42
0.2
  3
ARIAL.TTF
  4

  0
STYLE
  5
20F
100
AcDbSymbolTableRecord
100
AcDbTextStyleTableRecord
  2
TEXTSTYLE_1
 70
0
 40
0.0
 41
0.8
 50
0.0
 71
0
 42
0.2
  3
gdt
  4

  0
ENDTAB
  0
TABLE
  2
VIEW
  5
6
100
AcDbSymbolTable
 70
0
  0
ENDTAB
  0
TABLE
  2
UCS
  5
7
100
AcDbSymbolTable
 70
0
  0
ENDTAB
  0
TABLE
  2
APPID
  5
9
100
AcDbSymbolTable
 70
1
  0
APPID
  5
210
100
AcDbSymbolTableRecord
100
AcDbRegAppTableRecord
  2
ACAD
 70
0
  0
ENDTAB
  0
TABLE
  2
BLOCK_RECORD
  5
1
100
AcDbSymbolTable
 70
0
  0
BLOCK_RECORD
  5
211
100
AcDbSymbolTableRecord
100
AcDbBlockTableRecord
  2
*Model_Space
  0
BLOCK_RECORD
  5
212
100
AcDbSymbolTableRecord
100
AcDbBlockTableRecord
  2
*Paper_Space
  0
BLOCK_RECORD
  5
213
100
AcDbSymbolTableRecord
100
AcDbBlockTableRecord
  2
_FILLED
  0
ENDTAB
  0
TABLE
  2
DIMSTYLE
  5
A
100
AcDbSymbolTable
 70
1
100
AcDbDimStyleTable
 71
0
  0
DIMSTYLE
105
214
100
AcDbSymbolTableRecord
100
AcDbDimStyleTableRecord
  2
STANDARD
 70
0
  3

  4

 40
1.0
 41
0.9289649558
 42
1.0
 43
0.38
 44
1.0
 45
0.0
 46
0.0
 47
0.01
 48
0.01
140
1.3005509381
141
0.09
142
0.0
143
25.4
144
1.0
145
0.0
146
1.0
147
0.625
 71
1
 72
0
 73
0
 74
0
 75
0
 76
0
 77
1
 78
8
 79
2
170
0
171
1
172
0
173
0
174
0
175
0
176
0
177
0
178
0
270
2
179
2
271
2
272
2
273
2
274
2
275
0
280
0
281
0
282
0
283
1
284
8
285
0
286
0
287
3
288
0
340
11
278
46
341
213
342
213
343
213
344
213
  0
ENDTAB
  0
ENDSEC
  0
SECTION
  2
BLOCKS
  0
BLOCK
  5
20
100
AcDbEntity
  8
0
100
AcDbBlockBegin
  2
*Model_Space
 70
0
 10
0.0
 20
0.0
 30
0.0
  3
*Model_Space
  1

  0
ENDBLK
  5
21
100
AcDbEntity
  8
0
100
AcDbBlockEnd
  0
BLOCK
  5
1C
100
AcDbEntity
  8
0
100
AcDbBlockBegin
  2
*Paper_Space
 70
0
 10
0.0
 20
0.0
 30
0.0
  3
*Paper_Space
  1

  0
ENDBLK
  5
1D
100
AcDbEntity
  8
0
100
AcDbBlockEnd
  0
BLOCK
  5
215
100
AcDbEntity
  8
0
100
AcDbBlockBegin
  2
_FILLED
 70
64
 10
0.0
 20
0.0
  3
_FILLED
  1

  0
SOLID
  5
216
100
AcDbEntity
  8
0
  6
BYBLOCK
 62
0
100
AcDbTrace
 10
0.0
 20
0.0
 11
-1.0
 21
0.25
 12
-1.0
 22
-0.25
 13
-1.0
 23
-0.25
  0
ENDBLK
  5
217
100
AcDbEntity
  8
0
  6
BYBLOCK
 62
0
100
AcDbBlockEnd
  0
ENDSEC
  0
SECTION
  2
ENTITIES
  0
LINE
  5
218
100
AcDbEntity
  8
0
100
AcDbLine
 62
7
  6
BYLAYER
 10
17.140175625
 20
36.1558824304
 11
17.1883734805
 21
36.1259955169
  0
LINE
  5
219
100
AcDbEntity
  8
0
100
AcDbLine
 62
7
  6
BYLAYER
 10
12.6297045938
 20
42.3190220112
 11
12.6329067047
 21
42.7011983807
  0
LINE
  5
21A
100
AcDbEntity
  8
0
100
AcDbLine
 62
7
  6
BYLAYER
 10
13.4455474562
 20
42.1632966588
 11
13.4428430884
 21
41.8405266072
  0
LINE
  5
21B
100
AcDbEntity
  8
0
100
AcDbLine
 62
7
  6
BYLAYER
 10
17.7036916076
 20
38.0798241611
 11
17.4915685221
 21
38.2046490491
  0
LINE
  5
21C
100
AcDbEntity
  8
0
100
AcDbLine
 62
7
  6
BYLAYER
 10
17.1547197819
 20
38.7545244615
 11
17.151665442
 21
38.7648355665
  0
LINE
  5
21D
100
AcDbEntity
  8
0
100
AcDbLine
 62
7
  6
BYLAYER
 10
17.1887303177
 20
38.7471099872
 11
17.1863296412
 21
38.7573710389
  0
LINE
  5
21E
100
AcDbEntity
  8
0
100
AcDbLine
 62
7
  6
BYLAYER
 10
19.1997024861
 20
47.2170978715
 11
18.9337620161
 21
47.370643063
  0
LINE
  5
21F
100
AcDbEntity
  8
0
100
AcDbLine
 62
7
  6
BYLAYER
 10
18.7754510472
 20
47.462046557
 11
18.9323116224
 21
47.3681309793
  0
LINE
  5
220
100
AcDbEntity
  8
0
100
AcDbLine
 62
7
  6
BYLAYER
 10
19.3408770036
 20
47.1325738512
 11
19.1997024859
 21
47.2170978712
  0
LINE
  5
221
100
AcDbEntity
  8
0
100
AcDbLine
 62
7
  6
BYLAYER
 10
23.0179972297
 20
40.6035779002
 11
23.0180007617
 21
40.1136910337
  0
LINE
  5
222
100
AcDbEntity
  8
0
100
AcDbLine
 62
7
  6
BYLAYER
 10
23.0180007621
 20
40.1136910337
 11
23.0150960067
 21
39.9340742983
  0
LINE
  5
223
100
AcDbEntity
  8
0
100
AcDbLine
 62
7
  6
BYLAYER
 10
10.8428182118
 20
44.2185766108
 11
10.8386083226
 21
44.2155202101
  0
LINE
  5
224
100
AcDbEntity
  8
0
100
AcDbLine
 62
7
  6
BYLAYER
 10
22.6088325327
 20
55.1109025139
 11
58.7418386143
 21
75.9721787767
  0
LINE
  5
225
100
AcDbEntity
  8
0
100
AcDbLine
 62
7
  6
BYLAYER
 10
18.3626560239
 20
51.8510968264
 11
22.9588309658
 21
54.5046838266
  0
LINE
  5
226
100
AcDbEntity
  8
0
100
AcDbLine
 62
7
  6
BYLAYER
 10
11.815574354
 20
45.4730876908
 11
15.7753558416
 21
47.759254952
  0
LINE
  5
227
100
AcDbEntity
  8
0
100
AcDbLine
 62
7
  6
BYLAYER
 10
10.8383120787
 20
44.2160321673
 11
11.6913107078
 21
44.7085251803
  0
LINE
  5
228
100
AcDbEntity
  8
0
100
AcDbLine
 62
7
  6
BYLAYER
 10
17.3191232028
 20
47.9577248442
 11
19.7876496443
 21
49.3829207424
  0
LINE
  5
229
100
AcDbEntity
  8
0
100
AcDbLine
 62
7
  6
BYLAYER
 10
10.1606821544
 20
43.7670867072
 11
10.8677859916
 21
44.1753308611
  0
LINE
  5
22A
100
AcDbEntity
  8
0
100
AcDbLine
 62
7
  6
BYLAYER
 10
12.3068265892
 20
42.3479040125
 11
12.631517234
 21
42.5353631247
  0
LINE
  5
22B
100
AcDbEntity
  8
0
100
AcDbLine
 62
7
  6
BYLAYER
 10
13.6509963389
 20
41.9607032251
 11
13.4428430884
 21
41.8405266072
  0
LINE
  5
22C
100
AcDbEntity
  8
0
100
AcDbLine
 62
7
  6
BYLAYER
 10
12.8148243149
 20
41.4680208892
 11
13.0548736914
 21
41.6066126341
  0
LINE
  5
22D
100
AcDbEntity
  8
0
100
AcDbLine
 62
7
  6
BYLAYER
 10
13.772505097
 20
41.840883267
 11
13.323772554
 21
41.5818089589
  0
LINE
  5
22E
100
AcDbEntity
  8
0
100
AcDbLine
 62
7
  6
BYLAYER
 10
12.2823718605
 20
39.4291982435
 11
14.6486539641
 21
40.7953636981
  0
LINE
  5
22F
100
AcDbEntity
  8
0
100
AcDbLine
 62
7
  6
BYLAYER
 10
16.2427585773
 20
34.8655496809
 11
16.2480859585
 21
34.8696737286
  0
LINE
  5
230
100
AcDbEntity
  8
0
100
AcDbLine
 62
7
  6
BYLAYER
 10
12.7903695862
 20
38.5493151203
 11
15.1703430857
 21
39.9233852587
  0
LINE
  5
231
100
AcDbEntity
  8
0
100
AcDbLine
 62
7
  6
BYLAYER
 10
14.8222647101
 20
37.9345856243
 11
15.6872220491
 21
38.4339659959
  0
LINE
  5
232
100
AcDbEntity
  8
0
100
AcDbLine
 62
7
  6
BYLAYER
 10
10.850635667
 20
44.2214817544
 11
10.8428182118
 21
44.2185766108
  0
LINE
  5
233
100
AcDbEntity
  8
0
100
AcDbLine
 62
7
  6
BYLAYER
 10
15.3302624358
 20
37.054702501
 11
15.8302583525
 21
37.343373555
  0
LINE
  5
234
100
AcDbEntity
  8
0
100
AcDbLine
 62
7
  6
BYLAYER
 10
15.5106582031
 20
34.5006010585
 11
16.2177620403
 21
34.9088452124
  0
LINE
  5
235
100
AcDbEntity
  8
0
100
AcDbLine
 62
7
  6
BYLAYER
 10
22.7696348871
 20
38.6338132437
 11
25.1876254692
 21
40.029832424
  0
LINE
  5
236
100
AcDbEntity
  8
0
100
AcDbLine
 62
7
  6
BYLAYER
 10
17.8155474927
 20
35.0807673371
 11
21.7753289803
 21
37.3669345983
  0
LINE
  5
237
100
AcDbEntity
  8
0
100
AcDbLine
 62
7
  6
BYLAYER
 10
16.2365166091
 20
34.8619596007
 11
17.0912865327
 21
35.355436862
  0
LINE
  5
238
100
AcDbEntity
  8
0
100
AcDbLine
 62
7
  6
BYLAYER
 10
26.6126190896
 20
37.56165634
 11
31.2087940315
 21
40.2152433402
  0
LINE
  5
239
100
AcDbEntity
  8
0
100
AcDbLine
 62
7
  6
BYLAYER
 10
31.5587924646
 20
39.6090246529
 11
67.6917985462
 21
60.4703009157
  0
LINE
  5
23A
100
AcDbEntity
  8
0
100
AcDbLine
 62
7
  6
BYLAYER
 10
16.2359941471
 20
34.8628673095
 11
16.2427585773
 21
34.8655496809
  0
LINE
  5
23B
100
AcDbEntity
  8
0
100
AcDbLine
 62
7
  6
BYLAYER
 10
61.6660488357
 20
76.2601922277
 11
61.6666896828
 21
76.2602508833
  0
ARC
  5
23C
100
AcDbEntity
  8
0
100
AcDbCircle
 62
7
  6
BYLAYER
 10
14.6736023911
 20
40.191637347
 40
14.1959091446
100
AcDbArc
 50
26.7891153406
 51
28.7927329309
  0
ARC
  5
23D
100
AcDbEntity
  8
0
100
AcDbCircle
 62
7
  6
BYLAYER
 10
15.4329962501
 20
40.7577266167
 40
13.2490144088
100
AcDbArc
 50
37.5638345151
 51
41.3572283685
  0
ARC
  5
23E
100
AcDbEntity
  8
0
100
AcDbCircle
 62
7
  6
BYLAYER
 10
17.2441524135
 20
41.0935896481
 40
11.4664801704
100
AcDbArc
 50
12.3021026445
 51
15.6744935767
  0
ARC
  5
23F
100
AcDbEntity
  8
0
100
AcDbCircle
 62
7
  6
BYLAYER
 10
18.4452025342
 20
44.0922227455
 40
8.7407975677
100
AcDbArc
 50
54.5059697831
 51
58.4577741942
  0
ARC
  5
240
100
AcDbEntity
  8
0
100
AcDbCircle
 62
7
  6
BYLAYER
 10
20.6959645809
 20
41.5415777555
 40
7.9788801816
100
AcDbArc
 50
0.0067118706
 51
2.2078675917
  0
ARC
  5
241
100
AcDbEntity
  8
0
100
AcDbCircle
 62
7
  6
BYLAYER
 10
60.7122040664
 20
68.9342586263
 40
7.584174916
100
AcDbArc
 50
59.5402585699
 51
59.9999873722
  0
ARC
  5
242
100
AcDbEntity
  8
0
100
AcDbCircle
 62
7
  6
BYLAYER
 10
21.360712008
 20
41.5370128301
 40
7.3141347674
100
AcDbArc
 50
356.4904268919
 51
0.0430815415
  0
ARC
  5
243
100
AcDbEntity
  8
0
100
AcDbCircle
 62
7
  6
BYLAYER
 10
10.2897729447
 20
37.1344289875
 40
7.0849384501
100
AcDbArc
 50
10.2168271719
 51
13.1570522867
  0
ARC
  5
244
100
AcDbEntity
  8
0
100
AcDbCircle
 62
7
  6
BYLAYER
 10
15.6806197495
 20
42.1261715725
 40
6.1686010131
100
AcDbArc
 50
55.5364516545
 51
58.1878483717
  0
ARC
  5
245
100
AcDbEntity
  8
0
100
AcDbCircle
 62
7
  6
BYLAYER
 10
10.9012231387
 20
39.3791296054
 40
5.2803106337
100
AcDbArc
 50
58.195749965
 51
59.4144926102
  0
ARC
  5
246
100
AcDbEntity
  8
0
100
AcDbCircle
 62
7
  6
BYLAYER
 10
20.2269851488
 20
49.0307639511
 40
3.4108325988
100
AcDbArc
 50
91.7313156832
 51
95.5886203172
  0
ARC
  5
247
100
AcDbEntity
  8
0
100
AcDbCircle
 62
7
  6
BYLAYER
 10
16.7709172465
 20
38.0419379621
 40
3.2457434175
100
AcDbArc
 50
259.6529410655
 51
260.3677742372
  0
ARC
  5
248
100
AcDbEntity
  8
0
100
AcDbCircle
 62
7
  6
BYLAYER
 10
13.8458473996
 20
43.0922577324
 40
3.233101691
100
AcDbArc
 50
159.7644915568
 51
160.0538578723
  0
ARC
  5
249
100
AcDbEntity
  8
0
100
AcDbCircle
 62
7
  6
BYLAYER
 10
13.8232756659
 20
43.1005810734
 40
3.2090442356
100
AcDbArc
 50
159.4379897624
 51
159.7645363545
  0
ARC
  5
24A
100
AcDbEntity
  8
0
100
AcDbCircle
 62
7
  6
BYLAYER
 10
16.7631934262
 20
37.9965967441
 40
3.1997490413
100
AcDbArc
 50
260.3682807857
 51
260.8745418422
  0
ARC
  5
24B
100
AcDbEntity
  8
0
100
AcDbCircle
 62
7
  6
BYLAYER
 10
13.7876137367
 20
43.1139981252
 40
3.1709418855
100
AcDbArc
 50
158.7724034127
 51
159.4386595991
  0
ARC
  5
24C
100
AcDbEntity
  8
0
100
AcDbCircle
 62
7
  6
BYLAYER
 10
16.7570849665
 20
37.9585472974
 40
3.1612123878
100
AcDbArc
 50
260.8744807181
 51
261.4142985705
  0
ARC
  5
24D
100
AcDbEntity
  8
0
100
AcDbCircle
 62
7
  6
BYLAYER
 10
15.151584683
 20
38.5451891366
 40
2.8723564953
100
AcDbArc
 50
318.2508233974
 51
320.7462794445
  0
ARC
  5
24E
100
AcDbEntity
  8
0
100
AcDbCircle
 62
7
  6
BYLAYER
 10
19.7484922734
 20
49.4487747844
 40
2.7733827702
100
AcDbArc
 50
111.8464945477
 51
119.9795140303
  0
ARC
  5
24F
100
AcDbEntity
  8
0
100
AcDbCircle
 62
7
  6
BYLAYER
 10
25.2326798872
 20
39.951673325
 40
2.7597775779
100
AcDbArc
 50
300.0011194233
 51
308.0756703574
  0
ARC
  5
250
100
AcDbEntity
  8
0
100
AcDbCircle
 62
7
  6
BYLAYER
 10
25.5867209106
 20
40.1548700127
 40
2.7587110186
100
AcDbArc
 50
300.0019317123
 51
304.1662494866
  0
ARC
  5
251
100
AcDbEntity
  8
0
100
AcDbCircle
 62
7
  6
BYLAYER
 10
11.7575023872
 20
42.6370199716
 40
1.8270715196
100
AcDbArc
 50
120.2049670513
 51
132.6245597466
  0
ARC
  5
252
100
AcDbEntity
  8
0
100
AcDbCircle
 62
7
  6
BYLAYER
 10
15.3309084101
 20
36.4480360918
 40
1.8264076341
100
AcDbArc
 50
289.1921425736
 51
299.7252369892
  0
ARC
  5
253
100
AcDbEntity
  8
0
100
AcDbCircle
 62
7
  6
BYLAYER
 10
14.2499969467
 20
36.6844566805
 40
1.4215990363
100
AcDbArc
 50
293.6922961333
 51
299.9935405238
  0
ARC
  5
254
100
AcDbEntity
  8
0
100
AcDbCircle
 62
7
  6
BYLAYER
 10
21.7935322221
 20
47.7504875606
 40
0.8031165787
100
AcDbArc
 50
18.7437665252
 51
20.3687692876
  0
ARC
  5
255
100
AcDbEntity
  8
0
100
AcDbCircle
 62
7
  6
BYLAYER
 10
21.8026201405
 20
47.7533252032
 40
0.7935988334
100
AcDbArc
 50
10.5757598165
 51
18.7605979651
  0
ARC
  5
256
100
AcDbEntity
  8
0
100
AcDbCircle
 62
7
  6
BYLAYER
 10
17.0967618504
 20
37.8478037932
 40
0.7074475049
100
AcDbArc
 50
34.9889414581
 51
46.1164514081
  0
SPLINE
  5
257
100
AcDbEntity
  8
0
100
AcDbSpline
 62
7
  6
BYLAYER
 70
0
 71
3
 72
13
 73
9
 74
0
 42
0.0000001
 43
0.0000001
 44
0.0000000001
 40
0.0
 40
0.0
 40
0.0
 40
0.0
 40
0.1121653718
 40
0.22735845
 40
0.3460065706
 40
0.468456251
 40
0.7255965882
 40
1.0
 40
1.0
 40
1.0
 40
1.0
 10
61.6667215022
 20
76.2602538656
 30
0.0
 10
61.7804782712
 20
76.2706523753
 30
0.0
 10
62.0122661073
 20
76.2800675
 30
0.0
 10
62.3645964003
 20
76.2612187552
 30
0.0
 10
62.7242750633
 20
76.2100369705
 30
0.0
 10
63.219592987
 20
76.0977169342
 30
0.0
 10
63.8501325763
 20
75.8758334067
 30
0.0
 10
64.3344013037
 20
75.6306560935
 30
0.0
 10
64.5764194564
 20
75.4909300089
 30
0.0
  0
SPLINE
  5
258
100
AcDbEntity
  8
0
100
AcDbSpline
 62
7
  6
BYLAYER
 70
0
 71
3
 72
23
 73
19
 74
0
 42
0.0000001
 43
0.0000001
 44
0.0000000001
 40
0.0
 40
0.0
 40
0.0
 40
0.0
 40
0.0562820156
 40
0.1149298808
 40
0.1757030569
 40
0.2383502036
 40
0.3025458219
 40
0.3679286573
 40
0.4341112165
 40
0.500685667
 40
0.5672354997
 40
0.6333452375
 40
0.69860906
 40
0.7626406648
 40
0.8250842984
 40
0.8856242852
 40
0.9439960015
 40
1.0
 40
1.0
 40
1.0
 40
1.0
 10
64.5764194564
 20
75.4909300089
 30
0.0
 10
64.7673321864
 20
75.3807089864
 30
0.0
 10
65.1475210974
 20
75.1385649713
 30
0.0
 10
65.6980883454
 20
74.7246777715
 30
0.0
 10
66.2364450565
 20
74.2561220633
 30
0.0
 10
66.7577340156
 20
73.7374509961
 30
0.0
 10
67.2572606609
 20
73.1734780193
 30
0.0
 10
67.730415435
 20
72.569548626
 30
0.0
 10
68.1727950212
 20
71.9313753052
 30
0.0
 10
68.5802308985
 20
71.2649909069
 30
0.0
 10
68.9488846007
 20
70.5767166871
 30
0.0
 10
69.2752613161
 20
69.8730624303
 30
0.0
 10
69.5562406727
 20
69.1606548526
 30
0.0
 10
69.7891303244
 20
68.446167427
 30
0.0
 10
69.9716850657
 20
67.7362458387
 30
0.0
 10
70.1020876035
 20
67.0373897482
 30
0.0
 10
70.1789420621
 20
66.3559991034
 30
0.0
 10
70.1941672243
 20
65.9076654074
 30
0.0
 10
70.1919601374
 20
65.688319665
 30
0.0
  0
SPLINE
  5
259
100
AcDbEntity
  8
0
100
AcDbSpline
 62
7
  6
BYLAYER
 70
0
 71
3
 72
12
 73
8
 74
0
 42
0.0000001
 43
0.0000001
 44
0.0000000001
 40
0.0
 40
0.0
 40
0.0
 40
0.0
 40
0.2739349941
 40
0.5309394343
 40
0.7720849383
 40
0.8875200802
 40
1.0
 40
1.0
 40
1.0
 40
1.0
 10
70.1919601374
 20
65.688319665
 30
0.0
 10
70.1892221294
 20
65.4162096671
 30
0.0
 10
70.1551288466
 20
64.8883775498
 30
0.0
 10
70.0074835179
 20
64.1334648027
 30
0.0
 10
69.8019100106
 20
63.5564875648
 30
0.0
 10
69.5892377753
 20
63.1413063546
 30
0.0
 10
69.4676838829
 20
62.94980231
 30
0.0
 10
69.4032086965
 20
62.8585448026
 30
0.0
  0
SPLINE
  5
25A
100
AcDbEntity
  8
0
100
AcDbSpline
 62
7
  6
BYLAYER
 70
0
 71
3
 72
23
 73
19
 74
0
 42
0.0000001
 43
0.0000001
 44
0.0000000001
 40
0.0
 40
0.0
 40
0.0
 40
0.0
 40
0.0560341749
 40
0.1145406753
 40
0.1752647087
 40
0.2379208684
 40
0.3021653208
 40
0.3676244973
 40
0.4339002099
 40
0.500577971
 40
0.5672356389
 40
0.6334513921
 40
0.698811863
 40
0.7629210465
 40
0.8254078278
 40
0.8859321595
 40
0.9442151257
 40
1.0
 40
1.0
 40
1.0
 40
1.0
 10
64.5568712337
 20
75.4717079401
 30
0.0
 10
64.745364059
 20
75.3608580376
 30
0.0
 10
65.1211197704
 20
75.1177190477
 30
0.0
 10
65.6658873885
 20
74.7032163448
 30
0.0
 10
66.1996142652
 20
74.2344423497
 30
0.0
 10
66.7172525385
 20
73.7158998575
 30
0.0
 10
67.2139428009
 20
73.1524215665
 30
0.0
 10
67.6849979093
 20
72.5493501901
 30
0.0
 10
68.1259754783
 20
71.9123836125
 30
0.0
 10
68.5327044603
 20
71.2475405206
 30
0.0
 10
68.9013320759
 20
70.5611044845
 30
0.0
 10
69.2283764817
 20
69.8595697474
 30
0.0
 10
69.5107524143
 20
69.1495693862
 30
0.0
 10
69.7457887668
 20
68.4378046444
 30
0.0
 10
69.9312448261
 20
67.7310040164
 30
0.0
 10
70.0654093966
 20
67.0357765473
 30
0.0
 10
70.1469427737
 20
66.3587547897
 30
0.0
 10
70.1661655613
 20
65.9134480432
 30
0.0
 10
70.1661655613
 20
65.6957493827
 30
0.0
  0
SPLINE
  5
25B
100
AcDbEntity
  8
0
100
AcDbSpline
 62
7
  6
BYLAYER
 70
0
 71
3
 72
24
 73
20
 74
0
 42
0.0000001
 43
0.0000001
 44
0.0000000001
 40
0.0
 40
0.0
 40
0.0
 40
0.0
 40
0.0463203227
 40
0.0707677891
 40
0.0961215425
 40
0.1496016548
 40
0.2067941212
 40
0.2674850525
 40
0.3312909847
 40
0.3976973471
 40
0.4660913306
 40
0.5357906898
 40
0.6060698481
 40
0.676184603
 40
0.7453957592
 40
0.8129943619
 40
0.878323758
 40
0.9408144609
 40
1.0
 40
1.0
 40
1.0
 40
1.0
 10
61.3727498415
 20
76.2108460404
 30
0.0
 10
61.6028452003
 20
76.2061282917
 30
0.0
 10
61.9543557347
 20
76.1662098303
 30
0.0
 10
62.4197694369
 20
76.0580561234
 30
0.0
 10
62.9102942835
 20
75.905853621
 30
0.0
 10
63.5336059664
 20
75.6395357621
 30
0.0
 10
64.2736319922
 20
75.2152166688
 30
0.0
 10
65.0076641557
 20
74.6872792916
 30
0.0
 10
65.7243128985
 20
74.0640687999
 30
0.0
 10
66.4124827159
 20
73.3553327316
 30
0.0
 10
67.0614049616
 20
72.572194267
 30
0.0
 10
67.6608935469
 20
71.7269610236
 30
0.0
 10
68.201515219
 20
70.8329370122
 30
0.0
 10
68.6747530338
 20
69.9042035847
 30
0.0
 10
69.0731606816
 20
68.9553813928
 30
0.0
 10
69.3904548279
 20
68.0014070658
 30
0.0
 10
69.6216671594
 20
67.0571936501
 30
0.0
 10
69.7631097438
 20
66.1376597417
 30
0.0
 10
69.7970343726
 20
65.5327828198
 30
0.0
 10
69.7970343726
 20
65.2387179412
 30
0.0
  0
SPLINE
  5
25C
100
AcDbEntity
  8
0
100
AcDbSpline
 62
7
  6
BYLAYER
 70
0
 71
3
 72
11
 73
7
 74
0
 42
0.0000001
 43
0.0000001
 44
0.0000000001
 40
0.0
 40
0.0
 40
0.0
 40
0.0
 40
0.2754057817
 40
0.5334509761
 40
0.7744632503
 40
1.0
 40
1.0
 40
1.0
 40
1.0
 10
69.7970343726
 20
65.2387179412
 30
0.0
 10
69.7970343726
 20
64.978751974
 30
0.0
 10
69.7720493699
 20
64.4746818833
 30
0.0
 10
69.6514302237
 20
63.7517848147
 30
0.0
 10
69.4500884991
 20
63.0958752628
 30
0.0
 10
69.2574058805
 20
62.6972763359
 30
0.0
 10
69.1480574281
 20
62.5146121198
 30
0.0
  0
SPLINE
  5
25D
100
AcDbEntity
  8
0
100
AcDbSpline
 62
7
  6
BYLAYER
 70
0
 71
3
 72
12
 73
8
 74
0
 42
0.0000001
 43
0.0000001
 44
0.0000000001
 40
0.0
 40
0.0
 40
0.0
 40
0.0
 40
0.2233033641
 40
0.3410667108
 40
0.4633070748
 40
0.7219106959
 40
1.0
 40
1.0
 40
1.0
 40
1.0
 10
61.6666896934
 20
76.260250856
 30
0.0
 10
61.8876267177
 20
76.2804517752
 30
0.0
 10
62.229083641
 20
76.2762409987
 30
0.0
 10
62.6850249354
 20
76.2109211241
 30
0.0
 10
63.1685832674
 20
76.1008609911
 30
0.0
 10
63.7881105085
 20
75.8821907315
 30
0.0
 10
64.2650173751
 20
75.6404886397
 30
0.0
 10
64.504292972
 20
75.5023459346
 30
0.0
  0
SPLINE
  5
25E
100
AcDbEntity
  8
0
100
AcDbSpline
 62
7
  6
BYLAYER
 70
0
 71
3
 72
9
 73
5
 74
0
 42
0.0000001
 43
0.0000001
 44
0.0000000001
 40
0.0
 40
0.0
 40
0.0
 40
0.0
 40
0.5126674369
 40
1.0
 40
1.0
 40
1.0
 40
1.0
 10
70.1661655613
 20
65.6957493827
 30
0.0
 10
70.1661655613
 20
65.4956728093
 30
0.0
 10
70.1506775732
 20
65.1052022004
 30
0.0
 10
70.1003172527
 20
64.7175195622
 30
0.0
 10
70.0662111635
 20
64.5304133863
 30
0.0
  0
SPLINE
  5
25F
100
AcDbEntity
  8
0
100
AcDbSpline
 62
7
  6
BYLAYER
 70
0
 71
3
 72
9
 73
5
 74
0
 42
0.0000001
 43
0.0000001
 44
0.0000000001
 40
0.0
 40
0.0
 40
0.0
 40
0.0
 40
0.2564002402
 40
1.0
 40
1.0
 40
1.0
 40
1.0
 10
70.0662111635
 20
64.5304133863
 30
0.0
 10
70.0560051776
 20
64.4744232969
 30
0.0
 10
70.0128595343
 20
64.2566851262
 30
0.0
 10
69.9560016669
 20
64.0415897351
 30
0.0
 10
69.9052266722
 20
63.8845381779
 30
0.0
  0
SPLINE
  5
260
100
AcDbEntity
  8
0
100
AcDbSpline
 62
7
  6
BYLAYER
 70
0
 71
3
 72
9
 73
5
 74
0
 42
0.0000001
 43
0.0000001
 44
0.0000000001
 40
0.0
 40
0.0
 40
0.0
 40
0.0
 40
0.514662946
 40
1.0
 40
1.0
 40
1.0
 40
1.0
 10
69.9052266722
 20
63.8845381779
 30
0.0
 10
69.8447857433
 20
63.69758903
 30
0.0
 10
69.7037098471
 20
63.3413585422
 30
0.0
 10
69.5102401028
 20
63.0100602933
 30
0.0
 10
69.403342948
 20
62.8587257064
 30
0.0
  0
SPLINE
  5
261
100
AcDbEntity
  8
0
100
AcDbSpline
 62
7
  6
BYLAYER
 70
0
 71
3
 72
15
 73
11
 74
0
 42
0.0000001
 43
0.0000001
 44
0.0000000001
 40
0.0
 40
0.0
 40
0.0
 40
0.0
 40
0.1473684022
 40
0.2873735906
 40
0.4200094402
 40
0.5457430946
 40
0.6653473557
 40
0.7799145096
 40
0.8908926742
 40
1.0
 40
1.0
 40
1.0
 40
1.0
 10
23.0150960067
 20
39.9340742983
 30
0.0
 10
23.0103235236
 20
39.7879822476
 30
0.0
 10
22.9893229267
 20
39.5032888898
 30
0.0
 10
22.9203171917
 20
39.0918038918
 30
0.0
 10
22.8149433303
 20
38.7101616511
 30
0.0
 10
22.6739954311
 20
38.3617775716
 30
0.0
 10
22.4985351705
 20
38.0496689814
 30
0.0
 10
22.2897503758
 20
37.7767901994
 30
0.0
 10
22.0495115661
 20
37.5458700199
 30
0.0
 10
21.8690449032
 20
37.42105396
 30
0.0
 10
21.7753264381
 20
37.3669390023
 30
0.0
  0
SPLINE
  5
262
100
AcDbEntity
  8
0
100
AcDbSpline
 62
7
  6
BYLAYER
 70
0
 71
3
 72
15
 73
11
 74
0
 42
0.0000001
 43
0.0000001
 44
0.0000000001
 40
0.0
 40
0.0
 40
0.0
 40
0.0
 40
0.1490827374
 40
0.290359971
 40
0.4238079466
 40
0.5498047258
 40
0.6690685662
 40
0.7827543816
 40
0.8924296395
 40
1.0
 40
1.0
 40
1.0
 40
1.0
 10
22.3998893397
 20
38.0216580912
 30
0.0
 10
22.5895131341
 20
37.9088973155
 30
0.0
 10
22.9681927264
 20
37.7044319761
 30
0.0
 10
23.5465759082
 20
37.4593535007
 30
0.0
 10
24.1150839454
 20
37.2863824494
 30
0.0
 10
24.6681953995
 20
37.1874324542
 30
0.0
 10
25.2005920151
 20
37.1639146684
 30
0.0
 10
25.7069402193
 20
37.2166006012
 30
0.0
 10
26.1816649944
 20
37.3454006871
 30
0.0
 10
26.4747527353
 20
37.4820753154
 30
0.0
 10
26.6126153716
 20
37.5616627939
 30
0.0
  0
SPLINE
  5
263
100
AcDbEntity
  8
0
100
AcDbSpline
 62
7
  6
BYLAYER
 70
0
 71
3
 72
23
 73
19
 74
0
 42
0.0000001
 43
0.0000001
 44
0.0000000001
 40
0.0
 40
0.0
 40
0.0
 40
0.0
 40
0.0485229311
 40
0.0979530676
 40
0.149034901
 40
0.2024440391
 40
0.2587395995
 40
0.3182950889
 40
0.3812263776
 40
0.4473703748
 40
0.5162965795
 40
0.587338932
 40
0.6596416253
 40
0.7321834512
 40
0.8037937818
 40
0.8731741357
 40
0.9390211195
 40
1.0
 40
1.0
 40
1.0
 40
1.0
 10
25.5019666866
 20
42.7817735602
 30
0.0
 10
25.4596465134
 20
42.8080183581
 30
0.0
 10
25.3680413754
 20
42.8516747961
 30
0.0
 10
25.2179344474
 20
42.886382363
 30
0.0
 10
25.0588537671
 20
42.8890041951
 30
0.0
 10
24.895625927
 20
42.8585320124
 30
0.0
 10
24.7329105418
 20
42.7951159176
 30
0.0
 10
24.5750579005
 20
42.7000375378
 30
0.0
 10
24.4257433364
 20
42.5758085634
 30
0.0
 10
24.2877114789
 20
42.4259837058
 30
0.0
 10
24.1629075039
 20
42.2547023938
 30
0.0
 10
24.0525619633
 20
42.0665088323
 30
0.0
 10
23.957372805
 20
41.8661697626
 30
0.0
 10
23.8777713124
 20
41.6585641989
 30
0.0
 10
23.8140293293
 20
41.4487160056
 30
0.0
 10
23.7663312027
 20
41.2416976399
 30
0.0
 10
23.734950888
 20
41.0426358292
 30
0.0
 10
23.7245300567
 20
40.9127142037
 30
0.0
 10
23.7224867867
 20
40.8501669922
 30
0.0
  0
SPLINE
  5
264
100
AcDbEntity
  8
0
100
AcDbSpline
 62
7
  6
BYLAYER
 70
0
 71
3
 72
26
 73
22
 74
0
 42
0.0000001
 43
0.0000001
 44
0.0000000001
 40
0.0
 40
0.0
 40
0.0
 40
0.0
 40
0.0633693731
 40
0.1304854935
 40
0.2006277364
 40
0.2729248283
 40
0.3464096683
 40
0.4200625862
 40
0.4928571632
 40
0.5638037708
 40
0.6319950148
 40
0.6966548739
 40
0.7571950473
 40
0.8132820255
 40
0.8396623626
 40
0.8649637984
 40
0.9125699943
 40
0.9351639559
 40
0.9571372625
 40
0.9786792892
 40
1.0
 40
1.0
 40
1.0
 40
1.0
 10
23.0570221405
 20
51.5174234405
 30
0.0
 10
23.3480043623
 20
51.3369888463
 30
0.0
 10
23.9244340927
 20
50.9279421515
 30
0.0
 10
24.7385662756
 20
50.2097092232
 30
0.0
 10
25.5134145273
 20
49.3819159617
 30
0.0
 10
26.2328942899
 20
48.4617170419
 30
0.0
 10
26.8822264573
 20
47.4680734566
 30
0.0
 10
27.4479735217
 20
46.4215321879
 30
0.0
 10
27.9184412577
 20
45.3437337838
 30
0.0
 10
28.2839081921
 20
44.2569258035
 30
0.0
 10
28.5368287687
 20
43.1834823047
 30
0.0
 10
28.6719363831
 20
42.1452860945
 30
0.0
 10
28.6862839141
 20
41.1635581987
 30
0.0
 10
28.5950952656
 20
40.3932882542
 30
0.0
 10
28.4580405358
 20
39.8266802858
 30
0.0
 10
28.2879665618
 20
39.3174720166
 30
0.0
 10
28.0577053919
 20
38.8510563564
 30
0.0
 10
27.7664082935
 20
38.446011858
 30
0.0
 10
27.5253773548
 20
38.1812326312
 30
0.0
 10
27.259398683
 20
37.9519781242
 30
0.0
 10
27.0659319747
 20
37.8233789607
 30
0.0
 10
26.9661671462
 20
37.7657851145
 30
0.0
  0
SPLINE
  5
265
100
AcDbEntity
  8
0
100
AcDbSpline
 62
7
  6
BYLAYER
 70
0
 71
3
 72
20
 73
16
 74
0
 42
0.0000001
 43
0.0000001
 44
0.0000000001
 40
0.0
 40
0.0
 40
0.0
 40
0.0
 40
0.0378030074
 40
0.081308748
 40
0.1310027244
 40
0.1867409791
 40
0.2479265718
 40
0.3136545566
 40
0.3828292966
 40
0.4543157839
 40
0.5998272682
 40
0.7426476131
 40
0.8112665185
 40
0.8772651102
 40
1.0
 40
1.0
 40
1.0
 40
1.0
 10
23.8263329146
 20
40.3439840368
 30
0.0
 10
23.8609348592
 20
40.3428016182
 30
0.0
 10
23.9357144454
 20
40.349414622
 30
0.0
 10
24.0520842718
 20
40.3800125379
 30
0.0
 10
24.1790051282
 20
40.4307270396
 30
0.0
 10
24.3149351945
 20
40.5004465236
 30
0.0
 10
24.457733661
 20
40.5878372097
 30
0.0
 10
24.6046318462
 20
40.6913400831
 30
0.0
 10
24.7524979637
 20
40.8092741361
 30
0.0
 10
24.9475895956
 20
40.9844751952
 30
0.0
 10
25.1725683611
 20
41.2265131128
 30
0.0
 10
25.3601604109
 20
41.4961455486
 30
0.0
 10
25.4753498119
 20
41.7231514106
 30
0.0
 10
25.5595532478
 20
41.9434804708
 30
0.0
 10
25.5928092055
 20
42.1159113291
 30
0.0
 10
25.5964793386
 20
42.2282589816
 30
0.0
  0
SPLINE
  5
266
100
AcDbEntity
  8
0
100
AcDbSpline
 62
7
  6
BYLAYER
 70
0
 71
3
 72
11
 73
7
 74
0
 42
0.0000001
 43
0.0000001
 44
0.0000000001
 40
0.0
 40
0.0
 40
0.0
 40
0.0
 40
0.2667925389
 40
0.5192805213
 40
0.7620153491
 40
1.0
 40
1.0
 40
1.0
 40
1.0
 10
22.1630152753
 20
47.3257386902
 30
0.0
 10
22.2288694332
 20
47.3637593791
 30
0.0
 10
22.34975246
 20
47.4518339161
 30
0.0
 10
22.4904711265
 20
47.6202696848
 30
0.0
 10
22.5796608778
 20
47.8118756733
 30
0.0
 10
22.6027613699
 20
47.9489023338
 30
0.0
 10
22.6049778494
 20
48.0166969496
 30
0.0
  0
SPLINE
  5
267
100
AcDbEntity
  8
0
100
AcDbSpline
 62
7
  6
BYLAYER
 70
0
 71
3
 72
15
 73
11
 74
0
 42
0.0000001
 43
0.0000001
 44
0.0000000001
 40
0.0
 40
0.0
 40
0.0
 40
0.0
 40
0.1171092609
 40
0.2437474666
 40
0.3757849813
 40
0.5092342491
 40
0.640649545
 40
0.7673148052
 40
0.8873703958
 40
1.0
 40
1.0
 40
1.0
 40
1.0
 10
20.0479808408
 20
47.5408180051
 30
0.0
 10
20.1214325011
 20
47.4952715094
 30
0.0
 10
20.2804983697
 20
47.4102934662
 30
0.0
 10
20.5375365383
 20
47.3050952783
 30
0.0
 10
20.8151346223
 20
47.2216805719
 30
0.0
 10
21.103241949
 20
47.165888648
 30
0.0
 10
21.3920164652
 20
47.1432443615
 30
0.0
 10
21.6716728121
 20
47.1586395947
 30
0.0
 10
21.9320026989
 20
47.2154790254
 30
0.0
 10
22.0910302548
 20
47.2841783673
 30
0.0
 10
22.1630152753
 20
47.3257386902
 30
0.0
  0
SPLINE
  5
268
100
AcDbEntity
  8
0
100
AcDbSpline
 62
7
  6
BYLAYER
 70
0
 71
3
 72
11
 73
7
 74
0
 42
0.0000001
 43
0.0000001
 44
0.0000000001
 40
0.0
 40
0.0
 40
0.0
 40
0.0
 40
0.265804531
 40
0.5198394873
 40
0.7637065559
 40
1.0
 40
1.0
 40
1.0
 40
1.0
 10
25.5964793386
 20
42.2282589816
 30
0.0
 10
25.5981008399
 20
42.2778952927
 30
0.0
 10
25.5944078961
 20
42.375379428
 30
0.0
 10
25.5666585909
 20
42.5159808978
 30
0.0
 10
25.5175441365
 20
42.6447762363
 30
0.0
 10
25.4709440422
 20
42.7221101
 30
0.0
 10
25.4447686493
 20
42.7576625794
 30
0.0
  0
SPLINE
  5
269
100
AcDbEntity
  8
0
100
AcDbSpline
 62
7
  6
BYLAYER
 70
0
 71
3
 72
11
 73
7
 74
0
 42
0.0000001
 43
0.0000001
 44
0.0000000001
 40
0.0
 40
0.0
 40
0.0
 40
0.0
 40
0.2945906383
 40
0.5592698264
 40
0.7933053363
 40
1.0
 40
1.0
 40
1.0
 40
1.0
 10
20.0335790441
 20
48.347621961
 30
0.0
 10
19.9871913335
 20
48.3208401637
 30
0.0
 10
19.9011530971
 20
48.2663122966
 30
0.0
 10
19.7878787989
 20
48.1764537801
 30
0.0
 10
19.6988214335
 20
48.0835120807
 30
0.0
 10
19.6543359721
 20
48.0160184931
 30
0.0
 10
19.6376667328
 20
47.9823353103
 30
0.0
  0
SPLINE
  5
26A
100
AcDbEntity
  8
0
100
AcDbSpline
 62
7
  6
BYLAYER
 70
0
 71
3
 72
11
 73
7
 74
0
 42
0.0000001
 43
0.0000001
 44
0.0000000001
 40
0.0
 40
0.0
 40
0.0
 40
0.0
 40
0.2433376548
 40
0.4895869954
 40
0.7410699389
 40
1.0
 40
1.0
 40
1.0
 40
1.0
 10
17.7238336054
 20
38.2910848003
 30
0.0
 10
17.6907122965
 20
38.3116233392
 30
0.0
 10
17.6203597805
 20
38.3472628058
 30
0.0
 10
17.5063860763
 20
38.3822842303
 30
0.0
 10
17.3857078805
 20
38.3981801585
 30
0.0
 10
17.3035972621
 20
38.3955841557
 30
0.0
 10
17.2623694762
 20
38.391111306
 30
0.0
  0
SPLINE
  5
26B
100
AcDbEntity
  8
0
100
AcDbSpline
 62
7
  6
BYLAYER
 70
0
 71
3
 72
9
 73
5
 74
0
 42
0.0000001
 43
0.0000001
 44
0.0000000001
 40
0.0
 40
0.0
 40
0.0
 40
0.0
 40
0.2468368917
 40
1.0
 40
1.0
 40
1.0
 40
1.0
 10
17.6763472273
 20
38.2534671549
 30
0.0
 10
17.6844458835
 20
38.2419159951
 30
0.0
 10
17.7158853893
 20
38.1941695216
 30
0.0
 10
17.7416946167
 20
38.1427466793
 30
0.0
 10
17.7577601848
 20
38.1028119087
 30
0.0
  0
SPLINE
  5
26C
100
AcDbEntity
  8
0
100
AcDbSpline
 62
7
  6
BYLAYER
 70
0
 71
3
 72
15
 73
11
 74
0
 42
0.0000001
 43
0.0000001
 44
0.0000000001
 40
0.0
 40
0.0
 40
0.0
 40
0.0
 40
0.0967528027
 40
0.1971818787
 40
0.3045492504
 40
0.4212188406
 40
0.5487271714
 40
0.687783426
 40
0.8384744804
 40
1.0
 40
1.0
 40
1.0
 40
1.0
 10
19.6065777
 20
48.1146468706
 30
0.0
 10
19.6057812185
 20
48.0902943266
 30
0.0
 10
19.6094015258
 20
48.0403529523
 30
0.0
 10
19.6302276286
 20
47.9660818785
 30
0.0
 10
19.6660408789
 20
47.892224215
 30
0.0
 10
19.7162708743
 20
47.8189953286
 30
0.0
 10
19.7804111702
 20
47.7466115472
 30
0.0
 10
19.8578576848
 20
47.6753695981
 30
0.0
 10
19.9478415406
 20
47.6057730584
 30
0.0
 10
20.0134103004
 20
47.5622547836
 30
0.0
 10
20.0479808408
 20
47.5408180051
 30
0.0
  0
SPLINE
  5
26D
100
AcDbEntity
  8
0
100
AcDbSpline
 62
7
  6
BYLAYER
 70
0
 71
3
 72
15
 73
11
 74
0
 42
0.0000001
 43
0.0000001
 44
0.0000000001
 40
0.0
 40
0.0
 40
0.0
 40
0.0
 40
0.1653049623
 40
0.3186769009
 40
0.4592995103
 40
0.587245816
 40
0.7032499806
 40
0.8088882872
 40
0.9066519818
 40
1.0
 40
1.0
 40
1.0
 40
1.0
 10
23.7224867867
 20
40.8501669922
 30
0.0
 10
23.7212695231
 20
40.812904934
 30
0.0
 10
23.7209735767
 20
40.740977718
 30
0.0
 10
23.7275684099
 20
40.6375094822
 30
0.0
 10
23.7412889287
 20
40.5432157131
 30
0.0
 10
23.7621660776
 20
40.4588564524
 30
0.0
 10
23.7902877814
 20
40.3849478363
 30
0.0
 10
23.8258052272
 20
40.3218947102
 30
0.0
 10
23.8688932733
 20
40.2701487372
 30
0.0
 10
23.9030946554
 20
40.2432674666
 30
0.0
 10
23.920986356
 20
40.2321713703
 30
0.0
  0
SPLINE
  5
26E
100
AcDbEntity
  8
0
100
AcDbSpline
 62
7
  6
BYLAYER
 70
0
 71
3
 72
21
 73
17
 74
0
 42
0.0000001
 43
0.0000001
 44
0.0000000001
 40
0.0
 40
0.0
 40
0.0
 40
0.0
 40
0.0512567097
 40
0.1039550926
 40
0.1585237015
 40
0.2153119221
 40
0.2745458224
 40
0.336291751
 40
0.4004383842
 40
0.4667196594
 40
0.6037709423
 40
0.7428563769
 40
0.8112134225
 40
0.8775086618
 40
0.9407787986
 40
1.0
 40
1.0
 40
1.0
 40
1.0
 10
22.5464314065
 20
48.0300212028
 30
0.0
 10
22.5296135114
 20
48.0753198212
 30
0.0
 10
22.4871269391
 20
48.1642977061
 30
0.0
 10
22.3999226833
 20
48.2865084035
 30
0.0
 10
22.2898822425
 20
48.3961715908
 30
0.0
 10
22.1589814343
 20
48.4906549808
 30
0.0
 10
22.0097845035
 20
48.5681658939
 30
0.0
 10
21.8451476514
 20
48.627447981
 30
0.0
 10
21.6682045671
 20
48.668109713
 30
0.0
 10
21.4174365054
 20
48.698067424
 30
0.0
 10
21.0929889735
 20
48.6899930528
 30
0.0
 10
20.7722363088
 20
48.6327181962
 30
0.0
 10
20.5238315174
 20
48.56226829
 30
0.0
 10
20.3478986552
 20
48.4997037255
 30
0.0
 10
20.1844539677
 20
48.428963168
 30
0.0
 10
20.0819275667
 20
48.375535827
 30
0.0
 10
20.0335790441
 20
48.347621961
 30
0.0
  0
SPLINE
  5
26F
100
AcDbEntity
  8
0
100
AcDbSpline
 62
7
  6
BYLAYER
 70
0
 71
3
 72
11
 73
7
 74
0
 42
0.0000001
 43
0.0000001
 44
0.0000000001
 40
0.0
 40
0.0
 40
0.0
 40
0.0
 40
0.2669449313
 40
0.5198813151
 40
0.7626310423
 40
1.0
 40
1.0
 40
1.0
 40
1.0
 10
16.2851520341
 20
34.8327605055
 30
0.0
 10
16.4240583165
 20
34.8117897557
 30
0.0
 10
16.6978437181
 20
34.7890398886
 30
0.0
 10
17.0998779264
 20
34.8184099532
 30
0.0
 10
17.4760466674
 20
34.9124328934
 30
0.0
 10
17.7073678716
 20
35.0183080842
 30
0.0
 10
17.8155449497
 20
35.0807717406
 30
0.0
  0
SPLINE
  5
270
100
AcDbEntity
  8
0
100
AcDbSpline
 62
7
  6
BYLAYER
 70
0
 71
3
 72
11
 73
7
 74
0
 42
0.0000001
 43
0.0000001
 44
0.0000000001
 40
0.0
 40
0.0
 40
0.0
 40
0.0
 40
0.2372396732
 40
0.4799210248
 40
0.7328979261
 40
1.0
 40
1.0
 40
1.0
 40
1.0
 10
11.8155768962
 20
45.4730832868
 30
0.0
 10
11.7067530972
 20
45.4102462005
 30
0.0
 10
11.4981806534
 20
45.2618543406
 30
0.0
 10
11.2274344262
 20
44.9808502577
 30
0.0
 10
11.0002956153
 20
44.6445530245
 30
0.0
 10
10.8830501715
 20
44.3939925395
 30
0.0
 10
10.8318217924
 20
44.2621124155
 30
0.0
  0
SPLINE
  5
271
100
AcDbEntity
  8
0
100
AcDbSpline
 62
7
  6
BYLAYER
 70
0
 71
3
 72
15
 73
11
 74
0
 42
0.0000001
 43
0.0000001
 44
0.0000000001
 40
0.0
 40
0.0
 40
0.0
 40
0.0
 40
0.1080092927
 40
0.2180541334
 40
0.3319880856
 40
0.4513435271
 40
0.5772582411
 40
0.7104645835
 40
0.8513738021
 40
1.0
 40
1.0
 40
1.0
 40
1.0
 10
15.7753583846
 20
47.7592505485
 30
0.0
 10
15.8737269497
 20
47.8160505689
 30
0.0
 10
16.0825950162
 20
47.9138393676
 30
0.0
 10
16.4205339747
 20
48.0073119894
 30
0.0
 10
16.7807969321
 20
48.0474794853
 30
0.0
 10
17.1595331456
 20
48.0343065465
 30
0.0
 10
17.5530886194
 20
47.9682889348
 30
0.0
 10
17.9578065656
 20
47.8503056613
 30
0.0
 10
18.3699145629
 20
47.6816495461
 30
0.0
 10
18.640083326
 20
47.540184587
 30
0.0
 10
18.7754510475
 20
47.4620381597
 30
0.0
  0
SPLINE
  5
272
100
AcDbEntity
  8
0
100
AcDbSpline
 62
7
  6
BYLAYER
 70
0
 71
3
 72
15
 73
11
 74
0
 42
0.0000001
 43
0.0000001
 44
0.0000000001
 40
0.0
 40
0.0
 40
0.0
 40
0.0
 40
0.1077481009
 40
0.2175730436
 40
0.3313610098
 40
0.4506641268
 40
0.5766295688
 40
0.7099943784
 40
0.8511126584
 40
1.0
 40
1.0
 40
1.0
 40
1.0
 10
18.3626597419
 20
51.8510903725
 30
0.0
 10
18.2258345454
 20
51.7721018032
 30
0.0
 10
17.9628786211
 20
51.5882020538
 30
0.0
 10
17.6160574391
 20
51.2449240098
 30
0.0
 10
17.3185522428
 20
50.8370766621
 30
0.0
 10
17.0731696015
 20
50.3693605125
 30
0.0
 10
16.8818275267
 20
49.8466583489
 30
0.0
 10
16.7460355175
 20
49.2741544294
 30
0.0
 10
16.6668465329
 20
48.6574571688
 30
0.0
 10
16.6525274318
 20
48.2318089706
 30
0.0
 10
16.6542274169
 20
48.0135057556
 30
0.0
  0
SPLINE
  5
273
100
AcDbEntity
  8
0
100
AcDbSpline
 62
7
  6
BYLAYER
 70
0
 71
3
 72
15
 73
11
 74
0
 42
0.0000001
 43
0.0000001
 44
0.0000000001
 40
0.0
 40
0.0
 40
0.0
 40
0.0
 40
0.1069321308
 40
0.2160704177
 40
0.3294017163
 40
0.4485423608
 40
0.574659191
 40
0.7084566197
 40
0.8502808577
 40
1.0
 40
1.0
 40
1.0
 40
1.0
 10
18.7162118045
 20
52.0552122058
 30
0.0
 10
18.8578755019
 20
52.1369941053
 30
0.0
 10
19.1596426665
 20
52.2768221352
 30
0.0
 10
19.6491273215
 20
52.4059471609
 30
0.0
 10
20.1716391646
 20
52.4546156873
 30
0.0
 10
20.7211095489
 20
52.422832183
 30
0.0
 10
21.2917609657
 20
52.3115495878
 30
0.0
 10
21.8778340691
 20
52.1223639454
 30
0.0
 10
22.4732744682
 20
51.8574832673
 30
0.0
 10
22.862379071
 20
51.6381192791
 30
0.0
 10
23.0570221405
 20
51.5174234405
 30
0.0
  0
SPLINE
  5
274
100
AcDbEntity
  8
0
100
AcDbSpline
 62
7
  6
BYLAYER
 70
0
 71
3
 72
16
 73
12
 74
0
 42
0.0000001
 43
0.0000001
 44
0.0000000001
 40
0.0
 40
0.0
 40
0.0
 40
0.0
 40
0.1176621378
 40
0.2428213585
 40
0.3730495829
 40
0.505507165
 40
0.6372049195
 40
0.7652068697
 40
0.8269979802
 40
0.886894594
 40
1.0
 40
1.0
 40
1.0
 40
1.0
 10
19.171318869
 20
47.2120990313
 30
0.0
 10
19.4413207408
 20
47.0269749912
 30
0.0
 10
19.9702234922
 20
46.6026601428
 30
0.0
 10
20.6939913001
 20
45.8556040036
 30
0.0
 10
21.3540525337
 20
44.999136729
 30
0.0
 10
21.9283236623
 20
44.0617037672
 30
0.0
 10
22.3977642065
 20
43.0745184947
 30
0.0
 10
22.6921335726
 20
42.2276211742
 30
0.0
 10
22.8603703956
 20
41.5531285244
 30
0.0
 10
22.9781699467
 20
40.9103447484
 30
0.0
 10
23.0179730851
 20
40.4283882751
 30
0.0
 10
23.0179934803
 20
40.1136952371
 30
0.0
  0
SPLINE
  5
275
100
AcDbEntity
  8
0
100
AcDbSpline
 62
7
  6
BYLAYER
 70
0
 71
3
 72
19
 73
15
 74
0
 42
0.0000001
 43
0.0000001
 44
0.0000000001
 40
0.0
 40
0.0
 40
0.0
 40
0.0
 40
0.1437457146
 40
0.2899134756
 40
0.4321633278
 40
0.5657507319
 40
0.6284660412
 40
0.6882179927
 40
0.7450931253
 40
0.7993575982
 40
0.851429804
 40
0.9018360258
 40
0.951159859
 40
1.0
 40
1.0
 40
1.0
 40
1.0
 10
17.1883734805
 20
36.1259955169
 30
0.0
 10
17.2832156318
 20
36.2045333639
 30
0.0
 10
17.4655767643
 20
36.3740414885
 30
0.0
 10
17.7058451275
 20
36.6569875287
 30
0.0
 10
17.8997111413
 20
36.9637460347
 30
0.0
 10
18.0099433223
 20
37.2344316505
 30
0.0
 10
18.0564932485
 20
37.4492956311
 30
0.0
 10
18.0696561318
 20
37.6028369932
 30
0.0
 10
18.0613764318
 20
37.7495358174
 30
0.0
 10
18.0318548064
 20
37.886822182
 30
0.0
 10
17.9819270213
 20
38.0121802528
 30
0.0
 10
17.9129784088
 20
38.1232740814
 30
0.0
 10
17.8269108513
 20
38.2179621862
 30
0.0
 10
17.7593907998
 20
38.2690357677
 30
0.0
 10
17.7238336054
 20
38.2910848003
 30
0.0
  0
SPLINE
  5
276
100
AcDbEntity
  8
0
100
AcDbSpline
 62
7
  6
BYLAYER
 70
0
 71
3
 72
15
 73
11
 74
0
 42
0.0000001
 43
0.0000001
 44
0.0000000001
 40
0.0
 40
0.0
 40
0.0
 40
0.0
 40
0.1239646661
 40
0.2521219355
 40
0.3825962415
 40
0.5133400447
 40
0.6423100014
 40
0.7675399657
 40
0.8872641365
 40
1.0
 40
1.0
 40
1.0
 40
1.0
 10
17.1863296412
 20
38.7573710389
 30
0.0
 10
17.1264952667
 20
39.0123020284
 30
0.0
 10
16.9774376639
 20
39.5246707883
 30
0.0
 10
16.6788687412
 20
40.2768287973
 30
0.0
 10
16.307509592
 20
41.0119576186
 30
0.0
 10
15.8719207605
 20
41.7129352494
 30
0.0
 10
15.3822466255
 20
42.3634946004
 30
0.0
 10
14.8497837637
 20
42.9485970178
 30
0.0
 10
14.2869370956
 20
43.4545958112
 30
0.0
 10
13.8864335869
 20
43.7411226888
 30
0.0
 10
13.6840463059
 20
43.8666206203
 30
0.0
  0
SPLINE
  5
277
100
AcDbEntity
  8
0
100
AcDbSpline
 62
7
  6
BYLAYER
 70
0
 71
3
 72
15
 73
11
 74
0
 42
0.0000001
 43
0.0000001
 44
0.0000000001
 40
0.0
 40
0.0
 40
0.0
 40
0.0
 40
0.1489238203
 40
0.2901047143
 40
0.4234996196
 40
0.5494981131
 40
0.6688179676
 40
0.7825902087
 40
0.8923586493
 40
1.0
 40
1.0
 40
1.0
 40
1.0
 10
13.5879702276
 20
43.9247946248
 30
0.0
 10
13.4647403406
 20
43.9976154625
 30
0.0
 10
13.21866653
 20
44.1296615138
 30
0.0
 10
12.8429496474
 20
44.2879213554
 30
0.0
 10
12.4736731082
 20
44.3996428582
 30
0.0
 10
12.1143766139
 20
44.463575556
 30
0.0
 10
11.7684673357
 20
44.4788874049
 30
0.0
 10
11.4393447074
 20
44.445059498
 30
0.0
 10
11.1306012817
 20
44.3620962076
 30
0.0
 10
10.9397528438
 20
44.2740472243
 30
0.0
 10
10.8499217011
 20
44.2227226951
 30
0.0
  0
SPLINE
  5
278
100
AcDbEntity
  8
0
100
AcDbSpline
 62
7
  6
BYLAYER
 70
0
 71
3
 72
15
 73
11
 74
0
 42
0.0000001
 43
0.0000001
 44
0.0000000001
 40
0.0
 40
0.0
 40
0.0
 40
0.0
 40
0.1473684022
 40
0.2873735906
 40
0.4200094402
 40
0.5457430946
 40
0.6653473557
 40
0.7799145096
 40
0.8908926742
 40
1.0
 40
1.0
 40
1.0
 40
1.0
 10
18.2070768564
 20
37.665862592
 30
0.0
 10
18.2027816217
 20
37.5343797464
 30
0.0
 10
18.1838810845
 20
37.2781557243
 30
0.0
 10
18.121775923
 20
36.9078192262
 30
0.0
 10
18.0269394476
 20
36.5643412095
 30
0.0
 10
17.9000863384
 20
36.250795538
 30
0.0
 10
17.7421721039
 20
35.9698978068
 30
0.0
 10
17.5542657887
 20
35.724306903
 30
0.0
 10
17.3380508599
 20
35.5164787415
 30
0.0
 10
17.1756308633
 20
35.4041442875
 30
0.0
 10
17.0912842447
 20
35.3554408256
 30
0.0
  0
SPLINE
  5
279
100
AcDbEntity
  8
0
100
AcDbSpline
 62
7
  6
BYLAYER
 70
0
 71
3
 72
13
 73
9
 74
0
 42
0.0000001
 43
0.0000001
 44
0.0000000001
 40
0.0
 40
0.0
 40
0.0
 40
0.0
 40
0.2710138055
 40
0.523978731
 40
0.6456184091
 40
0.7649502382
 40
0.8827964009
 40
1.0
 40
1.0
 40
1.0
 40
1.0
 10
25.8437982983
 20
42.0748994538
 30
0.0
 10
25.8462228772
 20
42.1491190341
 30
0.0
 10
25.8360445044
 20
42.2937735213
 30
0.0
 10
25.7801146602
 20
42.4638582843
 30
0.0
 10
25.7123014769
 20
42.5814246859
 30
0.0
 10
25.6517075265
 20
42.6592713763
 30
0.0
 10
25.5816617868
 20
42.7269661539
 30
0.0
 10
25.5292589737
 20
42.7648482855
 30
0.0
 10
25.5019666866
 20
42.7817735602
 30
0.0
  0
SPLINE
  5
27A
100
AcDbEntity
  8
0
100
AcDbSpline
 62
7
  6
BYLAYER
 70
0
 71
3
 72
11
 73
7
 74
0
 42
0.0000001
 43
0.0000001
 44
0.0000000001
 40
0.0
 40
0.0
 40
0.0
 40
0.0
 40
0.2361962153
 40
0.4781224701
 40
0.7311915732
 40
1.0
 40
1.0
 40
1.0
 40
1.0
 10
22.6049778494
 20
48.0166969496
 30
0.0
 10
22.6073080764
 20
48.0879707207
 30
0.0
 10
22.5914047041
 20
48.2337115907
 30
0.0
 10
22.5065794692
 20
48.4404472154
 30
0.0
 10
22.3638893291
 20
48.6248670564
 30
0.0
 10
22.2382660882
 20
48.7227806784
 30
0.0
 10
22.1692923525
 20
48.7655504667
 30
0.0
  0
SPLINE
  5
27B
100
AcDbEntity
  8
0
100
AcDbSpline
 62
7
  6
BYLAYER
 70
0
 71
3
 72
15
 73
11
 74
0
 42
0.0000001
 43
0.0000001
 44
0.0000000001
 40
0.0
 40
0.0
 40
0.0
 40
0.0
 40
0.1476985603
 40
0.2884444163
 40
0.4220586281
 40
0.5487480995
 40
0.6689645045
 40
0.7834639839
 40
0.8933417008
 40
1.0
 40
1.0
 40
1.0
 40
1.0
 10
22.7034702219
 20
51.3133013636
 30
0.0
 10
22.527880904
 20
51.4221821988
 30
0.0
 10
22.1767587219
 20
51.6220045178
 30
0.0
 10
21.6401721786
 20
51.8700401556
 30
0.0
 10
21.1103191002
 20
52.0571491609
 30
0.0
 10
20.5916876964
 20
52.1815962918
 30
0.0
 10
20.0885281601
 20
52.2421893497
 30
0.0
 10
19.6050297488
 20
52.2380380028
 30
0.0
 10
19.1455762436
 20
52.1688386338
 30
0.0
 10
18.8549329549
 20
52.0785260131
 30
0.0
 10
18.7164578498
 20
52.0229847484
 30
0.0
  0
SPLINE
  5
27C
100
AcDbEntity
  8
0
100
AcDbSpline
 62
7
  6
BYLAYER
 70
0
 71
3
 72
25
 73
21
 74
0
 42
0.0000001
 43
0.0000001
 44
0.0000000001
 40
0.0
 40
0.0
 40
0.0
 40
0.0
 40
0.0633702942
 40
0.1304920368
 40
0.2006361803
 40
0.2729366677
 40
0.3464249061
 40
0.4200822856
 40
0.4928810611
 40
0.5638316016
 40
0.6320262655
 40
0.6966890262
 40
0.7572317572
 40
0.8133210362
 40
0.8649579449
 40
0.9125661196
 40
0.9351608603
 40
0.9571352847
 40
0.9786781924
 40
1.0
 40
1.0
 40
1.0
 40
1.0
 10
22.6289098467
 20
49.0309091667
 30
0.0
 10
22.8193646886
 20
48.912810398
 30
0.0
 10
23.1966623592
 20
48.6450665044
 30
0.0
 10
23.7295532346
 20
48.1749606973
 30
0.0
 10
24.2367209467
 20
47.6331220817
 30
0.0
 10
24.7076555097
 20
47.0308190816
 30
0.0
 10
25.1326708375
 20
46.3804288734
 30
0.0
 10
25.502982499
 20
45.6954161371
 30
0.0
 10
25.8109271569
 20
44.9899395583
 30
0.0
 10
26.0501434282
 20
44.2785709559
 30
0.0
 10
26.2156914336
 20
43.5759451017
 30
0.0
 10
26.3041247273
 20
42.8964202503
 30
0.0
 10
26.313516511
 20
42.2537672396
 30
0.0
 10
26.2432860929
 20
41.6607933451
 30
0.0
 10
26.094256867
 20
41.1294862356
 30
0.0
 10
25.9020993285
 20
40.7402111356
 30
0.0
 10
25.7114089364
 20
40.4750773294
 30
0.0
 10
25.5536538969
 20
40.3017664713
 30
0.0
 10
25.3795548415
 20
40.1517098987
 30
0.0
 10
25.2529194718
 20
40.0675422674
 30
0.0
 10
25.1876220472
 20
40.0298383333
 30
0.0
  0
SPLINE
  5
27D
100
AcDbEntity
  8
0
100
AcDbSpline
 62
7
  6
BYLAYER
 70
0
 71
3
 72
11
 73
7
 74
0
 42
0.0000001
 43
0.0000001
 44
0.0000000001
 40
0.0
 40
0.0
 40
0.0
 40
0.0
 40
0.2346547495
 40
0.4759674347
 40
0.7297193472
 40
1.0
 40
1.0
 40
1.0
 40
1.0
 10
16.2485356789
 20
34.8688970311
 30
0.0
 10
16.3569430184
 20
34.9320293275
 30
0.0
 10
16.5638959679
 20
35.0837795736
 30
0.0
 10
16.82668994
 20
35.3753697627
 30
0.0
 10
17.0401609523
 20
35.726903095
 30
0.0
 10
17.1443904528
 20
35.9883553681
 30
0.0
 10
17.1883734805
 20
36.1259955169
 30
0.0
  0
SPLINE
  5
27E
100
AcDbEntity
  8
0
100
AcDbSpline
 62
7
  6
BYLAYER
 70
0
 71
3
 72
24
 73
20
 74
0
 42
0.0000001
 43
0.0000001
 44
0.0000000001
 40
0.0
 40
0.0
 40
0.0
 40
0.0
 40
0.0166608205
 40
0.03373782
 40
0.0706415162
 40
0.0911649729
 40
0.1133061816
 40
0.1628088713
 40
0.2193673583
 40
0.2824284818
 40
0.3509281846
 40
0.4235126408
 40
0.4987395579
 40
0.5752032175
 40
0.6516245729
 40
0.7268826874
 40
0.8000268389
 40
0.8702876866
 40
1.0
 40
1.0
 40
1.0
 40
1.0
 10
23.920986356
 20
40.2321713703
 30
0.0
 10
23.9347567507
 20
40.2236312306
 30
0.0
 10
23.9641777364
 20
40.2086870957
 30
0.0
 10
24.0299891537
 20
40.1880672791
 30
0.0
 10
24.1033392945
 20
40.1830451183
 30
0.0
 10
24.1803857051
 20
40.1907909004
 30
0.0
 10
24.2684157692
 20
40.2084427177
 30
0.0
 10
24.3869916805
 20
40.2484671307
 30
0.0
 10
24.5357929923
 20
40.3191500381
 30
0.0
 10
24.693386941
 20
40.4125113895
 30
0.0
 10
24.8561712367
 20
40.5264692619
 30
0.0
 10
25.0199601622
 20
40.6587482919
 30
0.0
 10
25.1802480782
 20
40.8069268833
 30
0.0
 10
25.332481809
 20
40.9685651855
 30
0.0
 10
25.4722300192
 20
41.1412143683
 30
0.0
 10
25.5952561088
 20
41.3222938725
 30
0.0
 10
25.6976439141
 20
41.5092186741
 30
0.0
 10
25.7990673245
 20
41.7549009942
 30
0.0
 10
25.8396793775
 20
41.9488138111
 30
0.0
 10
25.8437982983
 20
42.0748994538
 30
0.0
  0
SPLINE
  5
27F
100
AcDbEntity
  8
0
100
AcDbSpline
 62
7
  6
BYLAYER
 70
0
 71
3
 72
15
 73
11
 74
0
 42
0.0000001
 43
0.0000001
 44
0.0000000001
 40
0.0
 40
0.0
 40
0.0
 40
0.0
 40
0.1497076559
 40
0.2915449295
 40
0.4253419622
 40
0.5514537721
 40
0.6705971574
 40
0.78392965
 40
0.8930672762
 40
1.0
 40
1.0
 40
1.0
 40
1.0
 10
14.972530134
 20
45.0819637176
 30
0.0
 10
14.8309824426
 20
45.1697357475
 30
0.0
 10
14.5479913633
 20
45.3292655916
 30
0.0
 10
14.1149491962
 20
45.5219192779
 30
0.0
 10
13.6887071357
 20
45.6595185027
 30
0.0
 10
13.2736868528
 20
45.7404277615
 30
0.0
 10
12.8740763086
 20
45.7635603157
 30
0.0
 10
12.4940596761
 20
45.7281768634
 30
0.0
 10
12.1380814679
 20
45.6342340889
 30
0.0
 10
11.9186000315
 20
45.5325709513
 30
0.0
 10
11.8155768962
 20
45.4730832868
 30
0.0
  0
SPLINE
  5
280
100
AcDbEntity
  8
0
100
AcDbSpline
 62
7
  6
BYLAYER
 70
0
 71
3
 72
15
 73
11
 74
0
 42
0.0000001
 43
0.0000001
 44
0.0000000001
 40
0.0
 40
0.0
 40
0.0
 40
0.0
 40
0.1069327238
 40
0.21607035
 40
0.3294028426
 40
0.4485462279
 40
0.5746580378
 40
0.7084550705
 40
0.8502923441
 40
1.0
 40
1.0
 40
1.0
 40
1.0
 10
11.6913129966
 20
44.7085212172
 30
0.0
 10
11.7840338184
 20
44.7620601152
 30
0.0
 10
11.9815671111
 20
44.8535569391
 30
0.0
 10
12.3019474985
 20
44.9381054361
 30
0.0
 10
12.6439624677
 20
44.9699505432
 30
0.0
 10
13.0036119575
 20
44.9491312444
 30
0.0
 10
13.3771302121
 20
44.8763129115
 30
0.0
 10
13.7607480665
 20
44.7524736091
 30
0.0
 10
14.1504860169
 20
44.5790852915
 30
0.0
 10
14.4051779883
 20
44.4355084318
 30
0.0
 10
14.5325709106
 20
44.3565136049
 30
0.0
  0
SPLINE
  5
281
100
AcDbEntity
  8
0
100
AcDbSpline
 62
7
  6
BYLAYER
 70
0
 71
3
 72
19
 73
15
 74
0
 42
0.0000001
 43
0.0000001
 44
0.0000000001
 40
0.0
 40
0.0
 40
0.0
 40
0.0
 40
0.0548695234
 40
0.1123412577
 40
0.1721577772
 40
0.2340607013
 40
0.3627245571
 40
0.4953760603
 40
0.6286715594
 40
0.7592170474
 40
0.8224785061
 40
0.8838952413
 40
0.943171231
 40
1.0
 40
1.0
 40
1.0
 40
1.0
 10
19.0553145183
 20
37.6479070366
 30
0.0
 10
19.0605773712
 20
37.8090099601
 30
0.0
 10
19.0564483393
 20
38.1394704771
 30
0.0
 10
19.0098519755
 20
38.6435186773
 30
0.0
 10
18.9230640007
 20
39.16318509
 30
0.0
 10
18.7527533759
 20
39.8792163688
 30
0.0
 10
18.4441927129
 20
40.779936553
 30
0.0
 10
17.94284455
 20
41.8278395919
 30
0.0
 10
17.3243542062
 20
42.8176599692
 30
0.0
 10
16.7242050024
 20
43.5712771738
 30
0.0
 10
16.2045566865
 20
44.1123437716
 30
0.0
 10
15.8054475531
 20
44.4773099994
 30
0.0
 10
15.3968514782
 20
44.8020317306
 30
0.0
 10
15.1144111122
 20
44.9939850206
 30
0.0
 10
14.972530134
 20
45.0819637176
 30
0.0
  0
SPLINE
  5
282
100
AcDbEntity
  8
0
100
AcDbSpline
 62
7
  6
BYLAYER
 70
0
 71
3
 72
19
 73
15
 74
0
 42
0.0000001
 43
0.0000001
 44
0.0000000001
 40
0.0
 40
0.0
 40
0.0
 40
0.0
 40
0.056828769
 40
0.1161047587
 40
0.1775214939
 40
0.2407829526
 40
0.3713284406
 40
0.5046239397
 40
0.6372754429
 40
0.7659392987
 40
0.8278422228
 40
0.8876587423
 40
0.9451304766
 40
1.0
 40
1.0
 40
1.0
 40
1.0
 10
14.5325709106
 20
44.3565136049
 30
0.0
 10
14.660263791
 20
44.2773327776
 30
0.0
 10
14.9144601203
 20
44.1045748166
 30
0.0
 10
15.2821965877
 20
43.8123252585
 30
0.0
 10
15.6413948078
 20
43.4838556535
 30
0.0
 10
16.1090782921
 20
42.9968957155
 30
0.0
 10
16.6492125756
 20
42.3186402313
 30
0.0
 10
17.205853885
 20
41.4278018917
 30
0.0
 10
17.6570672316
 20
40.4846891568
 30
0.0
 10
17.9347718282
 20
39.674040991
 30
0.0
 10
18.0880513906
 20
39.02961284
 30
0.0
 10
18.1661605679
 20
38.5619130686
 30
0.0
 10
18.2080972953
 20
38.1082696885
 30
0.0
 10
18.2118134241
 20
37.8108552232
 30
0.0
 10
18.2070768564
 20
37.665862592
 30
0.0
  0
SPLINE
  5
283
100
AcDbEntity
  8
0
100
AcDbSpline
 62
7
  6
BYLAYER
 70
0
 71
3
 72
15
 73
11
 74
0
 42
0.0000001
 43
0.0000001
 44
0.0000000001
 40
0.0
 40
0.0
 40
0.0
 40
0.0
 40
0.1143829007
 40
0.2359586069
 40
0.3636348676
 40
0.4954268871
 40
0.62859618
 40
0.7597337672
 40
0.8848924375
 40
1.0
 40
1.0
 40
1.0
 40
1.0
 10
22.1692923525
 20
48.7655504667
 30
0.0
 10
22.0973907396
 20
48.8101357966
 30
0.0
 10
21.9384628511
 20
48.8856488696
 30
0.0
 10
21.6771386022
 20
48.9542671272
 30
0.0
 10
21.3956762113
 20
48.9822730059
 30
0.0
 10
21.1047031808
 20
48.9722152491
 30
0.0
 10
20.8144396895
 20
48.9284487424
 30
0.0
 10
20.5350556059
 20
48.8562514614
 30
0.0
 10
20.2767961005
 20
48.7614060211
 30
0.0
 10
20.1168712532
 20
48.6828183125
 30
0.0
 10
20.0431384776
 20
48.6402489288
 30
0.0
  0
SPLINE
  5
284
100
AcDbEntity
  8
0
100
AcDbSpline
 62
7
  6
BYLAYER
 70
0
 71
3
 72
15
 73
11
 74
0
 42
0.0000001
 43
0.0000001
 44
0.0000000001
 40
0.0
 40
0.0
 40
0.0
 40
0.0
 40
0.1091073258
 40
0.2200854904
 40
0.3346526443
 40
0.4542569054
 40
0.5799905598
 40
0.7126264094
 40
0.8526315978
 40
1.0
 40
1.0
 40
1.0
 40
1.0
 10
17.8155449497
 20
35.0807717406
 30
0.0
 10
17.9092634148
 20
35.1348866983
 30
0.0
 10
18.0897300777
 20
35.2597027582
 30
0.0
 10
18.3299688874
 20
35.4906229378
 30
0.0
 10
18.5387536821
 20
35.7635017198
 30
0.0
 10
18.7142139427
 20
36.0756103099
 30
0.0
 10
18.8551618419
 20
36.4239943894
 30
0.0
 10
18.9605357033
 20
36.8056366302
 30
0.0
 10
19.0295414383
 20
37.2171216281
 30
0.0
 10
19.0505420352
 20
37.5018149859
 30
0.0
 10
19.0553145183
 20
37.6479070366
 30
0.0
  0
SPLINE
  5
285
100
AcDbEntity
  8
0
100
AcDbSpline
 62
7
  6
BYLAYER
 70
0
 71
3
 72
18
 73
14
 74
0
 42
0.0000001
 43
0.0000001
 44
0.0000000001
 40
0.0
 40
0.0
 40
0.0
 40
0.0
 40
0.113706341
 40
0.1740241653
 40
0.2362837232
 40
0.3652389787
 40
0.497703949
 40
0.6304819012
 40
0.7603541098
 40
0.8232743385
 40
0.8843770447
 40
0.9433830886
 40
1.0
 40
1.0
 40
1.0
 40
1.0
 10
23.0179906758
 20
40.6035816832
 30
0.0
 10
23.0179715902
 20
40.8980676731
 30
0.0
 10
22.9792440862
 20
41.3493722162
 30
0.0
 10
22.865106572
 20
41.9508039921
 30
0.0
 10
22.7021461948
 20
42.5819921591
 30
0.0
 10
22.4175802412
 20
43.3727389253
 30
0.0
 10
21.9650870557
 20
44.2901820856
 30
0.0
 10
21.4137077791
 20
45.15461772
 30
0.0
 10
20.8825265146
 20
45.8121373825
 30
0.0
 10
20.4243092855
 20
46.2842542763
 30
0.0
 10
20.0729555489
 20
46.6029829757
 30
0.0
 10
19.713617283
 20
46.8870310943
 30
0.0
 10
19.465494267
 20
47.0553001772
 30
0.0
 10
19.3408770036
 20
47.1325738512
 30
0.0
  0
SPLINE
  5
286
100
AcDbEntity
  8
0
100
AcDbSpline
 62
7
  6
BYLAYER
 70
0
 71
3
 72
14
 73
10
 74
0
 42
0.0000001
 43
0.0000001
 44
0.0000000001
 40
0.0
 40
0.0
 40
0.0
 40
0.0
 40
0.3100021776
 40
0.4484199353
 40
0.5756802083
 40
0.6925703841
 40
0.8006216709
 40
0.902088778
 40
1.0
 40
1.0
 40
1.0
 40
1.0
 10
20.0431384776
 20
48.6402489288
 30
0.0
 10
19.9794919061
 20
48.6035027829
 30
0.0
 10
19.8901641435
 20
48.5449192545
 30
0.0
 10
19.7864947458
 20
48.4559049048
 30
0.0
 10
19.7238339002
 20
48.390076282
 30
0.0
 10
19.673842488
 20
48.3228995911
 30
0.0
 10
19.6369469619
 20
48.2545079588
 30
0.0
 10
19.6136294246
 20
48.1850532468
 30
0.0
 10
19.6073364709
 20
48.1378464068
 30
0.0
 10
19.6065777
 20
48.1146468706
 30
0.0
  0
SPLINE
  5
287
100
AcDbEntity
  8
0
100
AcDbSpline
 62
7
  6
BYLAYER
 70
0
 71
3
 72
25
 73
21
 74
0
 42
0.0000001
 43
0.0000001
 44
0.0000000001
 40
0.0
 40
0.0
 40
0.0
 40
0.0
 40
0.0213316779
 40
0.0430918242
 40
0.0654530266
 40
0.0885633543
 40
0.1374344239
 40
0.1903893467
 40
0.2476368248
 40
0.3090433676
 40
0.3742072563
 40
0.4425227647
 40
0.5132341726
 40
0.5854818526
 40
0.6583434761
 40
0.7308722928
 40
0.802134752
 40
0.8712483966
 40
0.9374226356
 40
1.0
 40
1.0
 40
1.0
 40
1.0
 10
26.9346393047
 20
37.7791847932
 30
0.0
 10
27.0232231203
 20
37.8485222874
 30
0.0
 10
27.1938873729
 20
37.9995206726
 30
0.0
 10
27.4245688648
 20
38.2572259134
 30
0.0
 10
27.6308376653
 20
38.5464648385
 30
0.0
 10
27.8764256343
 20
38.9800221265
 30
0.0
 10
28.1145568245
 20
39.5986047566
 30
0.0
 10
28.2837406842
 20
40.4233623002
 30
0.0
 10
28.3402097508
 20
41.329165905
 30
0.0
 10
28.2834476472
 20
42.2989153493
 30
0.0
 10
28.1148970274
 20
43.3144842584
 30
0.0
 10
27.8378822984
 20
44.3565969194
 30
0.0
 10
27.4577560365
 20
45.4053481816
 30
0.0
 10
26.9818332546
 20
46.4405997582
 30
0.0
 10
26.4192808633
 20
47.4424191678
 30
0.0
 10
25.7809383178
 20
48.3915028393
 30
0.0
 10
25.0791103391
 20
49.2695562597
 30
0.0
 10
24.3272350436
 20
50.0597312803
 30
0.0
 10
23.5398512076
 20
50.7467461438
 30
0.0
 10
22.9839306803
 20
51.1393911889
 30
0.0
 10
22.7034702219
 20
51.3133013636
 30
0.0
  0
SPLINE
  5
288
100
AcDbEntity
  8
0
100
AcDbSpline
 62
7
  6
BYLAYER
 70
0
 71
3
 72
15
 73
11
 74
0
 42
0.0000001
 43
0.0000001
 44
0.0000000001
 40
0.0
 40
0.0
 40
0.0
 40
0.0
 40
0.1069329824
 40
0.216070265
 40
0.3294007518
 40
0.448542998
 40
0.5746547016
 40
0.7084523932
 40
0.850291443
 40
1.0
 40
1.0
 40
1.0
 40
1.0
 10
19.7876530662
 20
49.3829148331
 30
0.0
 10
19.8803741555
 20
49.4364536956
 30
0.0
 10
20.0779074481
 20
49.5279499859
 30
0.0
 10
20.3982852284
 20
49.612499203
 30
0.0
 10
20.7402965048
 20
49.6443455371
 30
0.0
 10
21.0999425222
 20
49.6235259562
 30
0.0
 10
21.4734605034
 20
49.5507105408
 30
0.0
 10
21.8570808968
 20
49.4268716779
 30
0.0
 10
22.246821647
 20
49.253481907
 30
0.0
 10
22.5015162112
 20
49.1099044359
 30
0.0
 10
22.6289098467
 20
49.0309091667
 30
0.0
  0
SPLINE
  5
289
100
AcDbEntity
  8
0
100
AcDbSpline
 62
7
  6
BYLAYER
 70
0
 71
3
 72
18
 73
14
 74
0
 42
0.0000001
 43
0.0000001
 44
0.0000000001
 40
0.0
 40
0.0
 40
0.0
 40
0.0
 40
0.0428385711
 40
0.087431758
 40
0.1352071188
 40
0.187085627
 40
0.2434844443
 40
0.3043799369
 40
0.437794554
 40
0.5819520569
 40
0.7290832404
 40
0.8708783065
 40
1.0
 40
1.0
 40
1.0
 40
1.0
 10
12.3068305446
 20
42.3478971332
 30
0.0
 10
12.2943556352
 20
42.3407016314
 30
0.0
 10
12.2707149385
 20
42.3226159371
 30
0.0
 10
12.2422140543
 20
42.2867041082
 30
0.0
 10
12.2208870885
 20
42.2427806001
 30
0.0
 10
12.2069978432
 20
42.1919324541
 30
0.0
 10
12.2007311183
 20
42.1352068409
 30
0.0
 10
12.2026475056
 20
42.0507479642
 30
0.0
 10
12.225247447
 20
41.9383025421
 30
0.0
 10
12.278562476
 20
41.8051577488
 30
0.0
 10
12.3547184109
 20
41.6802405777
 30
0.0
 10
12.447436404
 20
41.5737619194
 30
0.0
 10
12.5199560086
 20
41.5172098254
 30
0.0
 10
12.5573670311
 20
41.4951951225
 30
0.0
  0
SPLINE
  5
28A
100
AcDbEntity
  8
0
100
AcDbSpline
 62
7
  6
BYLAYER
 70
0
 71
3
 72
15
 73
11
 74
0
 42
0.0000001
 43
0.0000001
 44
0.0000000001
 40
0.0
 40
0.0
 40
0.0
 40
0.0
 40
0.1488737888
 40
0.2900462254
 40
0.4234134609
 40
0.5493773099
 40
0.6686795416
 40
0.7824565328
 40
0.8922669957
 40
1.0
 40
1.0
 40
1.0
 40
1.0
 10
12.7992478327
 20
34.7867863899
 30
0.0
 10
12.9213613457
 20
34.714928084
 30
0.0
 10
13.1652482398
 20
34.584709487
 30
0.0
 10
13.5375557506
 20
34.4288560478
 30
0.0
 10
13.9034412845
 20
34.3191992457
 30
0.0
 10
14.2593361076
 20
34.2569822793
 30
0.0
 10
14.6018664203
 20
34.2429803747
 30
0.0
 10
14.9276649901
 20
34.2777537499
 30
0.0
 10
15.2331637374
 20
34.3612370336
 30
0.0
 10
15.4218622272
 20
34.4493350631
 30
0.0
 10
15.5106567756
 20
34.50060353
 30
0.0
  0
SPLINE
  5
28B
100
AcDbEntity
  8
0
100
AcDbSpline
 62
7
  6
BYLAYER
 70
0
 71
3
 72
13
 73
9
 74
0
 42
0.0000001
 43
0.0000001
 44
0.0000000001
 40
0.0
 40
0.0
 40
0.0
 40
0.0
 40
0.111506197
 40
0.2284471104
 40
0.350118093
 40
0.4758053483
 40
0.7355240186
 40
1.0
 40
1.0
 40
1.0
 40
1.0
 10
12.8646038182
 20
42.5871138539
 30
0.0
 10
12.9759533495
 20
42.5215896666
 30
0.0
 10
13.1977827837
 20
42.3764285216
 30
0.0
 10
13.5178333421
 20
42.1265113985
 30
0.0
 10
13.8299227525
 20
41.8417165191
 30
0.0
 10
14.2348388014
 20
41.4154246041
 30
0.0
 10
14.6967632916
 20
40.8179518706
 30
0.0
 10
15.0064520187
 20
40.2933947956
 30
0.0
 10
15.1454533952
 20
40.0202956941
 30
0.0
  0
SPLINE
  5
28C
100
AcDbEntity
  8
0
100
AcDbSpline
 62
7
  6
BYLAYER
 70
0
 71
3
 72
20
 73
16
 74
0
 42
0.0000001
 43
0.0000001
 44
0.0000000001
 40
0.0
 40
0.0
 40
0.0
 40
0.0
 40
0.1561680909
 40
0.3071109622
 40
0.4497520954
 40
0.5172180023
 40
0.5817824309
 40
0.6433086763
 40
0.7017502452
 40
0.7571652037
 40
0.8097369004
 40
0.8597803716
 40
0.9077573156
 40
0.9542619447
 40
1.0
 40
1.0
 40
1.0
 40
1.0
 10
15.1454533952
 20
40.0202956941
 30
0.0
 10
15.2628045953
 20
39.7897331767
 30
0.0
 10
15.4698066938
 20
39.3236751907
 30
0.0
 10
15.6952447568
 20
38.6119592303
 30
0.0
 10
15.8057740088
 20
38.0221890888
 30
0.0
 10
15.8415654095
 20
37.5682123805
 30
0.0
 10
15.842318204
 20
37.2472186173
 30
0.0
 10
15.8174816616
 20
36.9421408726
 30
0.0
 10
15.7672081401
 20
36.6555166577
 30
0.0
 10
15.6918195756
 20
36.3897589518
 30
0.0
 10
15.5918796955
 20
36.1471049898
 30
0.0
 10
15.4680326821
 20
35.9296993557
 30
0.0
 10
15.3212362161
 20
35.7394784903
 30
0.0
 10
15.1526616889
 20
35.5783794453
 30
0.0
 10
15.0262789681
 20
35.4911161504
 30
0.0
 10
14.9606576626
 20
35.4532356741
 30
0.0
  0
SPLINE
  5
28D
100
AcDbEntity
  8
0
100
AcDbSpline
 62
7
  6
BYLAYER
 70
0
 71
3
 72
18
 73
14
 74
0
 42
0.0000001
 43
0.0000001
 44
0.0000000001
 40
0.0
 40
0.0
 40
0.0
 40
0.0
 40
0.0428385711
 40
0.087431758
 40
0.1352071188
 40
0.187085627
 40
0.2434844443
 40
0.3043799369
 40
0.437794554
 40
0.5819520569
 40
0.7290832404
 40
0.8708783065
 40
1.0
 40
1.0
 40
1.0
 40
1.0
 10
12.2823758159
 20
39.4291913642
 30
0.0
 10
12.2699009065
 20
39.4219958624
 30
0.0
 10
12.2462602098
 20
39.4039101682
 30
0.0
 10
12.2177593256
 20
39.3679983393
 30
0.0
 10
12.1964323598
 20
39.3240748312
 30
0.0
 10
12.1825431145
 20
39.2732266852
 30
0.0
 10
12.1762763896
 20
39.216501072
 30
0.0
 10
12.1781927769
 20
39.1320421953
 30
0.0
 10
12.2007927183
 20
39.0195967732
 30
0.0
 10
12.2541077473
 20
38.8864519798
 30
0.0
 10
12.3302636823
 20
38.7615348087
 30
0.0
 10
12.4229816753
 20
38.6550561505
 30
0.0
 10
12.4955012799
 20
38.5985040565
 30
0.0
 10
12.5329123025
 20
38.5764893536
 30
0.0
  0
SPLINE
  5
28E
100
AcDbEntity
  8
0
100
AcDbSpline
 62
7
  6
BYLAYER
 70
0
 71
3
 72
23
 73
19
 74
0
 42
0.0000001
 43
0.0000001
 44
0.0000000001
 40
0.0
 40
0.0
 40
0.0
 40
0.0
 40
0.0571414334
 40
0.1170661396
 40
0.1794201837
 40
0.2438344384
 40
0.3098583287
 40
0.3770038876
 40
0.4447588555
 40
0.5125917644
 40
0.5799711561
 40
0.6463768715
 40
0.7113114767
 40
0.7743158784
 40
0.8349822794
 40
0.8929696987
 40
0.9480246493
 40
1.0
 40
1.0
 40
1.0
 40
1.0
 10
13.579196362
 20
43.8891455296
 30
0.0
 10
13.719604718
 20
43.806521532
 30
0.0
 10
13.9993103252
 20
43.6234628454
 30
0.0
 10
14.4028246243
 20
43.3082317768
 30
0.0
 10
14.7962539792
 20
42.9489827659
 30
0.0
 10
15.1749750924
 20
42.5500050089
 30
0.0
 10
15.5346297526
 20
42.1158994905
 30
0.0
 10
15.8710182177
 20
41.6517365425
 30
0.0
 10
16.1802119039
 20
41.1629296121
 30
0.0
 10
16.4585952459
 20
40.6551841311
 30
0.0
 10
16.7029299646
 20
40.1344427365
 30
0.0
 10
16.9103527632
 20
39.6067793356
 30
0.0
 10
17.0784341048
 20
39.078344874
 30
0.0
 10
17.2052322127
 20
38.5552949073
 30
0.0
 10
17.2892588759
 20
38.0437054331
 30
0.0
 10
17.3294938413
 20
37.54946637
 30
0.0
 10
17.3254587792
 20
37.078354235
 30
0.0
 10
17.2922387186
 20
36.7743157643
 30
0.0
 10
17.2675882889
 20
36.6281945401
 30
0.0
  0
SPLINE
  5
28F
100
AcDbEntity
  8
0
100
AcDbSpline
 62
7
  6
BYLAYER
 70
0
 71
3
 72
14
 73
10
 74
0
 42
0.0000001
 43
0.0000001
 44
0.0000000001
 40
0.0
 40
0.0
 40
0.0
 40
0.0
 40
0.2784868279
 40
0.4090125633
 40
0.5342805115
 40
0.6550094896
 40
0.7721228034
 40
0.8867100994
 40
1.0
 40
1.0
 40
1.0
 40
1.0
 10
17.2675882889
 20
36.6281945401
 30
0.0
 10
17.2354598423
 20
36.4377456108
 30
0.0
 10
17.1668140876
 20
36.1605121526
 30
0.0
 10
17.0264943371
 20
35.8170360773
 30
0.0
 10
16.9031056017
 20
35.5862986499
 30
0.0
 10
16.7599268968
 20
35.3784552097
 30
0.0
 10
16.5977826737
 20
35.1947150302
 30
0.0
 10
16.4175789652
 20
35.0363595349
 30
0.0
 10
16.285803568
 20
34.9481344983
 30
0.0
 10
16.2177606504
 20
34.9088476196
 30
0.0
  0
SPLINE
  5
290
100
AcDbEntity
  8
0
100
AcDbSpline
 62
7
  6
BYLAYER
 70
0
 71
3
 72
15
 73
11
 74
0
 42
0.0000001
 43
0.0000001
 44
0.0000000001
 40
0.0
 40
0.0
 40
0.0
 40
0.0
 40
0.1158931956
 40
0.2414798232
 40
0.37359032
 40
0.5085104425
 40
0.6422214309
 40
0.7708364564
 40
0.890933224
 40
1.0
 40
1.0
 40
1.0
 40
1.0
 10
17.2668182086
 20
36.6565964287
 30
0.0
 10
17.3111683766
 20
36.6822018573
 30
0.0
 10
17.3986545717
 20
36.7442871104
 30
0.0
 10
17.5181290736
 20
36.8588873451
 30
0.0
 10
17.6270383452
 20
36.9945261221
 30
0.0
 10
17.7206880188
 20
37.1453092237
 30
0.0
 10
17.7950523377
 20
37.3047879251
 30
0.0
 10
17.8469441069
 20
37.4661345044
 30
0.0
 10
17.8741387306
 20
37.6224091474
 30
0.0
 10
17.8749980183
 20
37.7243629836
 30
0.0
 10
17.8702254897
 20
37.7723207151
 30
0.0
  0
SPLINE
  5
291
100
AcDbEntity
  8
0
100
AcDbSpline
 62
7
  6
BYLAYER
 70
0
 71
3
 72
11
 73
7
 74
0
 42
0.0000001
 43
0.0000001
 44
0.0000000001
 40
0.0
 40
0.0
 40
0.0
 40
0.0
 40
0.2831110998
 40
0.5400729446
 40
0.7760024073
 40
1.0
 40
1.0
 40
1.0
 40
1.0
 10
17.8702254897
 20
37.7723207151
 30
0.0
 10
17.8668402408
 20
37.8063380827
 30
0.0
 10
17.8553616885
 20
37.8709344663
 30
0.0
 10
17.8210301825
 20
37.9588926298
 30
0.0
 10
17.7708893438
 20
38.03060127
 30
0.0
 10
17.7269973358
 20
38.0660979021
 30
0.0
 10
17.7036888456
 20
38.0798194646
 30
0.0
  0
SPLINE
  5
292
100
AcDbEntity
  8
0
100
AcDbSpline
 62
7
  6
BYLAYER
 70
0
 71
3
 72
18
 73
14
 74
0
 42
0.0000001
 43
0.0000001
 44
0.0000000001
 40
0.0
 40
0.0
 40
0.0
 40
0.0
 40
0.0428385711
 40
0.087431758
 40
0.1352071188
 40
0.187085627
 40
0.2434844443
 40
0.3043799369
 40
0.437794554
 40
0.5819520569
 40
0.7290832404
 40
0.8708783065
 40
1.0
 40
1.0
 40
1.0
 40
1.0
 10
14.8222686655
 20
37.934578745
 30
0.0
 10
14.8097937561
 20
37.9273832432
 30
0.0
 10
14.7861530594
 20
37.9092975489
 30
0.0
 10
14.7576521752
 20
37.8733857201
 30
0.0
 10
14.7363252094
 20
37.8294622119
 30
0.0
 10
14.7224359641
 20
37.7786140659
 30
0.0
 10
14.7161692392
 20
37.7218884528
 30
0.0
 10
14.7180856265
 20
37.637429576
 30
0.0
 10
14.7406855679
 20
37.524984154
 30
0.0
 10
14.7940005969
 20
37.3918393606
 30
0.0
 10
14.8701565318
 20
37.2669221895
 30
0.0
 10
14.9628745249
 20
37.1604435312
 30
0.0
 10
15.0353941295
 20
37.1038914372
 30
0.0
 10
15.0728051521
 20
37.0818767344
 30
0.0
  0
SPLINE
  5
293
100
AcDbEntity
  8
0
100
AcDbSpline
 62
7
  6
BYLAYER
 70
0
 71
3
 72
11
 73
7
 74
0
 42
0.0000001
 43
0.0000001
 44
0.0000000001
 40
0.0
 40
0.0
 40
0.0
 40
0.0
 40
0.2737046605
 40
0.5280951476
 40
0.7679934721
 40
1.0
 40
1.0
 40
1.0
 40
1.0
 10
17.2239131104
 20
38.2296200981
 30
0.0
 10
17.24822082
 20
38.2360698122
 30
0.0
 10
17.2961414336
 20
38.2451366458
 30
0.0
 10
17.3671170828
 20
38.245917364
 30
0.0
 10
17.4331131091
 20
38.2331389334
 30
0.0
 10
17.473195162
 20
38.2154589685
 30
0.0
 10
17.4915658464
 20
38.2046445011
 30
0.0
  0
SPLINE
  5
294
100
AcDbEntity
  8
0
100
AcDbSpline
 62
7
  6
BYLAYER
 70
0
 71
3
 72
18
 73
14
 74
0
 42
0.0000001
 43
0.0000001
 44
0.0000000001
 40
0.0
 40
0.0
 40
0.0
 40
0.0
 40
0.128189881
 40
0.2695028457
 40
0.4166086348
 40
0.5610585752
 40
0.6949116401
 40
0.756025105
 40
0.8126107396
 40
0.864631176
 40
0.9125009808
 40
0.9571404069
 40
1.0
 40
1.0
 40
1.0
 40
1.0
 10
12.6297045938
 20
42.3190220112
 30
0.0
 10
12.6292926969
 20
42.2698615349
 30
0.0
 10
12.6423928025
 20
42.1662735006
 30
0.0
 10
12.6931152644
 20
42.0139649798
 30
0.0
 10
12.7719614724
 20
41.8669407631
 30
0.0
 10
12.8724405182
 20
41.7374573988
 30
0.0
 10
12.9704118437
 20
41.6501748991
 30
0.0
 10
13.0527468605
 20
41.5994601885
 30
0.0
 10
13.1124189819
 20
41.5728961321
 30
0.0
 10
13.1706574311
 20
41.5572755493
 30
0.0
 10
13.2263126906
 20
41.5530446834
 30
0.0
 10
13.2781390142
 20
41.5605766775
 30
0.0
 10
13.3095377121
 20
41.5735901652
 30
0.0
 10
13.323770936
 20
41.58181173
 30
0.0
  0
SPLINE
  5
295
100
AcDbEntity
  8
0
100
AcDbSpline
 62
7
  6
BYLAYER
 70
0
 71
3
 72
11
 73
7
 74
0
 42
0.0000001
 43
0.0000001
 44
0.0000000001
 40
0.0
 40
0.0
 40
0.0
 40
0.0
 40
0.290194939
 40
0.5498619281
 40
0.7827632549
 40
1.0
 40
1.0
 40
1.0
 40
1.0
 10
15.0728051521
 20
37.0818767344
 30
0.0
 10
15.095357462
 20
37.068605715
 30
0.0
 10
15.1402547785
 20
37.0468064509
 30
0.0
 10
15.2093507407
 20
37.0295650582
 30
0.0
 10
15.2742396964
 20
37.0308235339
 30
0.0
 10
15.3132902503
 20
37.0449221405
 30
0.0
 10
15.3302584804
 20
37.0547093803
 30
0.0
  0
SPLINE
  5
296
100
AcDbEntity
  8
0
100
AcDbSpline
 62
7
  6
BYLAYER
 70
0
 71
3
 72
11
 73
7
 74
0
 42
0.0000001
 43
0.0000001
 44
0.0000000001
 40
0.0
 40
0.0
 40
0.0
 40
0.0
 40
0.290194939
 40
0.5498619281
 40
0.7827632549
 40
1.0
 40
1.0
 40
1.0
 40
1.0
 10
12.5329123025
 20
38.5764893536
 30
0.0
 10
12.5554646125
 20
38.5632183343
 30
0.0
 10
12.6003619289
 20
38.5414190701
 30
0.0
 10
12.6694578911
 20
38.5241776775
 30
0.0
 10
12.7343468469
 20
38.5254361532
 30
0.0
 10
12.7733974008
 20
38.5395347598
 30
0.0
 10
12.7903656308
 20
38.5493219996
 30
0.0
  0
SPLINE
  5
297
100
AcDbEntity
  8
0
100
AcDbSpline
 62
7
  6
BYLAYER
 70
0
 71
3
 72
11
 73
7
 74
0
 42
0.0000001
 43
0.0000001
 44
0.0000000001
 40
0.0
 40
0.0
 40
0.0
 40
0.0
 40
0.290194939
 40
0.5498619281
 40
0.7827632549
 40
1.0
 40
1.0
 40
1.0
 40
1.0
 10
12.5573670311
 20
41.4951951225
 30
0.0
 10
12.5799193411
 20
41.4819241032
 30
0.0
 10
12.6248166576
 20
41.460124839
 30
0.0
 10
12.6939126198
 20
41.4428834464
 30
0.0
 10
12.7588015755
 20
41.4441419221
 30
0.0
 10
12.7978521294
 20
41.4582405287
 30
0.0
 10
12.8148203595
 20
41.4680277685
 30
0.0
  0
SPLINE
  5
298
100
AcDbEntity
  8
0
100
AcDbSpline
 62
7
  6
BYLAYER
 70
0
 71
3
 72
9
 73
5
 74
0
 42
0.0000001
 43
0.0000001
 44
0.0000000001
 40
0.0
 40
0.0
 40
0.0
 40
0.0
 40
0.2565417431
 40
1.0
 40
1.0
 40
1.0
 40
1.0
 10
15.0972598807
 20
40.0005825033
 30
0.0
 10
15.1013912848
 20
39.9981513579
 30
0.0
 10
15.1176361649
 20
39.9889173542
 30
0.0
 10
15.1344498854
 20
39.9806721515
 30
0.0
 10
15.1472284436
 20
39.9752228166
 30
0.0
  0
SPLINE
  5
299
100
AcDbEntity
  8
0
100
AcDbSpline
 62
7
  6
BYLAYER
 70
0
 71
3
 72
15
 73
11
 74
0
 42
0.0000001
 43
0.0000001
 44
0.0000000001
 40
0.0
 40
0.0
 40
0.0
 40
0.0
 40
0.1109432325
 40
0.2320957849
 40
0.3609514147
 40
0.494266716
 40
0.6283925663
 40
0.759575142
 40
0.8844753432
 40
1.0
 40
1.0
 40
1.0
 40
1.0
 10
14.7426153347
 20
40.6525640012
 30
0.0
 10
14.7405991737
 20
40.6240123799
 30
0.0
 10
14.7423395825
 20
40.563798089
 30
0.0
 10
14.7594768381
 20
40.4719730548
 30
0.0
 10
14.7904820513
 20
40.3777766425
 30
0.0
 10
14.8341128916
 20
40.2850469187
 30
0.0
 10
14.8885979487
 20
40.1975470512
 30
0.0
 10
14.9517291946
 20
40.1187965317
 30
0.0
 10
15.0209391199
 20
40.0520720849
 30
0.0
 10
15.0715726573
 20
40.0156982781
 30
0.0
 10
15.0972598807
 20
40.0005825033
 30
0.0
  0
SPLINE
  5
29A
100
AcDbEntity
  8
0
100
AcDbSpline
 62
7
  6
BYLAYER
 70
0
 71
3
 72
15
 73
11
 74
0
 42
0.0000001
 43
0.0000001
 44
0.0000000001
 40
0.0
 40
0.0
 40
0.0
 40
0.0
 40
0.1077312667
 40
0.2175399154
 40
0.3313159617
 40
0.4506189952
 40
0.5765792707
 40
0.7099496913
 40
0.8511332674
 40
1.0
 40
1.0
 40
1.0
 40
1.0
 10
10.7106826949
 20
42.8144520917
 30
0.0
 10
10.7812230475
 20
42.8551721313
 30
0.0
 10
10.9311106555
 20
42.925177065
 30
0.0
 10
11.1738003543
 20
42.9914737272
 30
0.0
 10
11.4326076598
 20
43.0191135522
 30
0.0
 10
11.7047089722
 20
43.007983254
 30
0.0
 10
11.9874295543
 20
42.9585645157
 30
0.0
 10
12.2780956192
 20
42.8714548658
 30
0.0
 10
12.5738551034
 20
42.7476353998
 30
0.0
 10
12.7676023954
 20
42.6441948251
 30
0.0
 10
12.8646038182
 20
42.5871138539
 30
0.0
  0
SPLINE
  5
29B
100
AcDbEntity
  8
0
100
AcDbSpline
 62
7
  6
BYLAYER
 70
0
 71
3
 72
25
 73
21
 74
0
 42
0.0000001
 43
0.0000001
 44
0.0000000001
 40
0.0
 40
0.0
 40
0.0
 40
0.0
 40
0.0213293397
 40
0.042885015
 40
0.064882275
 40
0.0875136604
 40
0.1352447733
 40
0.1870761278
 40
0.2434220151
 40
0.3042632084
 40
0.3692391015
 40
0.4377304987
 40
0.508928797
 40
0.5818941425
 40
0.6556070207
 40
0.7290138767
 40
0.8010756381
 40
0.8708128878
 40
0.9373589385
 40
1.0
 40
1.0
 40
1.0
 40
1.0
 10
10.160683582
 20
43.7670842357
 30
0.0
 10
10.0952232379
 20
43.7292885429
 30
0.0
 10
9.9683209884
 20
43.6447882595
 30
0.0
 10
9.7940491673
 20
43.4939313521
 30
0.0
 10
9.6363997821
 20
43.3194891279
 30
0.0
 10
9.4461569914
 20
43.0523703253
 30
0.0
 10
9.255405674
 20
42.6599163217
 30
0.0
 10
9.109329952
 20
42.1244341373
 30
0.0
 10
9.0432411705
 20
41.527012671
 30
0.0
 10
9.0579020696
 20
40.8799992848
 30
0.0
 10
9.1526188224
 20
40.1965879122
 30
0.0
 10
9.3252939185
 20
39.4909566995
 30
0.0
 10
9.5722532416
 20
38.7778675498
 30
0.0
 10
9.8882787642
 20
38.0723367607
 30
0.0
 10
10.2666901073
 20
37.389278651
 30
0.0
 10
10.6994744912
 20
36.743142115
 30
0.0
 10
11.1774792278
 20
36.1476124219
 30
0.0
 10
11.6906544497
 20
35.6152102211
 30
0.0
 10
12.2281252762
 20
35.1572592806
 30
0.0
 10
12.6079245012
 20
34.8993715589
 30
0.0
 10
12.7992478327
 20
34.7867863899
 30
0.0
  0
SPLINE
  5
29C
100
AcDbEntity
  8
0
100
AcDbSpline
 62
7
  6
BYLAYER
 70
0
 71
3
 72
15
 73
11
 74
0
 42
0.0000001
 43
0.0000001
 44
0.0000000001
 40
0.0
 40
0.0
 40
0.0
 40
0.0
 40
0.1077316334
 40
0.2175409252
 40
0.3313169684
 40
0.4506186608
 40
0.5765820868
 40
0.7099499082
 40
0.8511248626
 40
1.0
 40
1.0
 40
1.0
 40
1.0
 10
10.8677873816
 20
44.1753284538
 30
0.0
 10
10.9565807698
 20
44.226596318
 30
0.0
 10
11.1452768302
 20
44.3146938034
 30
0.0
 10
11.4507722729
 20
44.3981763871
 30
0.0
 10
11.7765680798
 20
44.4329513484
 30
0.0
 10
12.1190966439
 20
44.418950529
 30
0.0
 10
12.4749913486
 20
44.3567353023
 30
0.0
 10
12.8408799357
 20
44.247079542
 30
0.0
 10
13.2131910989
 20
44.0912238283
 30
0.0
 10
13.4570817445
 20
43.9610044856
 30
0.0
 10
13.579196362
 20
43.8891455296
 30
0.0
  0
SPLINE
  5
29D
100
AcDbEntity
  8
0
100
AcDbSpline
 62
7
  6
BYLAYER
 70
0
 71
3
 72
18
 73
14
 74
0
 42
0.0000001
 43
0.0000001
 44
0.0000000001
 40
0.0
 40
0.0
 40
0.0
 40
0.0
 40
0.0428385711
 40
0.087431758
 40
0.1352071188
 40
0.187085627
 40
0.2434844443
 40
0.3043799369
 40
0.437794554
 40
0.5819520569
 40
0.7290832404
 40
0.8708783065
 40
1.0
 40
1.0
 40
1.0
 40
1.0
 10
12.7903656308
 20
38.5493219996
 30
0.0
 10
12.8028405402
 20
38.5565175014
 30
0.0
 10
12.8264812369
 20
38.5746031956
 30
0.0
 10
12.8549821211
 20
38.6105150245
 30
0.0
 10
12.8763090869
 20
38.6544385327
 30
0.0
 10
12.8901983322
 20
38.7052866786
 30
0.0
 10
12.8964650571
 20
38.7620122918
 30
0.0
 10
12.8945486698
 20
38.8464711685
 30
0.0
 10
12.8719487284
 20
38.9589165906
 30
0.0
 10
12.8186336994
 20
39.092061384
 30
0.0
 10
12.7424777645
 20
39.2169785551
 30
0.0
 10
12.6497597714
 20
39.3234572133
 30
0.0
 10
12.5772401668
 20
39.3800093074
 30
0.0
 10
12.5398291443
 20
39.4020240102
 30
0.0
  0
SPLINE
  5
29E
100
AcDbEntity
  8
0
100
AcDbSpline
 62
7
  6
BYLAYER
 70
0
 71
3
 72
11
 73
7
 74
0
 42
0.0000001
 43
0.0000001
 44
0.0000000001
 40
0.0
 40
0.0
 40
0.0
 40
0.0
 40
0.218316557
 40
0.4516750006
 40
0.7108679509
 40
1.0
 40
1.0
 40
1.0
 40
1.0
 10
13.323770936
 20
41.58181173
 30
0.0
 10
13.3424998627
 20
41.5926301565
 30
0.0
 10
13.3775726963
 20
41.6219677755
 30
0.0
 10
13.4151621626
 20
41.6826440605
 30
0.0
 10
13.437809444
 20
41.7574144728
 30
0.0
 10
13.4426030934
 20
41.8118828783
 30
0.0
 10
13.4428430884
 20
41.8405266072
 30
0.0
  0
SPLINE
  5
29F
100
AcDbEntity
  8
0
100
AcDbSpline
 62
7
  6
BYLAYER
 70
0
 71
3
 72
11
 73
7
 74
0
 42
0.0000001
 43
0.0000001
 44
0.0000000001
 40
0.0
 40
0.0
 40
0.0
 40
0.0
 40
0.290194939
 40
0.5498619281
 40
0.7827632549
 40
1.0
 40
1.0
 40
1.0
 40
1.0
 10
15.0797219938
 20
37.907411391
 30
0.0
 10
15.0571696839
 20
37.9206824103
 30
0.0
 10
15.0122723674
 20
37.9424816744
 30
0.0
 10
14.9431764052
 20
37.9597230671
 30
0.0
 10
14.8782874495
 20
37.9584645914
 30
0.0
 10
14.8392368955
 20
37.9443659848
 30
0.0
 10
14.8222686655
 20
37.934578745
 30
0.0
  0
SPLINE
  5
2A0
100
AcDbEntity
  8
0
100
AcDbSpline
 62
7
  6
BYLAYER
 70
0
 71
3
 72
15
 73
11
 74
0
 42
0.0000001
 43
0.0000001
 44
0.0000000001
 40
0.0
 40
0.0
 40
0.0
 40
0.0
 40
0.1488737888
 40
0.2900462254
 40
0.4234134609
 40
0.5493773099
 40
0.6686795416
 40
0.7824565328
 40
0.8922669957
 40
1.0
 40
1.0
 40
1.0
 40
1.0
 10
12.8720925248
 20
43.4809013758
 30
0.0
 10
12.7499790118
 20
43.5527596817
 30
0.0
 10
12.5060921177
 20
43.6829782787
 30
0.0
 10
12.1337846069
 20
43.8388317179
 30
0.0
 10
11.767899073
 20
43.94848852
 30
0.0
 10
11.4120042499
 20
44.0107054864
 30
0.0
 10
11.0694739372
 20
44.024707391
 30
0.0
 10
10.7436753674
 20
43.9899340158
 30
0.0
 10
10.4381766201
 20
43.9064507321
 30
0.0
 10
10.2494781303
 20
43.8183527026
 30
0.0
 10
10.160683582
 20
43.7670842357
 30
0.0
  0
SPLINE
  5
2A1
100
AcDbEntity
  8
0
100
AcDbSpline
 62
7
  6
BYLAYER
 70
0
 71
3
 72
11
 73
7
 74
0
 42
0.0000001
 43
0.0000001
 44
0.0000000001
 40
0.0
 40
0.0
 40
0.0
 40
0.0
 40
0.290194939
 40
0.5498619281
 40
0.7827632549
 40
1.0
 40
1.0
 40
1.0
 40
1.0
 10
12.5398291443
 20
39.4020240102
 30
0.0
 10
12.5172768343
 20
39.4152950295
 30
0.0
 10
12.4723795178
 20
39.4370942937
 30
0.0
 10
12.4032835556
 20
39.4543356863
 30
0.0
 10
12.3383945999
 20
39.4530772107
 30
0.0
 10
12.299344046
 20
39.4389786041
 30
0.0
 10
12.2823758159
 20
39.4291913642
 30
0.0
  0
SPLINE
  5
2A2
100
AcDbEntity
  8
0
100
AcDbSpline
 62
7
  6
BYLAYER
 70
0
 71
3
 72
11
 73
7
 74
0
 42
0.0000001
 43
0.0000001
 44
0.0000000001
 40
0.0
 40
0.0
 40
0.0
 40
0.0
 40
0.290194939
 40
0.5498619281
 40
0.7827632549
 40
1.0
 40
1.0
 40
1.0
 40
1.0
 10
12.5642838729
 20
42.3207297791
 30
0.0
 10
12.5417315629
 20
42.3340007985
 30
0.0
 10
12.4968342465
 20
42.3558000626
 30
0.0
 10
12.4277382843
 20
42.3730414552
 30
0.0
 10
12.3628493285
 20
42.3717829796
 30
0.0
 10
12.3237987746
 20
42.357684373
 30
0.0
 10
12.3068305446
 20
42.3478971332
 30
0.0
  0
SPLINE
  5
2A3
100
AcDbEntity
  8
0
100
AcDbSpline
 62
7
  6
BYLAYER
 70
0
 71
3
 72
25
 73
21
 74
0
 42
0.0000001
 43
0.0000001
 44
0.0000000001
 40
0.0
 40
0.0
 40
0.0
 40
0.0
 40
0.0626390322
 40
0.1291868305
 40
0.1989233192
 40
0.2709860802
 40
0.3443931283
 40
0.4181071539
 40
0.4910737466
 40
0.5622731583
 40
0.6307652344
 40
0.6957411744
 40
0.7565818846
 40
0.8129269497
 40
0.864757339
 40
0.9124875137
 40
0.9351189058
 40
0.9571154973
 40
0.9786710225
 40
1.0
 40
1.0
 40
1.0
 40
1.0
 10
12.8067365394
 20
35.6805739119
 30
0.0
 10
12.6547556939
 20
35.7700077986
 30
0.0
 10
12.3530485212
 20
35.974873558
 30
0.0
 10
11.9260838072
 20
36.3386594443
 30
0.0
 10
11.5184221728
 20
36.7616042463
 30
0.0
 10
11.1386948402
 20
37.2346864905
 30
0.0
 10
10.794891976
 20
37.7479788599
 30
0.0
 10
10.4942797142
 20
38.2906002604
 30
0.0
 10
10.2432271221
 20
38.8510773936
 30
0.0
 10
10.0470421042
 20
39.4175581152
 30
0.0
 10
9.9098715591
 20
39.9781118521
 30
0.0
 10
9.8346347095
 20
40.5210099529
 30
0.0
 10
9.8229944863
 20
41.0349893417
 30
0.0
 10
9.8755024801
 20
41.5095680904
 30
0.0
 10
9.9915428388
 20
41.9349455686
 30
0.0
 10
10.1430882695
 20
42.2466912939
 30
0.0
 10
10.2941889057
 20
42.4589032212
 30
0.0
 10
10.4194430134
 20
42.5974588923
 30
0.0
 10
10.5578671271
 20
42.7173103076
 30
0.0
 10
10.6586795913
 20
42.7844328422
 30
0.0
 10
10.7106826949
 20
42.8144520917
 30
0.0
  0
SPLINE
  5
2A4
100
AcDbEntity
  8
0
100
AcDbSpline
 62
7
  6
BYLAYER
 70
0
 71
3
 72
12
 73
8
 74
0
 42
0.0000001
 43
0.0000001
 44
0.0000000001
 40
0.0
 40
0.0
 40
0.0
 40
0.0
 40
0.1076370447
 40
0.2173961822
 40
0.449899914
 40
0.7093661397
 40
1.0
 40
1.0
 40
1.0
 40
1.0
 10
17.7036888456
 20
38.0798194646
 30
0.0
 10
17.6898713905
 20
38.0879537139
 30
0.0
 10
17.6604619241
 20
38.1019672685
 30
0.0
 10
17.5956820148
 20
38.1201874793
 30
0.0
 10
17.5046122716
 20
38.1227255539
 30
0.0
 10
17.3903690751
 20
38.095010595
 30
0.0
 10
17.3158852255
 20
38.0595512056
 30
0.0
 10
17.2783916643
 20
38.0379044171
 30
0.0
  0
SPLINE
  5
2A5
100
AcDbEntity
  8
0
100
AcDbSpline
 62
7
  6
BYLAYER
 70
0
 71
3
 72
18
 73
14
 74
0
 42
0.0000001
 43
0.0000001
 44
0.0000000001
 40
0.0
 40
0.0
 40
0.0
 40
0.0
 40
0.0428385711
 40
0.087431758
 40
0.1352071188
 40
0.187085627
 40
0.2434844443
 40
0.3043799369
 40
0.437794554
 40
0.5819520569
 40
0.7290832404
 40
0.8708783065
 40
1.0
 40
1.0
 40
1.0
 40
1.0
 10
15.3302584804
 20
37.0547093803
 30
0.0
 10
15.3427333898
 20
37.0619048821
 30
0.0
 10
15.3663740865
 20
37.0799905764
 30
0.0
 10
15.3948749707
 20
37.1159024052
 30
0.0
 10
15.4162019365
 20
37.1598259134
 30
0.0
 10
15.4300911818
 20
37.2106740594
 30
0.0
 10
15.4363579067
 20
37.2673996726
 30
0.0
 10
15.4344415194
 20
37.3518585493
 30
0.0
 10
15.411841578
 20
37.4643039713
 30
0.0
 10
15.358526549
 20
37.5974487647
 30
0.0
 10
15.282370614
 20
37.7223659358
 30
0.0
 10
15.189652621
 20
37.8288445941
 30
0.0
 10
15.1171330164
 20
37.8853966881
 30
0.0
 10
15.0797219938
 20
37.907411391
 30
0.0
  0
SPLINE
  5
2A6
100
AcDbEntity
  8
0
100
AcDbSpline
 62
7
  6
BYLAYER
 70
0
 71
3
 72
14
 73
10
 74
0
 42
0.0000001
 43
0.0000001
 44
0.0000000001
 40
0.0
 40
0.0
 40
0.0
 40
0.0
 40
0.1074644959
 40
0.2178139922
 40
0.3324971778
 40
0.4526668093
 40
0.7121146882
 40
0.8525788752
 40
1.0
 40
1.0
 40
1.0
 40
1.0
 10
14.8212304891
 20
35.3826748017
 30
0.0
 10
14.7519764413
 20
35.3522689502
 30
0.0
 10
14.6064720967
 20
35.3017304404
 30
0.0
 10
14.3755443273
 20
35.2591906123
 30
0.0
 10
14.1320082064
 20
35.2493608844
 30
0.0
 10
13.7847191175
 20
35.2805704187
 30
0.0
 10
13.4286794172
 20
35.3788932465
 30
0.0
 10
13.0748729238
 20
35.5318108229
 30
0.0
 10
12.896159574
 20
35.627952481
 30
0.0
 10
12.8067365394
 20
35.6805739119
 30
0.0
  0
SPLINE
  5
2A7
100
AcDbEntity
  8
0
100
AcDbSpline
 62
7
  6
BYLAYER
 70
0
 71
3
 72
25
 73
21
 74
0
 42
0.0000001
 43
0.0000001
 44
0.0000000001
 40
0.0
 40
0.0
 40
0.0
 40
0.0
 40
0.0213293397
 40
0.042885015
 40
0.064882275
 40
0.0875136604
 40
0.1352447733
 40
0.1870761278
 40
0.2434220151
 40
0.3042632084
 40
0.3692391015
 40
0.4377304987
 40
0.508928797
 40
0.5818941425
 40
0.6556070207
 40
0.7290138767
 40
0.8010756381
 40
0.8708128878
 40
0.9373589385
 40
1.0
 40
1.0
 40
1.0
 40
1.0
 10
15.5106567756
 20
34.50060353
 30
0.0
 10
15.5761171196
 20
34.5383992229
 30
0.0
 10
15.7030193692
 20
34.6228995062
 30
0.0
 10
15.8772911902
 20
34.7737564137
 30
0.0
 10
16.0349405754
 20
34.9481986378
 30
0.0
 10
16.2251833661
 20
35.2153174405
 30
0.0
 10
16.4159346836
 20
35.6077714441
 30
0.0
 10
16.5620104056
 20
36.1432536285
 30
0.0
 10
16.6280991871
 20
36.7406750947
 30
0.0
 10
16.6134382879
 20
37.3876884809
 30
0.0
 10
16.5187215352
 20
38.0710998535
 30
0.0
 10
16.346046439
 20
38.7767310663
 30
0.0
 10
16.0990871159
 20
39.489820216
 30
0.0
 10
15.7830615934
 20
40.195351005
 30
0.0
 10
15.4046502503
 20
40.8784091147
 30
0.0
 10
14.9718658663
 20
41.5245456507
 30
0.0
 10
14.4938611297
 20
42.1200753438
 30
0.0
 10
13.9806859078
 20
42.6524775447
 30
0.0
 10
13.4432150814
 20
43.1104284851
 30
0.0
 10
13.0634158563
 20
43.3683162068
 30
0.0
 10
12.8720925248
 20
43.4809013758
 30
0.0
  0
SPLINE
  5
2A8
100
AcDbEntity
  8
0
100
AcDbSpline
 62
7
  6
BYLAYER
 70
0
 71
3
 72
11
 73
7
 74
0
 42
0.0000001
 43
0.0000001
 44
0.0000000001
 40
0.0
 40
0.0
 40
0.0
 40
0.0
 40
0.2159071269
 40
0.4483106819
 40
0.7082897236
 40
1.0
 40
1.0
 40
1.0
 40
1.0
 10
12.8148203595
 20
41.4680277685
 30
0.0
 10
12.8323158325
 20
41.4781191209
 30
0.0
 10
12.8649720041
 20
41.5060317939
 30
0.0
 10
12.8988633293
 20
41.5640786916
 30
0.0
 10
12.917973777
 20
41.6355916204
 30
0.0
 10
12.9206077276
 20
41.6874801712
 30
0.0
 10
12.9198232314
 20
41.7147571596
 30
0.0
  0
SPLINE
  5
2A9
100
AcDbEntity
  8
0
100
AcDbSpline
 62
7
  6
BYLAYER
 70
0
 71
3
 72
9
 73
5
 74
0
 42
0.0000001
 43
0.0000001
 44
0.0000000001
 40
0.0
 40
0.0
 40
0.0
 40
0.0
 40
0.2555249035
 40
1.0
 40
1.0
 40
1.0
 40
1.0
 10
12.607197155
 20
42.2924873308
 30
0.0
 10
12.6036587045
 20
42.2950630656
 30
0.0
 10
12.5896970009
 20
42.304985142
 30
0.0
 10
12.5752737015
 20
42.3142627597
 30
0.0
 10
12.5642838729
 20
42.3207297791
 30
0.0
  0
SPLINE
  5
2AA
100
AcDbEntity
  8
0
100
AcDbSpline
 62
7
  6
BYLAYER
 70
0
 71
3
 72
15
 73
11
 74
0
 42
0.0000001
 43
0.0000001
 44
0.0000000001
 40
0.0
 40
0.0
 40
0.0
 40
0.0
 40
0.1485640268
 40
0.2895080372
 40
0.4227270216
 40
0.5486380897
 40
0.668000615
 40
0.7819374073
 40
0.8919856503
 40
1.0
 40
1.0
 40
1.0
 40
1.0
 10
69.5454506203
 20
64.5674850932
 30
0.0
 10
69.5454506203
 20
64.3344310247
 30
0.0
 10
69.5266286198
 20
63.8799654213
 30
0.0
 10
69.437216684
 20
63.2218319878
 30
0.0
 10
69.2877637476
 20
62.6109504445
 30
0.0
 10
69.0794827088
 20
62.0533096452
 30
0.0
 10
68.8140715677
 20
61.5541960939
 30
0.0
 10
68.4934321646
 20
61.1187856092
 30
0.0
 10
68.1206729746
 20
60.7518892103
 30
0.0
 10
67.8385274993
 20
60.5550454624
 30
0.0
 10
67.6917905387
 20
60.4703146711
 30
0.0
  0
SPLINE
  5
2AB
100
AcDbEntity
  8
0
100
AcDbSpline
 62
7
  6
BYLAYER
 70
0
 71
3
 72
11
 73
7
 74
0
 42
0.0000001
 43
0.0000001
 44
0.0000000001
 40
0.0
 40
0.0
 40
0.0
 40
0.0
 40
0.2643293145
 40
0.5167430675
 40
0.7606078526
 40
1.0
 40
1.0
 40
1.0
 40
1.0
 10
29.5158296016
 20
39.209316381
 30
0.0
 10
29.7012190938
 20
39.1913834804
 30
0.0
 10
30.0664855531
 20
39.1795090317
 30
0.0
 10
30.6010397008
 20
39.2400311312
 30
0.0
 10
31.1026328333
 20
39.3793680992
 30
0.0
 10
31.4127055741
 20
39.5246878859
 30
0.0
 10
31.558784417
 20
39.609038484
 30
0.0
  0
SPLINE
  5
2AC
100
AcDbEntity
  8
0
100
AcDbSpline
 62
7
  6
BYLAYER
 70
0
 71
3
 72
11
 73
7
 74
0
 42
0.0000001
 43
0.0000001
 44
0.0000000001
 40
0.0
 40
0.0
 40
0.0
 40
0.0
 40
0.2402825771
 40
0.484639469
 40
0.7368213117
 40
1.0
 40
1.0
 40
1.0
 40
1.0
 10
22.6088405803
 20
55.1108886828
 30
0.0
 10
22.4697795524
 20
55.0305903956
 30
0.0
 10
22.2019580366
 20
54.8455351447
 30
0.0
 10
21.8451428135
 20
54.5034162332
 30
0.0
 10
21.5347456285
 20
54.0994025586
 30
0.0
 10
21.364642239
 20
53.7985521278
 30
0.0
 10
21.2877306131
 20
53.6403791751
 30
0.0
  0
SPLINE
  5
2AD
100
AcDbEntity
  8
0
100
AcDbSpline
 62
7
  6
BYLAYER
 70
0
 71
3
 72
25
 73
21
 74
0
 42
0.0000001
 43
0.0000001
 44
0.0000000001
 40
0.0
 40
0.0
 40
0.0
 40
0.0
 40
0.0213324959
 40
0.0428935249
 40
0.0648991225
 40
0.0875445141
 40
0.1353201422
 40
0.1872211796
 40
0.2436585915
 40
0.3046059979
 40
0.3696931954
 40
0.4382899465
 40
0.5095759374
 40
0.5825998212
 40
0.6563313013
 40
0.7297072527
 40
0.8016836619
 40
0.871274639
 40
0.9376182578
 40
1.0
 40
1.0
 40
1.0
 40
1.0
 10
58.7418466218
 20
75.9721650213
 30
0.0
 10
58.8518016319
 20
76.0356566935
 30
0.0
 10
59.0813490729
 20
76.1492600222
 30
0.0
 10
59.4473330757
 20
76.275749477
 30
0.0
 10
59.8337012824
 20
76.3581860736
 30
0.0
 10
60.382481228
 20
76.4096410772
 30
0.0
 10
61.114164729
 20
76.3559478656
 30
0.0
 10
62.0162967215
 20
76.1161584884
 30
0.0
 10
62.9411162929
 20
75.7074712728
 30
0.0
 10
63.8698738806
 20
75.1392484667
 30
0.0
 10
64.7838077421
 20
74.4237502289
 30
0.0
 10
65.6639104481
 20
73.5761300921
 30
0.0
 10
66.4916703269
 20
72.6143582079
 30
0.0
 10
67.2495277939
 20
71.558880439
 30
0.0
 10
67.9213281172
 20
70.4321928092
 30
0.0
 10
68.4927650889
 20
69.2583296446
 30
0.0
 10
68.9516055645
 20
68.0623319649
 30
0.0
 10
69.2881652272
 20
66.8695311584
 30
0.0
 10
69.4951337826
 20
65.7054524776
 30
0.0
 10
69.5454506203
 20
64.9387772837
 30
0.0
 10
69.5454506203
 20
64.5674850932
 30
0.0
  0
SPLINE
  5
2AE
100
AcDbEntity
  8
0
100
AcDbSpline
 62
7
  6
BYLAYER
 70
0
 71
3
 72
25
 73
21
 74
0
 42
0.0000001
 43
0.0000001
 44
0.0000000001
 40
0.0
 40
0.0
 40
0.0
 40
0.0
 40
0.0213326021
 40
0.0428936329
 40
0.0648994121
 40
0.0875443825
 40
0.1353200055
 40
0.1872213248
 40
0.2436590347
 40
0.3046064429
 40
0.3696932886
 40
0.4382895663
 40
0.5095752396
 40
0.5825991799
 40
0.6563309505
 40
0.729706521
 40
0.8016834337
 40
0.8712730925
 40
0.937620033
 40
1.0
 40
1.0
 40
1.0
 40
1.0
 10
22.958845127
 20
54.5046593907
 30
0.0
 10
23.0602046329
 20
54.5631788593
 30
0.0
 10
23.2717824985
 20
54.6679291792
 30
0.0
 10
23.6091526324
 20
54.7845085638
 30
0.0
 10
23.965301411
 20
54.8604842229
 30
0.0
 10
24.4711550113
 20
54.9079521176
 30
0.0
 10
25.1456136107
 20
54.8584469835
 30
0.0
 10
25.9771882286
 20
54.637407489
 30
0.0
 10
26.8296733637
 20
54.2606705877
 30
0.0
 10
27.6857861025
 20
53.7368843492
 30
0.0
 10
28.5282355017
 20
53.0773502291
 30
0.0
 10
29.3395037713
 20
52.2960344809
 30
0.0
 10
30.1025280598
 20
51.4094951766
 30
0.0
 10
30.8011157191
 20
50.4365712514
 30
0.0
 10
31.4203692268
 20
49.3980027033
 30
0.0
 10
31.9471131145
 20
48.3159475886
 30
0.0
 10
32.3700530942
 20
47.2134942924
 30
0.0
 10
32.6803100396
 20
46.1139765833
 30
0.0
 10
32.8710753493
 20
45.0409391447
 30
0.0
 10
32.9174677311
 20
44.3342201352
 30
0.0
 10
32.9174677311
 20
43.9919773586
 30
0.0
  0
SPLINE
  5
2AF
100
AcDbEntity
  8
0
100
AcDbSpline
 62
7
  6
BYLAYER
 70
0
 71
3
 72
9
 73
5
 74
0
 42
0.0000001
 43
0.0000001
 44
0.0000000001
 40
0.0
 40
0.0
 40
0.0
 40
0.0
 40
0.2512926277
 40
1.0
 40
1.0
 40
1.0
 40
1.0
 10
27.1144397147
 20
47.0289908649
 30
0.0
 10
27.0273822256
 20
47.1874138779
 30
0.0
 10
26.6690220678
 20
47.811208039
 30
0.0
 10
26.2635669475
 20
48.4080534213
 30
0.0
 10
25.9351536228
 20
48.8349212612
 30
0.0
  0
SPLINE
  5
2B0
100
AcDbEntity
  8
0
100
AcDbSpline
 62
7
  6
BYLAYER
 70
0
 71
3
 72
9
 73
5
 74
0
 42
0.0000001
 43
0.0000001
 44
0.0000000001
 40
0.0
 40
0.0
 40
0.0
 40
0.0
 40
0.2558522211
 40
1.0
 40
1.0
 40
1.0
 40
1.0
 10
25.3777665327
 20
49.5120356604
 30
0.0
 10
25.2835884677
 20
49.6189148987
 30
0.0
 10
24.9085586818
 20
50.0304553945
 30
0.0
 10
24.5054415965
 20
50.4166836063
 30
0.0
 10
24.1900323551
 20
50.6853489664
 30
0.0
  0
SPLINE
  5
2B1
100
AcDbEntity
  8
0
100
AcDbSpline
 62
7
  6
BYLAYER
 70
0
 71
3
 72
9
 73
5
 74
0
 42
0.0000001
 43
0.0000001
 44
0.0000000001
 40
0.0
 40
0.0
 40
0.0
 40
0.0
 40
0.2543689182
 40
1.0
 40
1.0
 40
1.0
 40
1.0
 10
24.1900323551
 20
50.6853489664
 30
0.0
 10
24.1351556836
 20
50.7320928749
 30
0.0
 10
23.9175461508
 20
50.9136413042
 30
0.0
 10
23.6923497064
 20
51.0861394675
 30
0.0
 10
23.5202680546
 20
51.2087705099
 30
0.0
  0
SPLINE
  5
2B2
100
AcDbEntity
  8
0
100
AcDbSpline
 62
7
  6
BYLAYER
 70
0
 71
3
 72
9
 73
5
 74
0
 42
0.0000001
 43
0.0000001
 44
0.0000000001
 40
0.0
 40
0.0
 40
0.0
 40
0.0
 40
0.2563675856
 40
1.0
 40
1.0
 40
1.0
 40
1.0
 10
23.0177480036
 20
51.5416099719
 30
0.0
 10
22.9546826363
 20
51.5802280192
 30
0.0
 10
22.7066512651
 20
51.7274954139
 30
0.0
 10
22.4503267484
 20
51.8609409114
 30
0.0
 10
22.2555150449
 20
51.9507176793
 30
0.0
  0
SPLINE
  5
2B3
100
AcDbEntity
  8
0
100
AcDbSpline
 62
7
  6
BYLAYER
 70
0
 71
3
 72
9
 73
5
 74
0
 42
0.0000001
 43
0.0000001
 44
0.0000000001
 40
0.0
 40
0.0
 40
0.0
 40
0.0
 40
0.2556865093
 40
1.0
 40
1.0
 40
1.0
 40
1.0
 10
22.2555150449
 20
51.9507176793
 30
0.0
 10
22.2041090087
 20
51.974407569
 30
0.0
 10
22.0018893066
 20
52.0644882123
 30
0.0
 10
21.7949236584
 20
52.1440269508
 30
0.0
 10
21.6386411535
 20
52.1962302871
 30
0.0
  0
SPLINE
  5
2B4
100
AcDbEntity
  8
0
100
AcDbSpline
 62
7
  6
BYLAYER
 70
0
 71
3
 72
10
 73
6
 74
0
 42
0.0000001
 43
0.0000001
 44
0.0000000001
 40
0.0
 40
0.0
 40
0.0
 40
0.0
 40
0.5073844034
 40
0.7546863275
 40
1.0
 40
1.0
 40
1.0
 40
1.0
 10
19.8948204221
 20
52.4253840493
 30
0.0
 10
19.6855357503
 20
52.4047902262
 30
0.0
 10
19.3757208002
 20
52.343751288
 30
0.0
 10
18.9869589901
 20
52.1983838514
 30
0.0
 10
18.8042754331
 20
52.1060317411
 30
0.0
 10
18.7162219833
 20
52.0551946254
 30
0.0
  0
SPLINE
  5
2B5
100
AcDbEntity
  8
0
100
AcDbSpline
 62
7
  6
BYLAYER
 70
0
 71
3
 72
15
 73
11
 74
0
 42
0.0000001
 43
0.0000001
 44
0.0000000001
 40
0.0
 40
0.0
 40
0.0
 40
0.0
 40
0.1080129433
 40
0.2180600905
 40
0.3319961512
 40
0.4513581807
 40
0.5772689294
 40
0.7104887456
 40
0.8514351291
 40
1.0
 40
1.0
 40
1.0
 40
1.0
 10
31.558784417
 20
39.609038484
 30
0.0
 10
31.7055195341
 20
39.6937680358
 30
0.0
 10
31.9876620776
 20
39.8906090062
 30
0.0
 10
32.3604183211
 20
40.2575011203
 30
0.0
 10
32.6810564941
 20
40.6929078074
 30
0.0
 10
32.9464696823
 20
41.1920174919
 30
0.0
 10
33.1547520464
 20
41.7496577968
 30
0.0
 10
33.3042091703
 20
42.360543009
 30
0.0
 10
33.3936204248
 20
43.0186829535
 30
0.0
 10
33.4124445387
 20
43.4731534515
 30
0.0
 10
33.4124445387
 20
43.7062088304
 30
0.0
  0
SPLINE
  5
2B6
100
AcDbEntity
  8
0
100
AcDbSpline
 62
7
  6
BYLAYER
 70
0
 71
3
 72
25
 73
21
 74
0
 42
0.0000001
 43
0.0000001
 44
0.0000000001
 40
0.0
 40
0.0
 40
0.0
 40
0.0
 40
0.062381033
 40
0.1287238041
 40
0.1983147384
 40
0.2702913847
 40
0.3436680339
 40
0.4174005234
 40
0.4904255399
 40
0.5617125365
 40
0.6303099487
 40
0.6953973565
 40
0.7563445941
 40
0.8127815508
 40
0.8646819298
 40
0.9124568115
 40
0.9351018232
 40
0.957107079
 40
0.9786677853
 40
1.0
 40
1.0
 40
1.0
 40
1.0
 10
33.4124445387
 20
43.7062088304
 30
0.0
 10
33.4124445387
 20
44.0774968047
 30
0.0
 10
33.3621301854
 20
44.844162841
 30
0.0
 10
33.1551639026
 20
46.0082322433
 30
0.0
 10
32.8186090964
 20
47.20103036
 30
0.0
 10
32.3597679579
 20
48.3970335716
 30
0.0
 10
31.7883271372
 20
49.5709077689
 30
0.0
 10
31.1165181716
 20
50.697610022
 30
0.0
 10
30.3586487817
 20
51.7531023946
 30
0.0
 10
29.5308757637
 20
52.7148850917
 30
0.0
 10
28.6507614381
 20
53.5625094324
 30
0.0
 10
27.7368199714
 20
54.2780048748
 30
0.0
 10
26.8080606591
 20
54.8462201713
 30
0.0
 10
25.8832451001
 20
55.2548977264
 30
0.0
 10
24.9811221733
 20
55.4946773858
 30
0.0
 10
24.2494489
 20
55.5483659173
 30
0.0
 10
23.7006782205
 20
55.496906585
 30
0.0
 10
23.31431621
 20
55.4144710296
 30
0.0
 10
22.9483380974
 20
55.2879816198
 30
0.0
 10
22.7187941992
 20
55.1743794206
 30
0.0
 10
22.6088405803
 20
55.1108886828
 30
0.0
  0
SPLINE
  5
2B7
100
AcDbEntity
  8
0
100
AcDbSpline
 62
7
  6
BYLAYER
 70
0
 71
3
 72
15
 73
11
 74
0
 42
0.0000001
 43
0.0000001
 44
0.0000000001
 40
0.0
 40
0.0
 40
0.0
 40
0.0
 40
0.1485538781
 40
0.2895074463
 40
0.4227308851
 40
0.5486388784
 40
0.6680000148
 40
0.7819383169
 40
0.8919865897
 40
1.0
 40
1.0
 40
1.0
 40
1.0
 10
32.9174677311
 20
43.9919773586
 30
0.0
 10
32.9174677311
 20
43.777165793
 30
0.0
 10
32.9001051128
 20
43.3582472413
 30
0.0
 10
32.8177075134
 20
42.751579528
 30
0.0
 10
32.6799285967
 20
42.1884643038
 30
0.0
 10
32.4879499944
 20
41.6744329312
 30
0.0
 10
32.2432754029
 20
41.2143731633
 30
0.0
 10
31.9477291186
 20
40.81300802
 30
0.0
 10
31.6041291996
 20
40.4747996177
 30
0.0
 10
31.3440440637
 20
40.293361968
 30
0.0
 10
31.2087798703
 20
40.215267776
 30
0.0
  0
SPLINE
  5
2B8
100
AcDbEntity
  8
0
100
AcDbSpline
 62
7
  6
BYLAYER
 70
0
 71
3
 72
9
 73
5
 74
0
 42
0.0000001
 43
0.0000001
 44
0.0000000001
 40
0.0
 40
0.0
 40
0.0
 40
0.0
 40
0.248226882
 40
1.0
 40
1.0
 40
1.0
 40
1.0
 10
27.1360022107
 20
37.8722807073
 30
0.0
 10
27.1743627843
 20
37.8983166921
 30
0.0
 10
27.326253904
 20
38.007065959
 30
0.0
 10
27.467089112
 20
38.1311536225
 30
0.0
 10
27.5655456504
 20
38.2312595846
 30
0.0
  0
SPLINE
  5
2B9
100
AcDbEntity
  8
0
100
AcDbSpline
 62
7
  6
BYLAYER
 70
0
 71
3
 72
9
 73
5
 74
0
 42
0.0000001
 43
0.0000001
 44
0.0000000001
 40
0.0
 40
0.0
 40
0.0
 40
0.0
 40
0.4871728424
 40
1.0
 40
1.0
 40
1.0
 40
1.0
 10
27.5655456504
 20
38.2312595846
 30
0.0
 10
27.6980068343
 20
38.3659398657
 30
0.0
 10
27.9437020172
 20
38.669086233
 30
0.0
 10
28.1330680541
 20
39.0096118576
 30
0.0
 10
28.2165793155
 20
39.1900775175
 30
0.0
  0
SPLINE
  5
2BA
100
AcDbEntity
  8
0
100
AcDbSpline
 62
7
  6
BYLAYER
 70
0
 71
3
 72
9
 73
5
 74
0
 42
0.0000001
 43
0.0000001
 44
0.0000000001
 40
0.0
 40
0.0
 40
0.0
 40
0.0
 40
0.2440760072
 40
1.0
 40
1.0
 40
1.0
 40
1.0
 10
28.2165793155
 20
39.1900775175
 30
0.0
 10
28.2383840729
 20
39.2371970303
 30
0.0
 10
28.3239650813
 20
39.4319763897
 30
0.0
 10
28.3946653482
 20
39.6332024434
 30
0.0
 10
28.4403878305
 20
39.7873659475
 30
0.0
  0
SPLINE
  5
2BB
100
AcDbEntity
  8
0
100
AcDbSpline
 62
7
  6
BYLAYER
 70
0
 71
3
 72
9
 73
5
 74
0
 42
0.0000001
 43
0.0000001
 44
0.0000000001
 40
0.0
 40
0.0
 40
0.0
 40
0.0
 40
0.2387259393
 40
1.0
 40
1.0
 40
1.0
 40
1.0
 10
28.4403878305
 20
39.7873659475
 30
0.0
 10
28.470303092
 20
39.8882318959
 30
0.0
 10
28.5818982009
 20
40.3147939784
 30
0.0
 10
28.640503628
 20
40.7544101383
 30
0.0
 10
28.6611297327
 20
41.0892758081
 30
0.0
  0
ENDSEC
  0
SECTION
  2
OBJECTS
  0
DICTIONARY
  5
C
100
AcDbDictionary
280
0
281
1
  3
ACAD_GROUP
350
D
  3
ACAD_MLINESTYLE
350
17
  3
ACAD_LAYOUT
350
1A
  3
ACAD_PLOTSETTINGS
350
19
  3
ACAD_PLOTSTYLENAME
350
E
  0
DICTIONARY
  5
D
102
{ACAD_REACTORS
330
C
102
}
100
AcDbDictionary
280
0
281
1
  0
ACDBDICTIONARYWDFLT
  5
E
102
{ACAD_REACTORS
330
C
102
}
100
AcDbDictionary
281
1
  3
Normal
350
F
100
AcDbDictionaryWithDefault
340
F
  0
DICTIONARY
  5
17
102
{ACAD_REACTORS
330
C
102
}
100
AcDbDictionary
280
0
281
1
  3
Standard
350
18
  0
DICTIONARY
  5
19
102
{ACAD_REACTORS
330
C
102
}
100
AcDbDictionary
281
1
  0
DICTIONARY
  5
1A
102
{ACAD_REACTORS
330
C
102
}
100
AcDbDictionary
281
1
  3
Model
350
2BC
  3
Layout1
350
2BD
  0
ACDBPLACEHOLDER
  5
F
102
{ACAD_REACTORS
330
E
102
}
  0
MLINESTYLE
  5
18
102
{ACAD_REACTORS
330
17
102
}
100
AcDbMlineStyle
  2
STANDARD
 70
0
  3

 62
256
 51
90.0
 52
90.0
 71
2
 49
0.5
 62
256
  6
BYLAYER
 49
-0.5
 62
256
  6
BYLAYER
  0
LAYOUT
  5
2BC
102
{ACAD_REACTORS
330
1A
102
}
100
AcDbPlotSettings
  1

  2
none_device
  4

  6

 40
0.0
 41
0.0
 42
0.0
 43
0.0
 44
210.0
 45
297.0
 46
0.0
 47
0.0
 48
0.0
 49
0.0
140
0.0
141
0.0
142
1.0
143
1.0
 70
1024
 72
1
 73
0
 74
0
  7

 75
0
147
1.0
148
0.0
149
0.0
100
AcDbLayout
  1
Model
 70
0
 71
0
 10
0.0
 20
0.0
 11
210.0
 21
297.0
 12
0.0
 22
0.0
 32
0.0
 14
0.0
 24
0.0
 34
0.0
 15
0.0
 25
0.0
 35
0.0
146
0.0
 13
0.0
 23
0.0
 33
0.0
 16
1.0
 26
0.0
 36
0.0
 17
0.0
 27
1.0
 37
0.0
 76
0
330
211
345
0
346
0
  0
LAYOUT
  5
2BD
102
{ACAD_REACTORS
330
1A
102
}
100
AcDbPlotSettings
  1

  2
none_device
  4

  6

 40
0.0
 41
0.0
 42
0.0
 43
0.0
 44
210.0
 45
297.0
 46
0.0
 47
0.0
 48
0.0
 49
0.0
140
0.0
141
0.0
142
1.0
143
1.0
 70
0
 72
1
 73
0
 74
0
  7

 75
0
147
1.0
148
0.0
149
0.0
100
AcDbLayout
  1
Layout1
 70
0
 71
1
 10
0.0
 20
0.0
 11
210.0
 21
297.0
 12
0.0
 22
0.0
 32
0.0
 14
0.0
 24
0.0
 34
0.0
 15
0.0
 25
0.0
 35
0.0
146
0.0
 13
0.0
 23
0.0
 33
0.0
 16
1.0
 26
0.0
 36
0.0
 17
0.0
 27
1.0
 37
0.0
 76
0
330
212
345
0
346
0
  0
ENDSEC
  0
EOF
