999
DXF file: C:\Users\sesa63760\Dev\_Creo\CAD\MCADID0004335_3D-CAD\drw0001_6.dxf
999
Pro/ENGINEER 2019471 by Parametric Technology Corporation
  0
SECTION
  2
HEADER
  9
$ACADVER
  1
AC1024
  9
$DWGCODEPAGE
  3
ANSI_1252
  9
$EXTMAX
 10
87.5409002044
 20
123.8078445748
 30
0.0
  9
$EXTMIN
 10
0.0
 20
0.0
 30
0.0
  9
$LIMMIN
 10
0.0
 20
0.0
  9
$LIMMAX
 10
87.5409002044
 20
123.8078445748
  9
$VIEWCTR
 10
43.7704501022
 20
61.9039222874
  9
$VIEWSIZE
 40
123.8078445748
  9
$CLAYER
  8
0
  9
$LTSCALE
 40
8.070437276
  9
$CELTYPE
  6
BYLAYER
  9
$DIMSCALE
 40
1.0
  9
$DIMASZ
 40
1.0421535739
  9
$DIMEXO
 40
1.0
  9
$DIMDLI
 40
5.5759384816
  9
$DIMEXE
 40
1.0
  9
$DIMCEN
 40
1.3206170088
  9
$DIMLFAC
 40
1.0
  9
$DIMBLK
  1
_FILLED
  9
$DIMALT
 70
0
  9
$DIMALTF
 40
0.0393700787
  9
$DIMTXT
 40
1.4590150034
  9
$DIMTOL
 70
1
  9
$DIMLIM
 70
0
  9
$DIMTFAC
 40
1.0
  9
$DIMTP
 40
0.01
  9
$DIMTM
 40
0.01
  9
$DIMGAP
 40
0.625
  9
$DIMDSEP
 70
46
  9
$AUNITS
 70
0
  9
$PDMODE
 70
3
  9
$PDSIZE
 40
0.3125
  9
$HANDSEED
  5
270
  9
$TILEMODE
 70
1
  9
$MEASUREMENT
 70
1
  9
$INSUNITS
 70
4
  0
ENDSEC
  0
SECTION
  2
CLASSES
  0
CLASS
  1
ACDBDICTIONARYWDFLT
  2
AcDbDictionaryWithDefault
  3
AutoCAD 2000
 90
0
 91
1
280
0
281
0
  0
CLASS
  1
ACDBPLACEHOLDER
  2
AcDbPlaceHolder
  3
AutoCAD 2000
 90
0
 91
1
280
0
281
0
  0
CLASS
  1
LAYOUT
  2
AcDbLayout
  3
AutoCAD 2000
 90
0
 91
0
280
0
281
0
  0
ENDSEC
  0
SECTION
  2
TABLES
  0
TABLE
  2
VPORT
  5
8
100
AcDbSymbolTable
 70
2
  0
VPORT
  5
1F4
100
AcDbSymbolTableRecord
100
AcDbViewportTableRecord
  2
*ACTIVE
 70
0
 10
0.0
 20
0.0
 11
1.0
 21
1.0
 12
43.7704501022
 22
61.9039222874
 13
0.0
 23
0.0
 14
1.0
 24
1.0
 15
0.0
 25
0.0
 16
0.0
 26
0.0
 36
1.0
 17
0.0
 27
0.0
 37
0.0
 40
123.8078445748
 41
0.7070707071
 42
50.0
 43
0.0
 44
0.0
 50
0.0
 51
0.0
 71
0
 72
100
 73
1
 74
1
 75
0
 76
0
 77
0
 78
0
  0
ENDTAB
  0
TABLE
  2
LTYPE
  5
5
100
AcDbSymbolTable
 70
6
  0
LTYPE
  5
14
100
AcDbSymbolTableRecord
100
AcDbLinetypeTableRecord
  2
BYBLOCK
 70
0
  3

 72
65
 73
0
 40
0.0
  0
LTYPE
  5
15
100
AcDbSymbolTableRecord
100
AcDbLinetypeTableRecord
  2
BYLAYER
 70
0
  3

 72
65
 73
0
 40
0.0
  0
LTYPE
  5
16
100
AcDbSymbolTableRecord
100
AcDbLinetypeTableRecord
  2
CONTINUOUS
 70
64
  3
Solid line
 72
65
 73
0
 40
0.0
  0
LTYPE
  5
1F5
100
AcDbSymbolTableRecord
100
AcDbLinetypeTableRecord
  2
CENTER
 70
64
  3
____ _ ____ _ ____ _ ____ _ ____ _ ____ _ ____
 72
65
 73
4
 40
0.6
 49
0.375
 74
0
 49
-0.075
 74
0
 49
0.075
 74
0
 49
-0.075
 74
0
  0
LTYPE
  5
1F6
100
AcDbSymbolTableRecord
100
AcDbLinetypeTableRecord
  2
HIDDEN
 70
64
  3
- - - - - - - - - - - - - - - - - - - -
 72
65
 73
2
 40
0.2
 49
0.1
 74
0
 49
-0.1
 74
0
  0
LTYPE
  5
1F7
100
AcDbSymbolTableRecord
100
AcDbLinetypeTableRecord
  2
PHANTOM
 70
64
  3
_____ _ _ _____ _ _ _____ _ _ _____
 72
65
 73
6
 40
0.8
 49
0.45
 74
0
 49
-0.05
 74
0
 49
0.1
 74
0
 49
-0.05
 74
0
 49
0.1
 74
0
 49
-0.05
 74
0
  0
LTYPE
  5
1F8
100
AcDbSymbolTableRecord
100
AcDbLinetypeTableRecord
  2
DOT
 70
64
  3
. . . . . . . . . . . . . . . . . . . .
 72
65
 73
2
 40
0.2
 49
0.1
 74
0
 49
-0.1
 74
0
  0
LTYPE
  5
1F9
100
AcDbSymbolTableRecord
100
AcDbLinetypeTableRecord
  2
DASHED
 70
64
  3
- - - - - - - - - - - - - - - - - - - -
 72
65
 73
2
 40
0.2
 49
0.1
 74
0
 49
-0.1
 74
0
  0
ENDTAB
  0
TABLE
  2
LAYER
  5
2
100
AcDbSymbolTable
 70
36
  0
LAYER
  5
10
100
AcDbSymbolTableRecord
100
AcDbLayerTableRecord
  2
0
 70
0
 62
7
  6
CONTINUOUS
370
-3
390
F
  0
LAYER
  5
1FA
100
AcDbSymbolTableRecord
100
AcDbLayerTableRecord
  2
DEFAULT_1
 70
0
 62
7
  6
CENTER
370
-3
390
F
  0
LAYER
  5
1FB
100
AcDbSymbolTableRecord
100
AcDbLayerTableRecord
  2
DEFAULT_2
 70
0
 62
7
  6
HIDDEN
370
-3
390
F
  0
LAYER
  5
1FC
100
AcDbSymbolTableRecord
100
AcDbLayerTableRecord
  2
DEFAULT_3
 70
0
 62
7
  6
PHANTOM
370
-3
390
F
  0
LAYER
  5
1FD
100
AcDbSymbolTableRecord
100
AcDbLayerTableRecord
  2
00_COMPONENTS
 70
0
 62
7
  6
CONTINUOUS
370
-3
390
F
  0
LAYER
  5
1FE
100
AcDbSymbolTableRecord
100
AcDbLayerTableRecord
  2
01_1_DEFAULT_DATUMS
 70
0
 62
7
  6
CONTINUOUS
370
-3
390
F
  0
LAYER
  5
1FF
100
AcDbSymbolTableRecord
100
AcDbLayerTableRecord
  2
01_PLANES
 70
0
 62
7
  6
CONTINUOUS
370
-3
390
F
  0
LAYER
  5
200
100
AcDbSymbolTableRecord
100
AcDbLayerTableRecord
  2
02_COORD_SYS
 70
0
 62
7
  6
CONTINUOUS
370
-3
390
F
  0
LAYER
  5
201
100
AcDbSymbolTableRecord
100
AcDbLayerTableRecord
  2
03_AXES
 70
0
 62
7
  6
CONTINUOUS
370
-3
390
F
  0
LAYER
  5
202
100
AcDbSymbolTableRecord
100
AcDbLayerTableRecord
  2
04_POINTS
 70
0
 62
7
  6
CONTINUOUS
370
-3
390
F
  0
LAYER
  5
203
100
AcDbSymbolTableRecord
100
AcDbLayerTableRecord
  2
05_CURVES
 70
0
 62
7
  6
CONTINUOUS
370
-3
390
F
  0
LAYER
  5
204
100
AcDbSymbolTableRecord
100
AcDbLayerTableRecord
  2
06_SURFS
 70
0
 62
7
  6
CONTINUOUS
370
-3
390
F
  0
LAYER
  5
205
100
AcDbSymbolTableRecord
100
AcDbLayerTableRecord
  2
07_COSMETICS
 70
0
 62
7
  6
CONTINUOUS
370
-3
390
F
  0
LAYER
  5
206
100
AcDbSymbolTableRecord
100
AcDbLayerTableRecord
  2
10_NOTES
 70
0
 62
7
  6
CONTINUOUS
370
-3
390
F
  0
LAYER
  5
207
100
AcDbSymbolTableRecord
100
AcDbLayerTableRecord
  2
11_NOTES_PUB
 70
0
 62
7
  6
CONTINUOUS
370
-3
390
F
  0
LAYER
  5
208
100
AcDbSymbolTableRecord
100
AcDbLayerTableRecord
  2
13_REF_GTOL
 70
0
 62
7
  6
CONTINUOUS
370
-3
390
F
  0
LAYER
  5
209
100
AcDbSymbolTableRecord
100
AcDbLayerTableRecord
  2
16_MISC
 70
0
 62
7
  6
CONTINUOUS
370
-3
390
F
  0
LAYER
  5
20A
100
AcDbSymbolTableRecord
100
AcDbLayerTableRecord
  2
17_NO_PRINT
 70
0
 62
7
  6
CONTINUOUS
370
-3
390
F
  0
LAYER
  5
20B
100
AcDbSymbolTableRecord
100
AcDbLayerTableRecord
  2
18_DATUM_CAMS_JOINTS
 70
0
 62
7
  6
CONTINUOUS
370
-3
390
F
  0
LAYER
  5
20C
100
AcDbSymbolTableRecord
100
AcDbLayerTableRecord
  2
19_DATUM_FUNCTIONAL
 70
0
 62
7
  6
CONTINUOUS
370
-3
390
F
  0
LAYER
  5
20D
100
AcDbSymbolTableRecord
100
AcDbLayerTableRecord
  2
20_DATUM_KINEMATIC_SCHEME
 70
0
 62
7
  6
CONTINUOUS
370
-3
390
F
  0
ENDTAB
  0
TABLE
  2
STYLE
  5
3
100
AcDbSymbolTable
 70
1
  0
STYLE
  5
11
100
AcDbSymbolTableRecord
100
AcDbTextStyleTableRecord
  2
STANDARD
 70
0
 40
0.0
 41
1.0
 50
0.0
 71
0
 42
0.2
  3
ARIAL.TTF
  4

  0
STYLE
  5
20E
100
AcDbSymbolTableRecord
100
AcDbTextStyleTableRecord
  2
TEXTSTYLE_1
 70
0
 40
0.0
 41
0.8
 50
0.0
 71
0
 42
0.2
  3
gdt
  4

  0
ENDTAB
  0
TABLE
  2
VIEW
  5
6
100
AcDbSymbolTable
 70
0
  0
ENDTAB
  0
TABLE
  2
UCS
  5
7
100
AcDbSymbolTable
 70
0
  0
ENDTAB
  0
TABLE
  2
APPID
  5
9
100
AcDbSymbolTable
 70
1
  0
APPID
  5
20F
100
AcDbSymbolTableRecord
100
AcDbRegAppTableRecord
  2
ACAD
 70
0
  0
ENDTAB
  0
TABLE
  2
BLOCK_RECORD
  5
1
100
AcDbSymbolTable
 70
0
  0
BLOCK_RECORD
  5
210
100
AcDbSymbolTableRecord
100
AcDbBlockTableRecord
  2
*Model_Space
  0
BLOCK_RECORD
  5
211
100
AcDbSymbolTableRecord
100
AcDbBlockTableRecord
  2
*Paper_Space
  0
BLOCK_RECORD
  5
212
100
AcDbSymbolTableRecord
100
AcDbBlockTableRecord
  2
_FILLED
  0
ENDTAB
  0
TABLE
  2
DIMSTYLE
  5
A
100
AcDbSymbolTable
 70
1
100
AcDbDimStyleTable
 71
0
  0
DIMSTYLE
105
213
100
AcDbSymbolTableRecord
100
AcDbDimStyleTableRecord
  2
STANDARD
 70
0
  3

  4

 40
1.0
 41
1.0421535739
 42
1.0
 43
0.38
 44
1.0
 45
0.0
 46
0.0
 47
0.01
 48
0.01
140
1.4590150034
141
0.09
142
0.0
143
25.4
144
1.0
145
0.0
146
1.0
147
0.625
 71
1
 72
0
 73
0
 74
0
 75
0
 76
0
 77
1
 78
8
 79
2
170
0
171
1
172
0
173
0
174
0
175
0
176
0
177
0
178
0
270
2
179
2
271
2
272
2
273
2
274
2
275
0
280
0
281
0
282
0
283
1
284
8
285
0
286
0
287
3
288
0
340
11
278
46
341
212
342
212
343
212
344
212
  0
ENDTAB
  0
ENDSEC
  0
SECTION
  2
BLOCKS
  0
BLOCK
  5
20
100
AcDbEntity
  8
0
100
AcDbBlockBegin
  2
*Model_Space
 70
0
 10
0.0
 20
0.0
 30
0.0
  3
*Model_Space
  1

  0
ENDBLK
  5
21
100
AcDbEntity
  8
0
100
AcDbBlockEnd
  0
BLOCK
  5
1C
100
AcDbEntity
  8
0
100
AcDbBlockBegin
  2
*Paper_Space
 70
0
 10
0.0
 20
0.0
 30
0.0
  3
*Paper_Space
  1

  0
ENDBLK
  5
1D
100
AcDbEntity
  8
0
100
AcDbBlockEnd
  0
BLOCK
  5
214
100
AcDbEntity
  8
0
100
AcDbBlockBegin
  2
_FILLED
 70
64
 10
0.0
 20
0.0
  3
_FILLED
  1

  0
SOLID
  5
215
100
AcDbEntity
  8
0
  6
BYBLOCK
 62
0
100
AcDbTrace
 10
0.0
 20
0.0
 11
-1.0
 21
0.25
 12
-1.0
 22
-0.25
 13
-1.0
 23
-0.25
  0
ENDBLK
  5
216
100
AcDbEntity
  8
0
  6
BYBLOCK
 62
0
100
AcDbBlockEnd
  0
ENDSEC
  0
SECTION
  2
ENTITIES
  0
LINE
  5
217
100
AcDbEntity
  8
0
100
AcDbLine
 62
7
  6
BYLAYER
 10
55.0305729842
 20
10.2289222874
 11
34.0257231146
 21
10.2289222874
  0
LINE
  5
218
100
AcDbEntity
  8
0
100
AcDbLine
 62
7
  6
BYLAYER
 10
55.188518457
 20
10.7439843011
 11
46.1256770633
 21
10.7439843011
  0
LINE
  5
219
100
AcDbEntity
  8
0
100
AcDbLine
 62
7
  6
BYLAYER
 10
42.9306190355
 20
10.7439843011
 11
33.8677776418
 21
10.7439843011
  0
LINE
  5
21A
100
AcDbEntity
  8
0
100
AcDbLine
 62
7
  6
BYLAYER
 10
34.0257116769
 20
10.2289222874
 11
33.8628595445
 21
10.3917744197
  0
LINE
  5
21B
100
AcDbEntity
  8
0
100
AcDbLine
 62
7
  6
BYLAYER
 10
40.1457595635
 20
21.6074927666
 11
48.9105365353
 21
21.6074927666
  0
LINE
  5
21C
100
AcDbEntity
  8
0
100
AcDbLine
 62
7
  6
BYLAYER
 10
29.3731480494
 20
22.2289222874
 11
29.6751050296
 21
22.2289222874
  0
LINE
  5
21D
100
AcDbEntity
  8
0
100
AcDbLine
 62
7
  6
BYLAYER
 10
38.1442504778
 20
22.2289222874
 11
50.912045621
 21
22.2289222874
  0
LINE
  5
21E
100
AcDbEntity
  8
0
100
AcDbLine
 62
7
  6
BYLAYER
 10
59.3811910692
 20
22.2289222874
 11
59.6831480494
 21
22.2289222874
  0
LINE
  5
21F
100
AcDbEntity
  8
0
100
AcDbLine
 62
7
  6
BYLAYER
 10
29.6751050296
 20
22.2329222874
 11
59.3811910692
 21
22.2329222874
  0
LINE
  5
220
100
AcDbEntity
  8
0
100
AcDbLine
 62
7
  6
BYLAYER
 10
44.9299627193
 20
22.5265520401
 11
44.1263333795
 21
22.5265520401
  0
LINE
  5
221
100
AcDbEntity
  8
0
100
AcDbLine
 62
7
  6
BYLAYER
 10
29.1813309453
 20
109.4238686578
 11
29.2769001229
 21
109.6468634056
  0
LINE
  5
222
100
AcDbEntity
  8
0
100
AcDbLine
 62
7
  6
BYLAYER
 10
44.1263333795
 20
30.6629222874
 11
44.9299627193
 21
30.6629222874
  0
LINE
  5
223
100
AcDbEntity
  8
0
100
AcDbLine
 62
7
  6
BYLAYER
 10
29.9281480494
 20
30.7390691657
 11
59.1281480494
 21
30.7390691657
  0
LINE
  5
224
100
AcDbEntity
  8
0
100
AcDbLine
 62
7
  6
BYLAYER
 10
29.1813309453
 20
30.9366894561
 11
29.9281480494
 21
30.9366894561
  0
LINE
  5
225
100
AcDbEntity
  8
0
100
AcDbLine
 62
7
  6
BYLAYER
 10
59.1281480494
 20
30.9366894561
 11
59.8749651535
 21
30.9366894561
  0
LINE
  5
226
100
AcDbEntity
  8
0
100
AcDbLine
 62
7
  6
BYLAYER
 10
59.4320046096
 20
30.9527985072
 11
59.1281480494
 21
30.9527985072
  0
LINE
  5
227
100
AcDbEntity
  8
0
100
AcDbLine
 62
7
  6
BYLAYER
 10
29.9281480494
 20
30.9527985072
 11
29.6242914892
 21
30.9527985072
  0
LINE
  5
228
100
AcDbEntity
  8
0
100
AcDbLine
 62
7
  6
BYLAYER
 10
29.1813309453
 20
22.7266963717
 11
29.1813309453
 21
109.4238686578
  0
LINE
  5
229
100
AcDbEntity
  8
0
100
AcDbLine
 62
7
  6
BYLAYER
 10
29.3731480494
 20
22.2289222874
 11
29.3731480494
 21
22.3358503248
  0
LINE
  5
22A
100
AcDbEntity
  8
0
100
AcDbLine
 62
7
  6
BYLAYER
 10
29.6242914892
 20
30.9527985072
 11
29.6242914892
 21
106.5542178362
  0
LINE
  5
22B
100
AcDbEntity
  8
0
100
AcDbLine
 62
7
  6
BYLAYER
 10
29.6242914892
 20
106.6808720893
 11
29.6242914892
 21
106.7205331543
  0
LINE
  5
22C
100
AcDbEntity
  8
0
100
AcDbLine
 62
7
  6
BYLAYER
 10
29.9281480494
 20
30.7392225868
 11
29.9281480494
 21
30.9527985072
  0
LINE
  5
22D
100
AcDbEntity
  8
0
100
AcDbLine
 62
7
  6
BYLAYER
 10
29.9281480494
 20
106.5542178362
 11
29.9281480494
 21
106.6808720893
  0
LINE
  5
22E
100
AcDbEntity
  8
0
100
AcDbLine
 62
7
  6
BYLAYER
 10
29.9866900034
 20
22.2329222874
 11
29.9866900034
 21
30.7315185218
  0
LINE
  5
22F
100
AcDbEntity
  8
0
100
AcDbLine
 62
7
  6
BYLAYER
 10
29.9866900034
 20
106.7279693838
 11
29.9866900034
 21
109.7812172595
  0
LINE
  5
230
100
AcDbEntity
  8
0
100
AcDbLine
 62
7
  6
BYLAYER
 10
33.8628575056
 20
10.3916284034
 11
34.0281480494
 21
22.2289222874
  0
LINE
  5
231
100
AcDbEntity
  8
0
100
AcDbLine
 62
7
  6
BYLAYER
 10
44.1263333795
 20
22.5265520401
 11
44.1263333795
 21
30.6629222874
  0
LINE
  5
232
100
AcDbEntity
  8
0
100
AcDbLine
 62
7
  6
BYLAYER
 10
44.1263333795
 20
106.7955261835
 11
44.1263333795
 21
110.674586974
  0
LINE
  5
233
100
AcDbEntity
  8
0
100
AcDbLine
 62
7
  6
BYLAYER
 10
44.9299627193
 20
110.674586974
 11
44.9299627193
 21
106.7955261835
  0
LINE
  5
234
100
AcDbEntity
  8
0
100
AcDbLine
 62
7
  6
BYLAYER
 10
44.9299627193
 20
30.6629222874
 11
44.9299627193
 21
22.5265520401
  0
LINE
  5
235
100
AcDbEntity
  8
0
100
AcDbLine
 62
7
  6
BYLAYER
 10
55.1934385932
 20
10.3916284034
 11
55.0281480494
 21
22.2289222874
  0
LINE
  5
236
100
AcDbEntity
  8
0
100
AcDbLine
 62
7
  6
BYLAYER
 10
59.0696060954
 20
22.2329222874
 11
59.0696060954
 21
30.7315185218
  0
LINE
  5
237
100
AcDbEntity
  8
0
100
AcDbLine
 62
7
  6
BYLAYER
 10
59.0696060954
 20
106.7279693838
 11
59.0696060954
 21
109.7812135206
  0
LINE
  5
238
100
AcDbEntity
  8
0
100
AcDbLine
 62
7
  6
BYLAYER
 10
59.1281480494
 20
106.6808720893
 11
59.1281480494
 21
106.5542178362
  0
LINE
  5
239
100
AcDbEntity
  8
0
100
AcDbLine
 62
7
  6
BYLAYER
 10
59.1281480494
 20
30.9527985072
 11
59.1281480494
 21
30.7392225868
  0
LINE
  5
23A
100
AcDbEntity
  8
0
100
AcDbLine
 62
7
  6
BYLAYER
 10
59.4320046096
 20
106.7205331543
 11
59.4320046096
 21
106.6808720893
  0
LINE
  5
23B
100
AcDbEntity
  8
0
100
AcDbLine
 62
7
  6
BYLAYER
 10
59.4320046096
 20
106.5542178362
 11
59.4320046096
 21
30.9527985072
  0
LINE
  5
23C
100
AcDbEntity
  8
0
100
AcDbLine
 62
7
  6
BYLAYER
 10
59.6831480494
 20
22.3358581853
 11
59.6831480494
 21
22.2289222874
  0
LINE
  5
23D
100
AcDbEntity
  8
0
100
AcDbLine
 62
7
  6
BYLAYER
 10
59.8749651535
 20
22.7266963717
 11
59.8749651535
 21
109.4238686578
  0
LINE
  5
23E
100
AcDbEntity
  8
0
100
AcDbLine
 62
7
  6
BYLAYER
 10
59.7793959759
 20
109.6468634056
 11
59.8749651535
 21
109.4238686578
  0
LINE
  5
23F
100
AcDbEntity
  8
0
100
AcDbLine
 62
7
  6
BYLAYER
 10
55.030584422
 20
10.2289222874
 11
55.1934365543
 21
10.3917744197
  0
LINE
  5
240
100
AcDbEntity
  8
0
100
AcDbLine
 62
7
  6
BYLAYER
 10
29.6242914892
 20
106.5542178362
 11
29.9281480494
 21
106.5542178362
  0
LINE
  5
241
100
AcDbEntity
  8
0
100
AcDbLine
 62
7
  6
BYLAYER
 10
59.1281480494
 20
106.5542178362
 11
59.4320046096
 21
106.5542178362
  0
LINE
  5
242
100
AcDbEntity
  8
0
100
AcDbLine
 62
7
  6
BYLAYER
 10
59.4320046096
 20
106.6808720893
 11
59.1281480494
 21
106.6808720893
  0
LINE
  5
243
100
AcDbEntity
  8
0
100
AcDbLine
 62
7
  6
BYLAYER
 10
29.9281480494
 20
106.6808720893
 11
29.6242914892
 21
106.6808720893
  0
LINE
  5
244
100
AcDbEntity
  8
0
100
AcDbLine
 62
7
  6
BYLAYER
 10
29.6242914892
 20
106.7205331543
 11
59.4320046096
 21
106.7205331543
  0
LINE
  5
245
100
AcDbEntity
  8
0
100
AcDbLine
 62
7
  6
BYLAYER
 10
44.1263333795
 20
106.7955261835
 11
44.9299627193
 21
106.7955261835
  0
LINE
  5
246
100
AcDbEntity
  8
0
100
AcDbLine
 62
7
  6
BYLAYER
 10
44.1263333795
 20
110.674586974
 11
44.9299627193
 21
110.674586974
  0
LINE
  5
247
100
AcDbEntity
  8
0
100
AcDbLine
 62
7
  6
BYLAYER
 10
49.1221325421
 20
110.9804050446
 11
39.9341635567
 21
110.9804050446
  0
LINE
  5
248
100
AcDbEntity
  8
0
100
AcDbLine
 62
7
  6
BYLAYER
 10
42.1511326159
 20
111.0769791721
 11
46.9051634829
 21
111.0769791721
  0
LINE
  5
249
100
AcDbEntity
  8
0
100
AcDbLine
 62
7
  6
BYLAYER
 10
42.4666378524
 20
111.0857242898
 11
46.5896582464
 21
111.0857242898
  0
ARC
  5
24A
100
AcDbEntity
  8
0
100
AcDbCircle
 62
7
  6
BYLAYER
 10
35.9629696766
 20
20.0025326351
 40
90.9971096979
100
AcDbArc
 50
87.500833177
 51
87.9167893193
  0
ARC
  5
24B
100
AcDbEntity
  8
0
100
AcDbCircle
 62
7
  6
BYLAYER
 10
53.092402706
 20
20.0284163861
 40
90.9712094756
100
AcDbArc
 50
92.0832218803
 51
92.4992962398
  0
ARC
  5
24C
100
AcDbEntity
  8
0
100
AcDbCircle
 62
7
  6
BYLAYER
 10
44.5281480494
 20
31.0150718057
 40
80.0971860524
100
AcDbArc
 50
91.7005959602
 51
100.9766705603
  0
ARC
  5
24D
100
AcDbEntity
  8
0
100
AcDbCircle
 62
7
  6
BYLAYER
 10
44.5281480494
 20
31.0150718057
 40
80.0971860524
100
AcDbArc
 50
79.0233294397
 51
88.2994040398
  0
ARC
  5
24E
100
AcDbEntity
  8
0
100
AcDbCircle
 62
7
  6
BYLAYER
 10
44.5281480494
 20
31.0150718057
 40
80.0971860524
100
AcDbArc
 50
91.4748193276
 51
91.6024362998
  0
ARC
  5
24F
100
AcDbEntity
  8
0
100
AcDbCircle
 62
7
  6
BYLAYER
 10
44.5281480494
 20
31.0150718057
 40
80.0971860524
100
AcDbArc
 50
88.3975637687
 51
88.5251806724
  0
ARC
  5
250
100
AcDbEntity
  8
0
100
AcDbCircle
 62
7
  6
BYLAYER
 10
58.9037329993
 20
48.169572571
 40
17.4388429349
100
AcDbArc
 50
270.5449886608
 51
270.7547972178
  0
ARC
  5
251
100
AcDbEntity
  8
0
100
AcDbCircle
 62
7
  6
BYLAYER
 10
30.1525630855
 20
48.1695710422
 40
17.438841406
100
AcDbArc
 50
269.2452027866
 51
269.4550113376
  0
ARC
  5
252
100
AcDbEntity
  8
0
100
AcDbCircle
 62
7
  6
BYLAYER
 10
44.5257058843
 20
22.0630782771
 40
11.4316365119
100
AcDbArc
 50
270.0122402587
 51
278.0455442739
  0
ARC
  5
253
100
AcDbEntity
  8
0
100
AcDbCircle
 62
7
  6
BYLAYER
 10
44.5281480494
 20
107.6089222874
 40
5.97
100
AcDbArc
 50
34.1438090086
 51
145.8561909914
  0
ARC
  5
254
100
AcDbEntity
  8
0
100
AcDbCircle
 62
7
  6
BYLAYER
 10
44.5281480494
 20
107.6089222874
 40
5.47
100
AcDbArc
 50
38.2725393675
 51
141.7274606325
  0
ARC
  5
255
100
AcDbEntity
  8
0
100
AcDbCircle
 62
7
  6
BYLAYER
 10
59.3854794298
 20
22.7224080112
 40
0.4895045085
100
AcDbArc
 50
269.4980473144
 51
360.0
  0
ARC
  5
256
100
AcDbEntity
  8
0
100
AcDbCircle
 62
7
  6
BYLAYER
 10
29.6708166691
 20
22.7224080112
 40
0.4895045085
100
AcDbArc
 50
180.0
 51
270.5019526856
  0
SPLINE
  5
257
100
AcDbEntity
  8
0
100
AcDbSpline
 62
7
  6
BYLAYER
 70
0
 71
3
 72
16
 73
12
 74
0
 42
0.0000001
 43
0.0000001
 44
0.0000000001
 40
0.0
 40
0.0
 40
0.0
 40
0.0
 40
0.0625046811
 40
0.1250100748
 40
0.1875124697
 40
0.2500154729
 40
0.3750131584
 40
0.5000117717
 40
0.6250102345
 40
0.7500083702
 40
1.0
 40
1.0
 40
1.0
 40
1.0
 10
42.9306190355
 20
10.7439843011
 30
0.0
 10
42.8293127601
 20
10.9551419397
 30
0.0
 10
42.642006273
 20
11.3848459605
 30
0.0
 10
42.3926564763
 20
12.0418725398
 30
0.0
 10
42.1665290192
 20
12.7072069233
 30
0.0
 10
41.8890520025
 20
13.6019993898
 30
0.0
 10
41.5777151769
 20
14.7310568778
 30
0.0
 10
41.2433415034
 20
16.095900024
 30
0.0
 10
40.9382383207
 20
17.4675526358
 30
0.0
 10
40.5619209907
 20
19.3028564647
 30
0.0
 10
40.3071461127
 20
20.684794367
 30
0.0
 10
40.1457595635
 20
21.6074927666
 30
0.0
  0
SPLINE
  5
258
100
AcDbEntity
  8
0
100
AcDbSpline
 62
7
  6
BYLAYER
 70
0
 71
3
 72
10
 73
6
 74
0
 42
0.0000001
 43
0.0000001
 44
0.0000000001
 40
0.0
 40
0.0
 40
0.0
 40
0.0
 40
0.2500164545
 40
0.5000349531
 40
1.0
 40
1.0
 40
1.0
 40
1.0
 10
42.9306190355
 20
10.7439843011
 30
0.0
 10
43.0628849641
 20
10.7254463583
 30
0.0
 10
43.3280317665
 20
10.692515164
 30
0.0
 10
43.8602318169
 20
10.6454951108
 30
0.0
 10
44.261066865
 20
10.6314776072
 30
0.0
 10
44.5281480494
 20
10.6314776072
 30
0.0
  0
SPLINE
  5
259
100
AcDbEntity
  8
0
100
AcDbSpline
 62
7
  6
BYLAYER
 70
0
 71
3
 72
16
 73
12
 74
0
 42
0.0000001
 43
0.0000001
 44
0.0000000001
 40
0.0
 40
0.0
 40
0.0
 40
0.0
 40
0.0625046811
 40
0.1250100748
 40
0.1875124697
 40
0.2500154729
 40
0.3750131584
 40
0.5000117717
 40
0.6250102346
 40
0.7500083702
 40
1.0
 40
1.0
 40
1.0
 40
1.0
 10
46.1256770633
 20
10.7439843011
 30
0.0
 10
46.2269833387
 20
10.9551419397
 30
0.0
 10
46.4142898255
 20
11.3848459605
 30
0.0
 10
46.6636396226
 20
12.0418725396
 30
0.0
 10
46.8897670797
 20
12.7072069232
 30
0.0
 10
47.1672440963
 20
13.60199939
 30
0.0
 10
47.4785809219
 20
14.731056878
 30
0.0
 10
47.8129545955
 20
16.0959000242
 30
0.0
 10
48.1180577782
 20
17.467552636
 30
0.0
 10
48.4943751081
 20
19.3028564648
 30
0.0
 10
48.7491499861
 20
20.6847943671
 30
0.0
 10
48.9105365353
 20
21.6074927666
 30
0.0
  0
SPLINE
  5
25A
100
AcDbEntity
  8
0
100
AcDbSpline
 62
7
  6
BYLAYER
 70
0
 71
3
 72
28
 73
24
 74
0
 42
0.0000001
 43
0.0000001
 44
0.0000000001
 40
0.0
 40
0.0
 40
0.0
 40
0.0
 40
0.0078210323
 40
0.0156463445
 40
0.0234604892
 40
0.0312851786
 40
0.0469260142
 40
0.0625680666
 40
0.0782096093
 40
0.0938510221
 40
0.1251331539
 40
0.1564142534
 40
0.1876941565
 40
0.2189726948
 40
0.2502497068
 40
0.3127984624
 40
0.3753390533
 40
0.4378701822
 40
0.5003905178
 40
0.6253930988
 40
0.7503361099
 40
0.8752087271
 40
1.0
 40
1.0
 40
1.0
 40
1.0
 10
44.1232475578
 20
22.5265520401
 30
0.0
 10
44.1086238836
 20
22.5210928947
 30
0.0
 10
44.077168769
 20
22.5174003353
 30
0.0
 10
44.0308238243
 20
22.512108361
 30
0.0
 10
43.9841529917
 20
22.5076812645
 30
0.0
 10
43.9219533802
 20
22.5025194252
 30
0.0
 10
43.8441300671
 20
22.4964436312
 30
0.0
 10
43.7507215847
 20
22.4897098617
 30
0.0
 10
43.6572898346
 20
22.4832485382
 30
0.0
 10
43.5326984688
 20
22.4749274385
 30
0.0
 10
43.3769419507
 20
22.4648353235
 30
0.0
 10
43.1900189741
 20
22.4530418575
 30
0.0
 10
43.0030875967
 20
22.4414976601
 30
0.0
 10
42.816152029
 20
22.4301557852
 30
0.0
 10
42.5669082798
 20
22.4152924714
 30
0.0
 10
42.2553548825
 20
22.3971647138
 30
0.0
 10
41.8814879812
 20
22.3761299293
 30
0.0
 10
41.507632163
 20
22.3559216884
 30
0.0
 10
41.0092303543
 20
22.3302042648
 30
0.0
 10
40.38630205
 20
22.300591417
 30
0.0
 10
39.6388374004
 20
22.2702562355
 30
0.0
 10
38.891553851
 20
22.2465016525
 30
0.0
 10
38.3933570484
 20
22.2362396748
 30
0.0
 10
38.1443174054
 20
22.2329222874
 30
0.0
  0
SPLINE
  5
25B
100
AcDbEntity
  8
0
100
AcDbSpline
 62
7
  6
BYLAYER
 70
0
 71
3
 72
28
 73
24
 74
0
 42
0.0000001
 43
0.0000001
 44
0.0000000001
 40
0.0
 40
0.0
 40
0.0
 40
0.0
 40
0.1247912994
 40
0.249663936
 40
0.3746069631
 40
0.499609558
 40
0.5621299003
 40
0.6246610355
 40
0.6872016327
 40
0.7497503946
 40
0.7810274097
 40
0.8123059512
 40
0.8435858574
 40
0.8748669601
 40
0.9061490956
 40
0.9217905075
 40
0.9374320588
 40
0.9530740968
 40
0.9687149297
 40
0.9765395616
 40
0.9843539903
 40
0.9921788698
 40
1.0
 40
1.0
 40
1.0
 40
1.0
 10
50.9119789449
 20
22.2329222874
 30
0.0
 10
50.6629388588
 20
22.2362396792
 30
0.0
 10
50.1647411834
 20
22.2465016541
 30
0.0
 10
49.4174563401
 20
22.2702563039
 30
0.0
 10
48.669990421
 20
22.3005915467
 30
0.0
 10
48.0470610721
 20
22.3302045361
 30
0.0
 10
47.5486584261
 20
22.355921949
 30
0.0
 10
47.1748019868
 20
22.3761302838
 30
0.0
 10
46.8009344605
 20
22.3971650757
 30
0.0
 10
46.4893805461
 20
22.4152929073
 30
0.0
 10
46.2401363813
 20
22.4301562463
 30
0.0
 10
46.0532005016
 20
22.4414981338
 30
0.0
 10
45.8662688135
 20
22.4530423755
 30
0.0
 10
45.6793455296
 20
22.4648359339
 30
0.0
 10
45.523588731
 20
22.4749277231
 30
0.0
 10
45.3989971956
 20
22.4832495103
 30
0.0
 10
45.3055652377
 20
22.4897098682
 30
0.0
 10
45.2121567843
 20
22.4964455297
 30
0.0
 10
45.1343331948
 20
22.5025181052
 30
0.0
 10
45.0721336132
 20
22.5076859402
 30
0.0
 10
45.0254620114
 20
22.5121024678
 30
0.0
 10
44.9791187963
 20
22.5174083655
 30
0.0
 10
44.9476629415
 20
22.5210928178
 30
0.0
 10
44.9330390613
 20
22.5265520401
 30
0.0
  0
SPLINE
  5
25C
100
AcDbEntity
  8
0
100
AcDbSpline
 62
7
  6
BYLAYER
 70
0
 71
3
 72
9
 73
5
 74
0
 42
0.0000001
 43
0.0000001
 44
0.0000000001
 40
0.0
 40
0.0
 40
0.0
 40
0.0
 40
0.5001992444
 40
1.0
 40
1.0
 40
1.0
 40
1.0
 10
44.9299627193
 20
110.674586974
 30
0.0
 10
45.6292542356
 20
110.7183225815
 30
0.0
 10
47.0271427975
 20
110.8078789071
 30
0.0
 10
48.4259735043
 20
110.8826389136
 30
0.0
 10
49.1254106108
 20
110.913090161
 30
0.0
  0
SPLINE
  5
25D
100
AcDbEntity
  8
0
100
AcDbSpline
 62
7
  6
BYLAYER
 70
0
 71
3
 72
9
 73
5
 74
0
 42
0.0000001
 43
0.0000001
 44
0.0000000001
 40
0.0
 40
0.0
 40
0.0
 40
0.0
 40
0.4998007567
 40
1.0
 40
1.0
 40
1.0
 40
1.0
 10
39.9308858616
 20
110.9130909576
 30
0.0
 10
40.6303229797
 20
110.8826411556
 30
0.0
 10
42.0291535811
 20
110.8078806748
 30
0.0
 10
43.4270419175
 20
110.7183225781
 30
0.0
 10
44.1263333795
 20
110.674586974
 30
0.0
  0
SPLINE
  5
25E
100
AcDbEntity
  8
0
100
AcDbSpline
 62
7
  6
BYLAYER
 70
0
 71
3
 72
18
 73
14
 74
0
 42
0.0000001
 43
0.0000001
 44
0.0000000001
 40
0.0
 40
0.0
 40
0.0
 40
0.0
 40
0.0076385017
 40
0.0227564288
 40
0.046195744
 40
0.0780426654
 40
0.1182279819
 40
0.1664872439
 40
0.2858009254
 40
0.432974736
 40
0.6041808009
 40
0.7950926677
 40
1.0
 40
1.0
 40
1.0
 40
1.0
 10
59.8749651535
 20
30.7814111083
 30
0.0
 10
59.874722842
 20
30.7795270728
 30
0.0
 10
59.8692550111
 20
30.7757542731
 30
0.0
 10
59.8588633984
 20
30.7723693727
 30
0.0
 10
59.8415198737
 20
30.7682950333
 30
0.0
 10
59.818197199
 20
30.7644925964
 30
0.0
 10
59.7884816901
 20
30.7606526892
 30
0.0
 10
59.7371044339
 20
30.7553595745
 30
0.0
 10
59.6590310078
 20
30.7494574839
 30
0.0
 10
59.5503482009
 20
30.7435197978
 30
0.0
 10
59.4237894215
 20
30.7385216267
 30
0.0
 10
59.2828321827
 20
30.7346434094
 30
0.0
 10
59.1844126077
 20
30.7329145181
 30
0.0
 10
59.1334603809
 20
30.7322428374
 30
0.0
  0
SPLINE
  5
25F
100
AcDbEntity
  8
0
100
AcDbSpline
 62
7
  6
BYLAYER
 70
0
 71
3
 72
18
 73
14
 74
0
 42
0.0000001
 43
0.0000001
 44
0.0000000001
 40
0.0
 40
0.0
 40
0.0
 40
0.0
 40
0.2049073339
 40
0.3958192007
 40
0.5670252606
 40
0.7141990668
 40
0.8335127507
 40
0.881772015
 40
0.9219573331
 40
0.9538042553
 40
0.977243571
 40
0.9923614983
 40
1.0
 40
1.0
 40
1.0
 40
1.0
 10
29.9228357253
 20
30.7322428374
 30
0.0
 10
29.8718834976
 20
30.732914518
 30
0.0
 10
29.7734639212
 20
30.7346434094
 30
0.0
 10
29.6325066819
 20
30.7385216265
 30
0.0
 10
29.5059479036
 20
30.7435197974
 30
0.0
 10
29.3972650973
 20
30.7494574836
 30
0.0
 10
29.3191916704
 20
30.7553595741
 30
0.0
 10
29.2678144122
 20
30.7606526889
 30
0.0
 10
29.2380989017
 20
30.7644925961
 30
0.0
 10
29.2147762261
 20
30.7682950331
 30
0.0
 10
29.1974327008
 20
30.7723693726
 30
0.0
 10
29.1870410878
 20
30.7757542731
 30
0.0
 10
29.1815732568
 20
30.7795270728
 30
0.0
 10
29.1813309453
 20
30.7814111083
 30
0.0
  0
ELLIPSE
  5
260
100
AcDbEntity
  8
0
100
AcDbEllipse
 62
7
  6
BYLAYER
 10
44.5281480494
 20
23.0941400002
 30
0.0
 11
11.4497881749
 21
0.0
 31
0.0
 40
0.1405425363
 41
-1.1780268875
 42
-0.5676776361
  0
ELLIPSE
  5
261
100
AcDbEntity
  8
0
100
AcDbEllipse
 62
7
  6
BYLAYER
 10
44.5281480494
 20
23.0941400002
 30
0.0
 11
11.4497881749
 21
-0.0
 31
0.0
 40
0.1405425363
 41
-2.5739150175
 42
-1.9635657661
  0
ELLIPSE
  5
262
100
AcDbEntity
  8
0
100
AcDbEllipse
 62
7
  6
BYLAYER
 10
30.1636355174
 20
30.9968532255
 30
0.0
 11
0.9823265297
 21
0.0
 31
0.0
 40
0.0536585366
 41
-3.1349064497
 42
-2.1520206241
  0
ELLIPSE
  5
263
100
AcDbEntity
  8
0
100
AcDbEllipse
 62
7
  6
BYLAYER
 10
30.1636355174
 20
106.5097047172
 30
0.0
 11
0.9823265297
 21
0.0
 31
0.0
 40
0.0542168675
 41
2.1520206241
 42
3.1349064497
  0
ELLIPSE
  5
264
100
AcDbEntity
  8
0
100
AcDbEllipse
 62
7
  6
BYLAYER
 10
58.8926605814
 20
30.9968532255
 30
0.0
 11
0.9823265297
 21
0.0
 31
0.0
 40
0.0536585366
 41
-0.9895720295
 42
-0.0066862039
  0
ELLIPSE
  5
265
100
AcDbEntity
  8
0
100
AcDbEllipse
 62
7
  6
BYLAYER
 10
58.8926605814
 20
106.5097047172
 30
0.0
 11
0.9823265297
 21
0.0
 31
0.0
 40
0.0542168675
 41
0.0066862039
 42
0.9895720295
  0
ELLIPSE
  5
266
100
AcDbEntity
  8
0
100
AcDbEllipse
 62
7
  6
BYLAYER
 10
58.8926605814
 20
106.6426366876
 30
0.0
 11
0.9823265297
 21
-0.0
 31
0.0
 40
0.0465706236
 41
6.2898715111
 42
7.2727573366
  0
ELLIPSE
  5
267
100
AcDbEntity
  8
0
100
AcDbEllipse
 62
7
  6
BYLAYER
 10
44.5281480494
 20
102.6623030424
 30
0.0
 11
80.7280144746
 21
0.0
 31
0.0
 40
0.0512
 41
1.5757737356
 42
1.7519139408
  0
ELLIPSE
  5
268
100
AcDbEntity
  8
0
100
AcDbEllipse
 62
7
  6
BYLAYER
 10
44.5281480494
 20
102.6623030424
 30
0.0
 11
80.7280144746
 21
0.0
 31
0.0
 40
0.0512
 41
1.3896787128
 42
1.565818918
  0
ELLIPSE
  5
269
100
AcDbEntity
  8
0
100
AcDbEllipse
 62
7
  6
BYLAYER
 10
58.8926605814
 20
106.6784969431
 30
0.0
 11
0.9823265297
 21
-0.0
 31
0.0
 40
0.0512
 41
7.2727573366
 42
7.6728640199
  0
ELLIPSE
  5
26A
100
AcDbEntity
  8
0
100
AcDbEllipse
 62
7
  6
BYLAYER
 10
30.1636355174
 20
106.6784969431
 30
0.0
 11
0.9823265297
 21
-0.0
 31
0.0
 40
0.0512
 41
8.035099248
 42
8.4352059313
  0
ELLIPSE
  5
26B
100
AcDbEntity
  8
0
100
AcDbEllipse
 62
7
  6
BYLAYER
 10
30.1636355174
 20
106.6426366876
 30
0.0
 11
0.9823265297
 21
0.0
 31
0.0
 40
0.0465706236
 41
8.4352059313
 42
9.4180917569
  0
ELLIPSE
  5
26C
100
AcDbEntity
  8
0
100
AcDbEllipse
 62
7
  6
BYLAYER
 10
44.5281480494
 20
34.8597395537
 30
0.0
 11
80.7280144746
 21
0.0
 31
0.0
 40
0.0519877676
 41
-1.565818918
 42
-1.3896787128
  0
ELLIPSE
  5
26D
100
AcDbEntity
  8
0
100
AcDbEllipse
 62
7
  6
BYLAYER
 10
44.5281480494
 20
34.8597395537
 30
0.0
 11
80.7280144746
 21
0.0
 31
0.0
 40
0.0519877676
 41
-1.7519139408
 42
-1.5757737356
  0
ENDSEC
  0
SECTION
  2
OBJECTS
  0
DICTIONARY
  5
C
100
AcDbDictionary
280
0
281
1
  3
ACAD_GROUP
350
D
  3
ACAD_MLINESTYLE
350
17
  3
ACAD_LAYOUT
350
1A
  3
ACAD_PLOTSETTINGS
350
19
  3
ACAD_PLOTSTYLENAME
350
E
  0
DICTIONARY
  5
D
102
{ACAD_REACTORS
330
C
102
}
100
AcDbDictionary
280
0
281
1
  0
ACDBDICTIONARYWDFLT
  5
E
102
{ACAD_REACTORS
330
C
102
}
100
AcDbDictionary
281
1
  3
Normal
350
F
100
AcDbDictionaryWithDefault
340
F
  0
DICTIONARY
  5
17
102
{ACAD_REACTORS
330
C
102
}
100
AcDbDictionary
280
0
281
1
  3
Standard
350
18
  0
DICTIONARY
  5
19
102
{ACAD_REACTORS
330
C
102
}
100
AcDbDictionary
281
1
  0
DICTIONARY
  5
1A
102
{ACAD_REACTORS
330
C
102
}
100
AcDbDictionary
281
1
  3
Model
350
26E
  3
Layout1
350
26F
  0
ACDBPLACEHOLDER
  5
F
102
{ACAD_REACTORS
330
E
102
}
  0
MLINESTYLE
  5
18
102
{ACAD_REACTORS
330
17
102
}
100
AcDbMlineStyle
  2
STANDARD
 70
0
  3

 62
256
 51
90.0
 52
90.0
 71
2
 49
0.5
 62
256
  6
BYLAYER
 49
-0.5
 62
256
  6
BYLAYER
  0
LAYOUT
  5
26E
102
{ACAD_REACTORS
330
1A
102
}
100
AcDbPlotSettings
  1

  2
none_device
  4

  6

 40
0.0
 41
0.0
 42
0.0
 43
0.0
 44
210.0
 45
297.0
 46
0.0
 47
0.0
 48
0.0
 49
0.0
140
0.0
141
0.0
142
1.0
143
1.0
 70
1024
 72
1
 73
0
 74
0
  7

 75
0
147
1.0
148
0.0
149
0.0
100
AcDbLayout
  1
Model
 70
0
 71
0
 10
0.0
 20
0.0
 11
210.0
 21
297.0
 12
0.0
 22
0.0
 32
0.0
 14
0.0
 24
0.0
 34
0.0
 15
0.0
 25
0.0
 35
0.0
146
0.0
 13
0.0
 23
0.0
 33
0.0
 16
1.0
 26
0.0
 36
0.0
 17
0.0
 27
1.0
 37
0.0
 76
0
330
210
345
0
346
0
  0
LAYOUT
  5
26F
102
{ACAD_REACTORS
330
1A
102
}
100
AcDbPlotSettings
  1

  2
none_device
  4

  6

 40
0.0
 41
0.0
 42
0.0
 43
0.0
 44
210.0
 45
297.0
 46
0.0
 47
0.0
 48
0.0
 49
0.0
140
0.0
141
0.0
142
1.0
143
1.0
 70
0
 72
1
 73
0
 74
0
  7

 75
0
147
1.0
148
0.0
149
0.0
100
AcDbLayout
  1
Layout1
 70
0
 71
1
 10
0.0
 20
0.0
 11
210.0
 21
297.0
 12
0.0
 22
0.0
 32
0.0
 14
0.0
 24
0.0
 34
0.0
 15
0.0
 25
0.0
 35
0.0
146
0.0
 13
0.0
 23
0.0
 33
0.0
 16
1.0
 26
0.0
 36
0.0
 17
0.0
 27
1.0
 37
0.0
 76
0
330
211
345
0
346
0
  0
ENDSEC
  0
EOF
