999
DXF file: C:\Users\sesa63760\Dev\_Creo\CAD\MCADID0004144_3D-CAD\drw0001_1.dxf
999
Pro/ENGINEER 2019471 by Parametric Technology Corporation
  0
SECTION
  2
HEADER
  9
$ACADVER
  1
AC1024
  9
$DWGCODEPAGE
  3
ANSI_1252
  9
$EXTMAX
 10
36.2595671506
 20
51.2813878272
 30
0.0
  9
$EXTMIN
 10
0.0
 20
0.0
 30
0.0
  9
$LIMMIN
 10
0.0
 20
0.0
  9
$LIMMAX
 10
36.2595671506
 20
51.2813878272
  9
$VIEWCTR
 10
18.1297835753
 20
25.6406939136
  9
$VIEWSIZE
 40
51.2813878272
  9
$CLAYER
  8
0
  9
$LTSCALE
 40
3.3427867621
  9
$CELTYPE
  6
BYLAYER
  9
$DIMSCALE
 40
1.0
  9
$DIMASZ
 40
0.4316615137
  9
$DIMEXO
 40
1.0
  9
$DIMDLI
 40
2.3095617629
  9
$DIMEXE
 40
1.0
  9
$DIMCEN
 40
0.5470014702
  9
$DIMLFAC
 40
1.0
  9
$DIMBLK
  1
_FILLED
  9
$DIMALT
 70
0
  9
$DIMALTF
 40
0.0393700787
  9
$DIMTXT
 40
0.6043261192
  9
$DIMTOL
 70
1
  9
$DIMLIM
 70
0
  9
$DIMTFAC
 40
1.0
  9
$DIMTP
 40
0.01
  9
$DIMTM
 40
0.01
  9
$DIMGAP
 40
0.625
  9
$DIMDSEP
 70
46
  9
$AUNITS
 70
0
  9
$PDMODE
 70
3
  9
$PDSIZE
 40
0.3125
  9
$HANDSEED
  5
2A6
  9
$TILEMODE
 70
1
  9
$MEASUREMENT
 70
1
  9
$INSUNITS
 70
4
  0
ENDSEC
  0
SECTION
  2
CLASSES
  0
CLASS
  1
ACDBDICTIONARYWDFLT
  2
AcDbDictionaryWithDefault
  3
AutoCAD 2000
 90
0
 91
1
280
0
281
0
  0
CLASS
  1
ACDBPLACEHOLDER
  2
AcDbPlaceHolder
  3
AutoCAD 2000
 90
0
 91
1
280
0
281
0
  0
CLASS
  1
LAYOUT
  2
AcDbLayout
  3
AutoCAD 2000
 90
0
 91
0
280
0
281
0
  0
ENDSEC
  0
SECTION
  2
TABLES
  0
TABLE
  2
VPORT
  5
8
100
AcDbSymbolTable
 70
2
  0
VPORT
  5
1F4
100
AcDbSymbolTableRecord
100
AcDbViewportTableRecord
  2
*ACTIVE
 70
0
 10
0.0
 20
0.0
 11
1.0
 21
1.0
 12
18.1297835753
 22
25.6406939136
 13
0.0
 23
0.0
 14
1.0
 24
1.0
 15
0.0
 25
0.0
 16
0.0
 26
0.0
 36
1.0
 17
0.0
 27
0.0
 37
0.0
 40
51.2813878272
 41
0.7070707071
 42
50.0
 43
0.0
 44
0.0
 50
0.0
 51
0.0
 71
0
 72
100
 73
1
 74
1
 75
0
 76
0
 77
0
 78
0
  0
ENDTAB
  0
TABLE
  2
LTYPE
  5
5
100
AcDbSymbolTable
 70
6
  0
LTYPE
  5
14
100
AcDbSymbolTableRecord
100
AcDbLinetypeTableRecord
  2
BYBLOCK
 70
0
  3

 72
65
 73
0
 40
0.0
  0
LTYPE
  5
15
100
AcDbSymbolTableRecord
100
AcDbLinetypeTableRecord
  2
BYLAYER
 70
0
  3

 72
65
 73
0
 40
0.0
  0
LTYPE
  5
16
100
AcDbSymbolTableRecord
100
AcDbLinetypeTableRecord
  2
CONTINUOUS
 70
64
  3
Solid line
 72
65
 73
0
 40
0.0
  0
LTYPE
  5
1F5
100
AcDbSymbolTableRecord
100
AcDbLinetypeTableRecord
  2
CENTER
 70
64
  3
____ _ ____ _ ____ _ ____ _ ____ _ ____ _ ____
 72
65
 73
4
 40
0.6
 49
0.375
 74
0
 49
-0.075
 74
0
 49
0.075
 74
0
 49
-0.075
 74
0
  0
LTYPE
  5
1F6
100
AcDbSymbolTableRecord
100
AcDbLinetypeTableRecord
  2
HIDDEN
 70
64
  3
- - - - - - - - - - - - - - - - - - - -
 72
65
 73
2
 40
0.2
 49
0.1
 74
0
 49
-0.1
 74
0
  0
LTYPE
  5
1F7
100
AcDbSymbolTableRecord
100
AcDbLinetypeTableRecord
  2
PHANTOM
 70
64
  3
_____ _ _ _____ _ _ _____ _ _ _____
 72
65
 73
6
 40
0.8
 49
0.45
 74
0
 49
-0.05
 74
0
 49
0.1
 74
0
 49
-0.05
 74
0
 49
0.1
 74
0
 49
-0.05
 74
0
  0
LTYPE
  5
1F8
100
AcDbSymbolTableRecord
100
AcDbLinetypeTableRecord
  2
DOT
 70
64
  3
. . . . . . . . . . . . . . . . . . . .
 72
65
 73
2
 40
0.2
 49
0.1
 74
0
 49
-0.1
 74
0
  0
LTYPE
  5
1F9
100
AcDbSymbolTableRecord
100
AcDbLinetypeTableRecord
  2
DASHED
 70
64
  3
- - - - - - - - - - - - - - - - - - - -
 72
65
 73
2
 40
0.2
 49
0.1
 74
0
 49
-0.1
 74
0
  0
ENDTAB
  0
TABLE
  2
LAYER
  5
2
100
AcDbSymbolTable
 70
36
  0
LAYER
  5
10
100
AcDbSymbolTableRecord
100
AcDbLayerTableRecord
  2
0
 70
0
 62
7
  6
CONTINUOUS
370
-3
390
F
  0
LAYER
  5
1FA
100
AcDbSymbolTableRecord
100
AcDbLayerTableRecord
  2
DEFAULT_1
 70
0
 62
7
  6
CENTER
370
-3
390
F
  0
LAYER
  5
1FB
100
AcDbSymbolTableRecord
100
AcDbLayerTableRecord
  2
DEFAULT_2
 70
0
 62
7
  6
HIDDEN
370
-3
390
F
  0
LAYER
  5
1FC
100
AcDbSymbolTableRecord
100
AcDbLayerTableRecord
  2
DEFAULT_3
 70
0
 62
7
  6
PHANTOM
370
-3
390
F
  0
LAYER
  5
1FD
100
AcDbSymbolTableRecord
100
AcDbLayerTableRecord
  2
00_COMPONENTS
 70
0
 62
7
  6
CONTINUOUS
370
-3
390
F
  0
LAYER
  5
1FE
100
AcDbSymbolTableRecord
100
AcDbLayerTableRecord
  2
01_1_DEFAULT_DATUMS
 70
0
 62
7
  6
CONTINUOUS
370
-3
390
F
  0
LAYER
  5
1FF
100
AcDbSymbolTableRecord
100
AcDbLayerTableRecord
  2
01_PLANES
 70
0
 62
7
  6
CONTINUOUS
370
-3
390
F
  0
LAYER
  5
200
100
AcDbSymbolTableRecord
100
AcDbLayerTableRecord
  2
02_COORD_SYS
 70
0
 62
7
  6
CONTINUOUS
370
-3
390
F
  0
LAYER
  5
201
100
AcDbSymbolTableRecord
100
AcDbLayerTableRecord
  2
03_AXES
 70
0
 62
7
  6
CONTINUOUS
370
-3
390
F
  0
LAYER
  5
202
100
AcDbSymbolTableRecord
100
AcDbLayerTableRecord
  2
04_POINTS
 70
0
 62
7
  6
CONTINUOUS
370
-3
390
F
  0
LAYER
  5
203
100
AcDbSymbolTableRecord
100
AcDbLayerTableRecord
  2
05_CURVES
 70
0
 62
7
  6
CONTINUOUS
370
-3
390
F
  0
LAYER
  5
204
100
AcDbSymbolTableRecord
100
AcDbLayerTableRecord
  2
06_SURFS
 70
0
 62
7
  6
CONTINUOUS
370
-3
390
F
  0
LAYER
  5
205
100
AcDbSymbolTableRecord
100
AcDbLayerTableRecord
  2
07_COSMETICS
 70
0
 62
7
  6
CONTINUOUS
370
-3
390
F
  0
LAYER
  5
206
100
AcDbSymbolTableRecord
100
AcDbLayerTableRecord
  2
10_NOTES
 70
0
 62
7
  6
CONTINUOUS
370
-3
390
F
  0
LAYER
  5
207
100
AcDbSymbolTableRecord
100
AcDbLayerTableRecord
  2
11_NOTES_PUB
 70
0
 62
7
  6
CONTINUOUS
370
-3
390
F
  0
LAYER
  5
208
100
AcDbSymbolTableRecord
100
AcDbLayerTableRecord
  2
13_REF_GTOL
 70
0
 62
7
  6
CONTINUOUS
370
-3
390
F
  0
LAYER
  5
209
100
AcDbSymbolTableRecord
100
AcDbLayerTableRecord
  2
16_MISC
 70
0
 62
7
  6
CONTINUOUS
370
-3
390
F
  0
LAYER
  5
20A
100
AcDbSymbolTableRecord
100
AcDbLayerTableRecord
  2
17_NO_PRINT
 70
0
 62
7
  6
CONTINUOUS
370
-3
390
F
  0
LAYER
  5
20B
100
AcDbSymbolTableRecord
100
AcDbLayerTableRecord
  2
18_DATUM_CAMS_JOINTS
 70
0
 62
7
  6
CONTINUOUS
370
-3
390
F
  0
LAYER
  5
20C
100
AcDbSymbolTableRecord
100
AcDbLayerTableRecord
  2
19_DATUM_FUNCTIONAL
 70
0
 62
7
  6
CONTINUOUS
370
-3
390
F
  0
LAYER
  5
20D
100
AcDbSymbolTableRecord
100
AcDbLayerTableRecord
  2
20_DATUM_KINEMATIC_SCHEME
 70
0
 62
7
  6
CONTINUOUS
370
-3
390
F
  0
ENDTAB
  0
TABLE
  2
STYLE
  5
3
100
AcDbSymbolTable
 70
1
  0
STYLE
  5
11
100
AcDbSymbolTableRecord
100
AcDbTextStyleTableRecord
  2
STANDARD
 70
0
 40
0.0
 41
1.0
 50
0.0
 71
0
 42
0.2
  3
ARIAL.TTF
  4

  0
STYLE
  5
20E
100
AcDbSymbolTableRecord
100
AcDbTextStyleTableRecord
  2
TEXTSTYLE_1
 70
0
 40
0.0
 41
0.8
 50
0.0
 71
0
 42
0.2
  3
gdt
  4

  0
ENDTAB
  0
TABLE
  2
VIEW
  5
6
100
AcDbSymbolTable
 70
0
  0
ENDTAB
  0
TABLE
  2
UCS
  5
7
100
AcDbSymbolTable
 70
0
  0
ENDTAB
  0
TABLE
  2
APPID
  5
9
100
AcDbSymbolTable
 70
1
  0
APPID
  5
20F
100
AcDbSymbolTableRecord
100
AcDbRegAppTableRecord
  2
ACAD
 70
0
  0
ENDTAB
  0
TABLE
  2
BLOCK_RECORD
  5
1
100
AcDbSymbolTable
 70
0
  0
BLOCK_RECORD
  5
210
100
AcDbSymbolTableRecord
100
AcDbBlockTableRecord
  2
*Model_Space
  0
BLOCK_RECORD
  5
211
100
AcDbSymbolTableRecord
100
AcDbBlockTableRecord
  2
*Paper_Space
  0
BLOCK_RECORD
  5
212
100
AcDbSymbolTableRecord
100
AcDbBlockTableRecord
  2
_FILLED
  0
ENDTAB
  0
TABLE
  2
DIMSTYLE
  5
A
100
AcDbSymbolTable
 70
1
100
AcDbDimStyleTable
 71
0
  0
DIMSTYLE
105
213
100
AcDbSymbolTableRecord
100
AcDbDimStyleTableRecord
  2
STANDARD
 70
0
  3

  4

 40
1.0
 41
0.4316615137
 42
1.0
 43
0.38
 44
1.0
 45
0.0
 46
0.0
 47
0.01
 48
0.01
140
0.6043261192
141
0.09
142
0.0
143
25.4
144
1.0
145
0.0
146
1.0
147
0.625
 71
1
 72
0
 73
0
 74
0
 75
0
 76
0
 77
1
 78
8
 79
2
170
0
171
1
172
0
173
0
174
0
175
0
176
0
177
0
178
0
270
2
179
2
271
2
272
2
273
2
274
2
275
0
280
0
281
0
282
0
283
1
284
8
285
0
286
0
287
3
288
0
340
11
278
46
341
212
342
212
343
212
344
212
  0
ENDTAB
  0
ENDSEC
  0
SECTION
  2
BLOCKS
  0
BLOCK
  5
20
100
AcDbEntity
  8
0
100
AcDbBlockBegin
  2
*Model_Space
 70
0
 10
0.0
 20
0.0
 30
0.0
  3
*Model_Space
  1

  0
ENDBLK
  5
21
100
AcDbEntity
  8
0
100
AcDbBlockEnd
  0
BLOCK
  5
1C
100
AcDbEntity
  8
0
100
AcDbBlockBegin
  2
*Paper_Space
 70
0
 10
0.0
 20
0.0
 30
0.0
  3
*Paper_Space
  1

  0
ENDBLK
  5
1D
100
AcDbEntity
  8
0
100
AcDbBlockEnd
  0
BLOCK
  5
214
100
AcDbEntity
  8
0
100
AcDbBlockBegin
  2
_FILLED
 70
64
 10
0.0
 20
0.0
  3
_FILLED
  1

  0
SOLID
  5
215
100
AcDbEntity
  8
0
  6
BYBLOCK
 62
0
100
AcDbTrace
 10
0.0
 20
0.0
 11
-1.0
 21
0.25
 12
-1.0
 22
-0.25
 13
-1.0
 23
-0.25
  0
ENDBLK
  5
216
100
AcDbEntity
  8
0
  6
BYBLOCK
 62
0
100
AcDbBlockEnd
  0
ENDSEC
  0
SECTION
  2
ENTITIES
  0
LINE
  5
217
100
AcDbEntity
  8
0
100
AcDbLine
 62
7
  6
BYLAYER
 10
15.5823221395
 20
47.448542881
 11
15.5823386822
 21
47.4485496576
  0
LINE
  5
218
100
AcDbEntity
  8
0
100
AcDbLine
 62
7
  6
BYLAYER
 10
15.5823964776
 20
47.4485858047
 11
7.2219874952
 21
42.6217179726
  0
LINE
  5
219
100
AcDbEntity
  8
0
100
AcDbLine
 62
7
  6
BYLAYER
 10
7.4956093252
 20
42.7080605185
 11
15.5565930694
 21
47.3620438727
  0
LWPOLYLINE
  5
21A
100
AcDbEntity
  8
0
100
AcDbPolyline
 62
7
  6
BYLAYER
 90
3
 70
0
 10
12.7573747996
 20
7.2861738516
 10
11.8909295819
 20
8.0348220294
 10
11.5866700099
 20
8.9179240997
  0
LWPOLYLINE
  5
21B
100
AcDbEntity
  8
0
100
AcDbPolyline
 62
7
  6
BYLAYER
 90
5
 70
0
 10
16.5983465347
 20
9.5901719725
 10
15.9755033341
 20
9.4938175669
 10
15.1918659679
 20
9.4938156833
 10
13.6837538814
 20
9.7271142144
 10
12.4047992367
 20
10.2441388545
  0
LINE
  5
21C
100
AcDbEntity
  8
0
100
AcDbLine
 62
7
  6
BYLAYER
 10
11.4677017404
 20
12.5522841137
 11
21.2377894509
 21
6.9116489522
  0
LINE
  5
21D
100
AcDbEntity
  8
0
100
AcDbLine
 62
7
  6
BYLAYER
 10
21.0457523568
 20
7.1239828616
 11
11.1383773439
 21
12.843879091
  0
LINE
  5
21E
100
AcDbEntity
  8
0
100
AcDbLine
 62
7
  6
BYLAYER
 10
21.2377962039
 20
6.9116699792
 11
21.2378089954
 21
6.9116598295
  0
LINE
  5
21F
100
AcDbEntity
  8
0
100
AcDbLine
 62
7
  6
BYLAYER
 10
11.4676935864
 20
12.5522733104
 11
11.1383773439
 21
12.843879091
  0
LINE
  5
220
100
AcDbEntity
  8
0
100
AcDbLine
 62
7
  6
BYLAYER
 10
7.3469138032
 20
19.3995223092
 11
11.0507494147
 21
12.9843264594
  0
LWPOLYLINE
  5
221
100
AcDbEntity
  8
0
100
AcDbPolyline
 62
7
  6
BYLAYER
 90
7
 70
0
 10
11.5866700099
 20
10.5595523148
 10
11.8909295819
 20
9.6764502445
 10
12.7573747996
 20
8.9278020666
 10
14.0540972329
 20
8.4275730722
 10
15.5836826463
 20
8.251918591
 10
17.1132655262
 20
8.4275804255
 10
18.0117207323
 20
8.7741784593
  0
LINE
  5
222
100
AcDbEntity
  8
0
100
AcDbLine
 62
7
  6
BYLAYER
 10
7.2932063456
 20
19.4986725403
 11
7.2220129593
 21
19.8674070273
  0
LINE
  5
223
100
AcDbEntity
  8
0
100
AcDbLine
 62
7
  6
BYLAYER
 10
7.2219202664
 20
42.6216616687
 11
7.2219360159
 21
42.6194762605
  0
LINE
  5
224
100
AcDbEntity
  8
0
100
AcDbLine
 62
7
  6
BYLAYER
 10
7.2219415959
 20
19.8674007909
 11
7.2219415959
 21
42.6194773893
  0
LINE
  5
225
100
AcDbEntity
  8
0
100
AcDbLine
 62
7
  6
BYLAYER
 10
7.2932114082
 20
19.4986625535
 11
7.2932114082
 21
42.335017189
  0
LINE
  5
226
100
AcDbEntity
  8
0
100
AcDbLine
 62
7
  6
BYLAYER
 10
25.9074344311
 20
41.3861180197
 11
17.8464506869
 21
36.7321346655
  0
LINE
  5
227
100
AcDbEntity
  8
0
100
AcDbLine
 62
7
  6
BYLAYER
 10
26.0488563762
 20
41.3044698687
 11
17.7757403032
 21
36.5280097667
  0
LINE
  5
228
100
AcDbEntity
  8
0
100
AcDbLine
 62
7
  6
BYLAYER
 10
19.9304612788
 20
11.9356278156
 11
21.0457523568
 21
11.2917287785
  0
LINE
  5
229
100
AcDbEntity
  8
0
100
AcDbLine
 62
7
  6
BYLAYER
 10
20.0356570115
 20
11.9963622377
 11
21.1331449718
 21
11.3627416028
  0
LINE
  5
22A
100
AcDbEntity
  8
0
100
AcDbLine
 62
7
  6
BYLAYER
 10
26.9591400672
 20
40.778929224
 11
18.898156323
 21
36.1249458699
  0
LINE
  5
22B
100
AcDbEntity
  8
0
100
AcDbLine
 62
7
  6
BYLAYER
 10
11.0880507911
 20
12.0794474837
 11
11.0880507911
 21
12.9221583876
  0
LINE
  5
22C
100
AcDbEntity
  8
0
100
AcDbLine
 62
7
  6
BYLAYER
 10
11.5866700099
 20
8.9179240997
 11
11.5866700099
 21
10.5595523148
  0
LINE
  5
22D
100
AcDbEntity
  8
0
100
AcDbLine
 62
7
  6
BYLAYER
 10
17.6343195357
 20
33.588602476
 11
17.7757403032
 21
33.6702513068
  0
LINE
  5
22E
100
AcDbEntity
  8
0
100
AcDbLine
 62
7
  6
BYLAYER
 10
12.1335427014
 20
5.949860287
 11
12.1335427014
 21
7.6702866563
  0
LINE
  5
22F
100
AcDbEntity
  8
0
100
AcDbLine
 62
7
  6
BYLAYER
 10
21.3948524264
 20
31.7661123703
 11
29.5577220524
 21
36.4789192146
  0
LINE
  5
230
100
AcDbEntity
  8
0
100
AcDbLine
 62
7
  6
BYLAYER
 10
29.4429824681
 20
36.4055037945
 11
21.2405779564
 21
31.6698716096
  0
LINE
  5
231
100
AcDbEntity
  8
0
100
AcDbLine
 62
7
  6
BYLAYER
 10
21.419605649
 20
31.6124353241
 11
29.541053738
 21
36.3013275756
  0
LINE
  5
232
100
AcDbEntity
  8
0
100
AcDbLine
 62
7
  6
BYLAYER
 10
18.3495447846
 20
28.7655769035
 11
18.4547405173
 21
28.8263113256
  0
LINE
  5
233
100
AcDbEntity
  8
0
100
AcDbLine
 62
7
  6
BYLAYER
 10
29.5129851592
 20
16.2002418595
 11
29.4519339773
 21
16.2354889784
  0
LINE
  5
234
100
AcDbEntity
  8
0
100
AcDbLine
 62
7
  6
BYLAYER
 10
19.7257382795
 20
12.2508174063
 11
18.3493698018
 21
28.7676767519
  0
LINE
  5
235
100
AcDbEntity
  8
0
100
AcDbLine
 62
7
  6
BYLAYER
 10
17.6343195357
 20
36.3647106942
 11
17.6343195357
 21
33.588602476
  0
LINE
  5
236
100
AcDbEntity
  8
0
100
AcDbLine
 62
7
  6
BYLAYER
 10
17.7757414808
 20
33.6702548085
 11
17.7757403032
 21
36.5280097667
  0
LINE
  5
237
100
AcDbEntity
  8
0
100
AcDbLine
 62
7
  6
BYLAYER
 10
29.541053738
 20
32.1407556401
 11
21.419605649
 21
27.4518633886
  0
LINE
  5
238
100
AcDbEntity
  8
0
100
AcDbLine
 62
7
  6
BYLAYER
 10
18.4545655346
 20
28.828411174
 11
19.8309340123
 21
12.3115518283
  0
LINE
  5
239
100
AcDbEntity
  8
0
100
AcDbLine
 62
7
  6
BYLAYER
 10
19.0337893091
 20
5.949860287
 11
19.0337893091
 21
7.6702866563
  0
LINE
  5
23A
100
AcDbEntity
  8
0
100
AcDbLine
 62
7
  6
BYLAYER
 10
21.0457523568
 20
32.722210418
 11
21.0457523568
 21
31.782355859
  0
LINE
  5
23B
100
AcDbEntity
  8
0
100
AcDbLine
 62
7
  6
BYLAYER
 10
21.0457523568
 20
31.6190553755
 11
21.0457523568
 21
27.45848344
  0
LINE
  5
23C
100
AcDbEntity
  8
0
100
AcDbLine
 62
7
  6
BYLAYER
 10
21.0457523568
 20
11.2917287785
 11
21.0457523568
 21
7.1239828616
  0
LINE
  5
23D
100
AcDbEntity
  8
0
100
AcDbLine
 62
7
  6
BYLAYER
 10
21.1331449718
 20
27.439077453
 11
21.1331449718
 21
11.3627416028
  0
LINE
  5
23E
100
AcDbEntity
  8
0
100
AcDbLine
 62
7
  6
BYLAYER
 10
21.2405779564
 20
31.7451428652
 11
21.2405779564
 21
31.6698716096
  0
LINE
  5
23F
100
AcDbEntity
  8
0
100
AcDbLine
 62
7
  6
BYLAYER
 10
21.3452770061
 20
11.3627421127
 11
21.3452770061
 21
27.4383131627
  0
LINE
  5
240
100
AcDbEntity
  8
0
100
AcDbLine
 62
7
  6
BYLAYER
 10
21.419605649
 20
7.1219395738
 11
21.419605649
 21
11.2851087271
  0
LINE
  5
241
100
AcDbEntity
  8
0
100
AcDbLine
 62
7
  6
BYLAYER
 10
21.419605649
 20
27.4518633886
 11
21.419605649
 21
31.6124353241
  0
LINE
  5
242
100
AcDbEntity
  8
0
100
AcDbLine
 62
7
  6
BYLAYER
 10
21.0457523568
 20
27.45848344
 11
18.5542677838
 21
28.8969101874
  0
LINE
  5
243
100
AcDbEntity
  8
0
100
AcDbLine
 62
7
  6
BYLAYER
 10
29.541053738
 20
36.3013275756
 11
29.6008178627
 21
36.4050952539
  0
LINE
  5
244
100
AcDbEntity
  8
0
100
AcDbLine
 62
7
  6
BYLAYER
 10
29.600811702
 20
11.7400173823
 11
29.6007947028
 21
11.7400532963
  0
LINE
  5
245
100
AcDbEntity
  8
0
100
AcDbLine
 62
7
  6
BYLAYER
 10
19.2790542127
 20
8.042499686
 11
19.2764151651
 21
8.034839782
  0
LINE
  5
246
100
AcDbEntity
  8
0
100
AcDbLine
 62
7
  6
BYLAYER
 10
29.6008051461
 20
36.5683957153
 11
29.5577220524
 21
36.4789192146
  0
LINE
  5
247
100
AcDbEntity
  8
0
100
AcDbLine
 62
7
  6
BYLAYER
 10
29.6008178627
 20
32.2445233184
 11
29.541053738
 21
32.1407556401
  0
LINE
  5
248
100
AcDbEntity
  8
0
100
AcDbLine
 62
7
  6
BYLAYER
 10
17.6343195357
 20
33.588602476
 11
21.0457523568
 21
31.6190553755
  0
LINE
  5
249
100
AcDbEntity
  8
0
100
AcDbLine
 62
7
  6
BYLAYER
 10
21.2405779564
 20
31.6698716096
 11
17.7757414808
 21
33.6702548085
  0
LINE
  5
24A
100
AcDbEntity
  8
0
100
AcDbLine
 62
7
  6
BYLAYER
 10
7.2932114082
 20
42.335017189
 11
17.6343195357
 21
36.3647106942
  0
LINE
  5
24B
100
AcDbEntity
  8
0
100
AcDbLine
 62
7
  6
BYLAYER
 10
17.7757414808
 20
36.2830625433
 11
19.6238230632
 21
35.2160962822
  0
LINE
  5
24C
100
AcDbEntity
  8
0
100
AcDbLine
 62
7
  6
BYLAYER
 10
17.7757403032
 20
36.5280097667
 11
17.8397086468
 21
36.4910784618
  0
LINE
  5
24D
100
AcDbEntity
  8
0
100
AcDbLine
 62
7
  6
BYLAYER
 10
18.898156323
 20
36.1249458699
 11
17.9878726319
 21
36.6504865146
  0
LINE
  5
24E
100
AcDbEntity
  8
0
100
AcDbLine
 62
7
  6
BYLAYER
 10
17.8464506869
 20
36.7321346655
 11
7.4956093252
 21
42.7080605185
  0
LINE
  5
24F
100
AcDbEntity
  8
0
100
AcDbLine
 62
7
  6
BYLAYER
 10
29.4080004361
 20
32.063937739
 11
29.4080004361
 21
16.0177298689
  0
LINE
  5
250
100
AcDbEntity
  8
0
100
AcDbLine
 62
7
  6
BYLAYER
 10
29.4429824681
 20
36.4055037945
 11
29.4429824681
 21
36.4126746801
  0
LINE
  5
251
100
AcDbEntity
  8
0
100
AcDbLine
 62
7
  6
BYLAYER
 10
29.4519339773
 20
16.0789659821
 11
29.4519339773
 21
32.0893026294
  0
LINE
  5
252
100
AcDbEntity
  8
0
100
AcDbLine
 62
7
  6
BYLAYER
 10
29.541053738
 20
36.3013275756
 11
29.541053738
 21
32.1407556401
  0
LINE
  5
253
100
AcDbEntity
  8
0
100
AcDbLine
 62
7
  6
BYLAYER
 10
29.541053738
 20
15.9740009786
 11
29.541053738
 21
11.8108318253
  0
LINE
  5
254
100
AcDbEntity
  8
0
100
AcDbLine
 62
7
  6
BYLAYER
 10
29.600854008
 20
11.7400883191
 11
29.600854008
 21
16.0777686134
  0
LINE
  5
255
100
AcDbEntity
  8
0
100
AcDbLine
 62
7
  6
BYLAYER
 10
29.600854008
 20
32.2445232749
 11
29.600854008
 21
36.4050952104
  0
LINE
  5
256
100
AcDbEntity
  8
0
100
AcDbLine
 62
7
  6
BYLAYER
 10
29.600854008
 20
36.5683956938
 11
29.600854008
 21
37.0148441201
  0
LINE
  5
257
100
AcDbEntity
  8
0
100
AcDbLine
 62
7
  6
BYLAYER
 10
19.8309340123
 20
12.3115518283
 11
19.7257382795
 21
12.2508174063
  0
LINE
  5
258
100
AcDbEntity
  8
0
100
AcDbLine
 62
7
  6
BYLAYER
 10
19.9304612788
 20
11.9356278156
 11
20.0356570115
 21
11.9963622377
  0
LINE
  5
259
100
AcDbEntity
  8
0
100
AcDbLine
 62
7
  6
BYLAYER
 10
29.541053738
 20
15.9740009786
 11
29.6008178627
 21
16.0777686568
  0
LINE
  5
25A
100
AcDbEntity
  8
0
100
AcDbLine
 62
7
  6
BYLAYER
 10
29.4519307234
 20
16.0789659821
 11
29.4080004361
 21
16.0177298689
  0
LINE
  5
25B
100
AcDbEntity
  8
0
100
AcDbLine
 62
7
  6
BYLAYER
 10
19.2764151651
 20
8.034839782
 11
18.4099807449
 21
7.2861874388
  0
LINE
  5
25C
100
AcDbEntity
  8
0
100
AcDbLine
 62
7
  6
BYLAYER
 10
21.3452770061
 20
11.3627421127
 11
29.4080004361
 21
16.0177298689
  0
LINE
  5
25D
100
AcDbEntity
  8
0
100
AcDbLine
 62
7
  6
BYLAYER
 10
21.419605649
 20
11.2851087271
 11
29.541053738
 21
15.9740009786
  0
LINE
  5
25E
100
AcDbEntity
  8
0
100
AcDbLine
 62
7
  6
BYLAYER
 10
26.0488563762
 20
41.3044698687
 11
26.1988439385
 21
41.3193111453
  0
LINE
  5
25F
100
AcDbEntity
  8
0
100
AcDbLine
 62
7
  6
BYLAYER
 10
26.0574219935
 20
41.4009592962
 11
25.9074344311
 21
41.3861180197
  0
LINE
  5
260
100
AcDbEntity
  8
0
100
AcDbLine
 62
7
  6
BYLAYER
 10
29.541053738
 20
11.8108318253
 11
21.419605649
 21
7.1219395738
  0
LINE
  5
261
100
AcDbEntity
  8
0
100
AcDbLine
 62
7
  6
BYLAYER
 10
29.5992291454
 20
11.7390991877
 11
21.2377901571
 21
6.911648953
  0
LWPOLYLINE
  5
262
100
AcDbEntity
  8
0
100
AcDbPolyline
 62
7
  6
BYLAYER
 90
5
 70
0
 10
18.4099807449
 20
7.2861874388
 10
17.1132655262
 20
6.7859522105
 10
15.5836826463
 20
6.610290376
 10
14.0540972329
 20
6.7859448572
 10
12.7573747996
 20
7.2861738516
  0
LINE
  5
263
100
AcDbEntity
  8
0
100
AcDbLine
 62
7
  6
BYLAYER
 10
15.5565930694
 20
47.3620438727
 11
25.9074344311
 21
41.3861180197
  0
LINE
  5
264
100
AcDbEntity
  8
0
100
AcDbLine
 62
7
  6
BYLAYER
 10
26.0488563762
 20
41.3044698687
 11
26.9591400672
 21
40.778929224
  0
LINE
  5
265
100
AcDbEntity
  8
0
100
AcDbLine
 62
7
  6
BYLAYER
 10
15.5843377946
 20
47.4474832877
 11
26.0574318861
 21
41.400976385
  0
LINE
  5
266
100
AcDbEntity
  8
0
100
AcDbLine
 62
7
  6
BYLAYER
 10
26.1988538311
 20
41.3193282341
 11
27.5819987609
 21
40.520787202
  0
ARC
  5
267
100
AcDbEntity
  8
0
100
AcDbCircle
 62
7
  6
BYLAYER
 10
14.530620212
 20
13.527500875
 40
4.0511814549
100
AcDbArc
 50
236.6842918607
 51
240.0348369207
  0
ARC
  5
268
100
AcDbEntity
  8
0
100
AcDbCircle
 62
7
  6
BYLAYER
 10
13.144336376
 20
14.1929972461
 40
2.4174348874
100
AcDbArc
 50
209.9987231175
 51
213.9230090848
  0
ARC
  5
269
100
AcDbEntity
  8
0
100
AcDbCircle
 62
7
  6
BYLAYER
 10
9.1406676552
 20
20.4352797469
 40
2.071315126
100
AcDbArc
 50
206.8839443861
 51
210.0031901294
  0
ARC
  5
26A
100
AcDbEntity
  8
0
100
AcDbCircle
 62
7
  6
BYLAYER
 10
12.622827297
 20
12.0832169056
 40
1.5349957651
100
AcDbArc
 50
188.4060901908
 51
190.0460919091
  0
ARC
  5
26B
100
AcDbEntity
  8
0
100
AcDbCircle
 62
7
  6
BYLAYER
 10
12.5989766619
 20
12.0798819408
 40
1.5109138414
100
AcDbArc
 50
180.0164751686
 51
188.4132021115
  0
ARC
  5
26C
100
AcDbEntity
  8
0
100
AcDbCircle
 62
7
  6
BYLAYER
 10
12.9299906187
 20
10.5590024395
 40
1.3433207215
100
AcDbArc
 50
171.7292806302
 51
179.97654653
  0
ARC
  5
26D
100
AcDbEntity
  8
0
100
AcDbCircle
 62
7
  6
BYLAYER
 10
17.8793330858
 20
7.6700637559
 40
1.1544562448
100
AcDbArc
 50
0.0110625712
 51
6.0070410888
  0
ARC
  5
26E
100
AcDbEntity
  8
0
100
AcDbCircle
 62
7
  6
BYLAYER
 10
13.2879075415
 20
7.6700889882
 40
1.1543648571
100
AcDbArc
 50
173.9938073482
 51
179.9901889344
  0
ARC
  5
26F
100
AcDbEntity
  8
0
100
AcDbCircle
 62
7
  6
BYLAYER
 10
18.2870470993
 20
36.2328111524
 40
0.5186542672
100
AcDbArc
 50
144.8241303444
 51
155.1742184685
  0
ARC
  5
270
100
AcDbEntity
  8
0
100
AcDbCircle
 62
7
  6
BYLAYER
 10
18.6000850355
 20
28.8560999529
 40
0.1416337702
100
AcDbArc
 50
149.8527933614
 51
154.3533751184
  0
SPLINE
  5
271
100
AcDbEntity
  8
0
100
AcDbSpline
 62
7
  6
BYLAYER
 70
0
 71
3
 72
15
 73
11
 74
0
 42
0.0000001
 43
0.0000001
 44
0.0000000001
 40
0.0
 40
0.0
 40
0.0
 40
0.0
 40
0.1080089952
 40
0.2180553208
 40
0.3319991808
 40
0.4513502552
 40
0.5772550129
 40
0.7104978113
 40
0.8514744011
 40
1.0
 40
1.0
 40
1.0
 40
1.0
 10
19.0337850986
 20
5.9498602867
 30
0.0
 10
19.0337853465
 20
5.8845475547
 30
0.0
 10
19.0224215338
 20
5.7524282767
 30
0.0
 10
18.9718296251
 20
5.5572634548
 30
0.0
 10
18.88822084
 20
5.3663324503
 30
0.0
 10
18.7728151768
 20
5.1815061997
 30
0.0
 10
18.6267729135
 20
5.0045128063
 30
0.0
 10
18.4516349672
 20
4.8368520491
 30
0.0
 10
18.2491346196
 20
4.6801754344
 30
0.0
 10
18.101062208
 20
4.5862856487
 30
0.0
 10
18.0232817463
 20
4.5413793462
 30
0.0
  0
SPLINE
  5
272
100
AcDbEntity
  8
0
100
AcDbSpline
 62
7
  6
BYLAYER
 70
0
 71
3
 72
14
 73
10
 74
0
 42
0.0000001
 43
0.0000001
 44
0.0000000001
 40
0.0
 40
0.0
 40
0.0
 40
0.0
 40
0.2892182204
 40
0.422573064
 40
0.5485289745
 40
0.6679004585
 40
0.781862937
 40
0.891954353
 40
1.0
 40
1.0
 40
1.0
 40
1.0
 10
20.3213364913
 20
30.1593320494
 30
0.0
 10
20.3213364913
 20
30.0833179724
 30
0.0
 10
20.3124308482
 20
29.9717144334
 30
0.0
 10
20.278160819
 20
29.8314249875
 30
0.0
 10
20.243233794
 20
29.7379441534
 30
0.0
 10
20.1987575738
 20
29.6543038189
 30
0.0
 10
20.1450001094
 20
29.5813555279
 30
0.0
 10
20.0825446007
 20
29.5198527608
 30
0.0
 10
20.0352593878
 20
29.4868549643
 30
0.0
 10
20.0106642645
 20
29.4726605511
 30
0.0
  0
SPLINE
  5
273
100
AcDbEntity
  8
0
100
AcDbSpline
 62
7
  6
BYLAYER
 70
0
 71
3
 72
14
 73
10
 74
0
 42
0.0000001
 43
0.0000001
 44
0.0000000001
 40
0.0
 40
0.0
 40
0.0
 40
0.0
 40
0.2892182204
 40
0.422573064
 40
0.5485289745
 40
0.6679004585
 40
0.781862937
 40
0.891954353
 40
1.0
 40
1.0
 40
1.0
 40
1.0
 10
20.3213364913
 20
9.4201706543
 30
0.0
 10
20.3213364913
 20
9.3441565773
 30
0.0
 10
20.3124308482
 20
9.2325530383
 30
0.0
 10
20.278160819
 20
9.0922635924
 30
0.0
 10
20.243233794
 20
8.9987827583
 30
0.0
 10
20.1987575738
 20
8.9151424238
 30
0.0
 10
20.1450001094
 20
8.8421941328
 30
0.0
 10
20.0825446007
 20
8.7806913657
 30
0.0
 10
20.0352593878
 20
8.7476935692
 30
0.0
 10
20.0106642645
 20
8.733499156
 30
0.0
  0
SPLINE
  5
274
100
AcDbEntity
  8
0
100
AcDbSpline
 62
7
  6
BYLAYER
 70
0
 71
3
 72
9
 73
5
 74
0
 42
0.0000001
 43
0.0000001
 44
0.0000000001
 40
0.0
 40
0.0
 40
0.0
 40
0.0
 40
0.2560009566
 40
1.0
 40
1.0
 40
1.0
 40
1.0
 10
26.1136569449
 20
41.3175278484
 30
0.0
 10
26.1131901894
 20
41.3194932188
 30
0.0
 10
26.1112471394
 20
41.3271411246
 30
0.0
 10
26.108813969
 20
41.3346672418
 30
0.0
 10
26.1067030859
 20
41.3401453126
 30
0.0
  0
SPLINE
  5
275
100
AcDbEntity
  8
0
100
AcDbSpline
 62
7
  6
BYLAYER
 70
0
 71
3
 72
9
 73
5
 74
0
 42
0.0000001
 43
0.0000001
 44
0.0000000001
 40
0.0
 40
0.0
 40
0.0
 40
0.0
 40
0.520926487
 40
1.0
 40
1.0
 40
1.0
 40
1.0
 10
26.1067030859
 20
41.3401453126
 30
0.0
 10
26.101742542
 20
41.353018698
 30
0.0
 10
26.0888827847
 20
41.3767298197
 30
0.0
 10
26.0684143491
 20
41.3946233514
 30
0.0
 10
26.0574285545
 20
41.4009706577
 30
0.0
  0
SPLINE
  5
276
100
AcDbEntity
  8
0
100
AcDbSpline
 62
7
  6
BYLAYER
 70
0
 71
3
 72
15
 73
11
 74
0
 42
0.0000001
 43
0.0000001
 44
0.0000000001
 40
0.0
 40
0.0
 40
0.0
 40
0.0
 40
0.113316023
 40
0.2320222897
 40
0.355278372
 40
0.4821891644
 40
0.6115088084
 40
0.7418631132
 40
0.8718301413
 40
1.0
 40
1.0
 40
1.0
 40
1.0
 10
12.5071630484
 20
10.0178438707
 30
0.0
 10
12.6552777938
 20
9.9323317172
 30
0.0
 10
12.9692590353
 20
9.7753478786
 30
0.0
 10
13.4717936369
 20
9.5860158515
 30
0.0
 10
14.009621659
 20
9.4392063657
 30
0.0
 10
14.5737931031
 20
9.3365973237
 30
0.0
 10
15.1551065594
 20
9.2795792318
 30
0.0
 10
15.7437179126
 20
9.2689460114
 30
0.0
 10
16.3295559344
 20
9.304824477
 30
0.0
 10
16.7157599538
 20
9.360038492
 30
0.0
 10
16.9059189118
 20
9.3955480939
 30
0.0
  0
SPLINE
  5
277
100
AcDbEntity
  8
0
100
AcDbSpline
 62
7
  6
BYLAYER
 70
0
 71
3
 72
22
 73
18
 74
0
 42
0.0000001
 43
0.0000001
 44
0.0000000001
 40
0.0
 40
0.0
 40
0.0
 40
0.0
 40
0.0428179779
 40
0.0874049377
 40
0.1351917774
 40
0.1871085277
 40
0.2435607828
 40
0.3045238168
 40
0.3696299415
 40
0.4382444271
 40
0.5095514893
 40
0.5825942412
 40
0.7296172789
 40
0.8016125154
 40
0.8712251595
 40
0.9376261371
 40
1.0
 40
1.0
 40
1.0
 40
1.0
 10
18.5106795427
 20
11.3315644162
 30
0.0
 10
18.5476620266
 20
11.352907861
 30
0.0
 10
18.6291694493
 20
11.3868066504
 30
0.0
 10
18.7637326664
 20
11.4064976405
 30
0.0
 10
18.9082296383
 20
11.3958935681
 30
0.0
 10
19.0594525149
 20
11.3556982979
 30
0.0
 10
19.2144357717
 20
11.2872078559
 30
0.0
 10
19.3701011398
 20
11.1919915304
 30
0.0
 10
19.5232602053
 20
11.0720663905
 30
0.0
 10
19.6707710255
 20
10.9300276885
 30
0.0
 10
19.8095090311
 20
10.7688252627
 30
0.0
 10
19.9791253458
 20
10.532579611
 30
0.0
 10
20.1185508565
 20
10.2749285804
 30
0.0
 10
20.2218000775
 20
10.0059465677
 30
0.0
 10
20.2782296327
 20
9.8059852532
 30
0.0
 10
20.3128710701
 20
9.6108737971
 30
0.0
 10
20.3213364913
 20
9.4823719185
 30
0.0
 10
20.3213364913
 20
9.4201706543
 30
0.0
  0
SPLINE
  5
278
100
AcDbEntity
  8
0
100
AcDbSpline
 62
7
  6
BYLAYER
 70
0
 71
3
 72
22
 73
18
 74
0
 42
0.0000001
 43
0.0000001
 44
0.0000000001
 40
0.0
 40
0.0
 40
0.0
 40
0.0
 40
0.0428179779
 40
0.0874049377
 40
0.1351917774
 40
0.1871085277
 40
0.2435607828
 40
0.3045238168
 40
0.3696299415
 40
0.4382444271
 40
0.5095514893
 40
0.5825942412
 40
0.7296172789
 40
0.8016125154
 40
0.8712251595
 40
0.9376261371
 40
1.0
 40
1.0
 40
1.0
 40
1.0
 10
18.5106795427
 20
32.0707258113
 30
0.0
 10
18.5476620266
 20
32.092069256
 30
0.0
 10
18.6291694493
 20
32.1259680455
 30
0.0
 10
18.7637326664
 20
32.1456590356
 30
0.0
 10
18.9082296383
 20
32.1350549632
 30
0.0
 10
19.0594525149
 20
32.094859693
 30
0.0
 10
19.2144357717
 20
32.026369251
 30
0.0
 10
19.3701011398
 20
31.9311529255
 30
0.0
 10
19.5232602053
 20
31.8112277856
 30
0.0
 10
19.6707710255
 20
31.6691890836
 30
0.0
 10
19.8095090311
 20
31.5079866578
 30
0.0
 10
19.9791253458
 20
31.2717410061
 30
0.0
 10
20.1185508565
 20
31.0140899755
 30
0.0
 10
20.2218000775
 20
30.7451079627
 30
0.0
 10
20.2782296327
 20
30.5451466483
 30
0.0
 10
20.3128710701
 20
30.3500351922
 30
0.0
 10
20.3213364913
 20
30.2215333136
 30
0.0
 10
20.3213364913
 20
30.1593320494
 30
0.0
  0
SPLINE
  5
279
100
AcDbEntity
  8
0
100
AcDbSpline
 62
7
  6
BYLAYER
 70
0
 71
3
 72
9
 73
5
 74
0
 42
0.0000001
 43
0.0000001
 44
0.0000000001
 40
0.0
 40
0.0
 40
0.0
 40
0.0
 40
0.4779782219
 40
1.0
 40
1.0
 40
1.0
 40
1.0
 10
29.6008466227
 20
36.4050952508
 30
0.0
 10
29.6008508419
 20
36.4182500061
 30
0.0
 10
29.5951343265
 20
36.4459700217
 30
0.0
 10
29.580064429
 20
36.4696288817
 30
0.0
 10
29.5708187146
 20
36.4806254633
 30
0.0
  0
SPLINE
  5
27A
100
AcDbEntity
  8
0
100
AcDbSpline
 62
7
  6
BYLAYER
 70
0
 71
3
 72
9
 73
5
 74
0
 42
0.0000001
 43
0.0000001
 44
0.0000000001
 40
0.0
 40
0.0
 40
0.0
 40
0.0
 40
0.4998932052
 40
1.0
 40
1.0
 40
1.0
 40
1.0
 10
29.6008864616
 20
37.0148494919
 30
0.0
 10
29.600972214
 20
37.1266265501
 30
0.0
 10
29.5890311052
 20
37.3504283737
 30
0.0
 10
29.5456882791
 20
37.5711129999
 30
0.0
 10
29.5132049536
 20
37.678115947
 30
0.0
  0
SPLINE
  5
27B
100
AcDbEntity
  8
0
100
AcDbSpline
 62
7
  6
BYLAYER
 70
0
 71
3
 72
11
 73
7
 74
0
 42
0.0000001
 43
0.0000001
 44
0.0000000001
 40
0.0
 40
0.0
 40
0.0
 40
0.0
 40
0.2200709812
 40
0.4541797879
 40
0.7128786496
 40
1.0
 40
1.0
 40
1.0
 40
1.0
 10
18.4120757374
 20
28.9069902074
 30
0.0
 10
18.4215073925
 20
28.9124330183
 30
0.0
 10
18.4429774518
 20
28.9204712978
 30
0.0
 10
18.4786564643
 20
28.9222664349
 30
0.0
 10
18.5167612632
 20
28.9143385983
 30
0.0
 10
18.5417132803
 20
28.9035607092
 30
0.0
 10
18.5542677838
 20
28.8969101874
 30
0.0
  0
SPLINE
  5
27C
100
AcDbEntity
  8
0
100
AcDbSpline
 62
7
  6
BYLAYER
 70
0
 71
3
 72
12
 73
8
 74
0
 42
0.0000001
 43
0.0000001
 44
0.0000000001
 40
0.0
 40
0.0
 40
0.0
 40
0.0
 40
0.2429762235
 40
0.5031523339
 40
0.7615451649
 40
0.8844765789
 40
1.0
 40
1.0
 40
1.0
 40
1.0
 10
21.419605649
 20
27.4518633886
 30
0.0
 10
21.3910727711
 20
27.4395368109
 30
0.0
 10
21.3285176558
 20
27.421785563
 30
0.0
 10
21.2308876961
 20
27.4142884685
 30
0.0
 10
21.1487179148
 20
27.4234526652
 30
0.0
 10
21.0873757892
 20
27.4404696275
 30
0.0
 10
21.0590228403
 20
27.4519812605
 30
0.0
 10
21.0457523568
 20
27.45848344
 30
0.0
  0
SPLINE
  5
27D
100
AcDbEntity
  8
0
100
AcDbSpline
 62
7
  6
BYLAYER
 70
0
 71
3
 72
11
 73
7
 74
0
 42
0.0000001
 43
0.0000001
 44
0.0000000001
 40
0.0
 40
0.0
 40
0.0
 40
0.0
 40
0.2176455466
 40
0.4508449722
 40
0.7106220054
 40
1.0
 40
1.0
 40
1.0
 40
1.0
 10
29.6008466227
 20
16.0777686538
 30
0.0
 10
29.6008502851
 20
16.0891875683
 30
0.0
 10
29.5966239281
 20
16.1129975019
 30
0.0
 10
29.5785818665
 20
16.1462095227
 30
0.0
 10
29.5499964275
 20
16.176175118
 30
0.0
 10
29.5261335816
 20
16.192650786
 30
0.0
 10
29.5129851592
 20
16.2002418595
 30
0.0
  0
SPLINE
  5
27E
100
AcDbEntity
  8
0
100
AcDbSpline
 62
7
  6
BYLAYER
 70
0
 71
3
 72
11
 73
7
 74
0
 42
0.0000001
 43
0.0000001
 44
0.0000000001
 40
0.0
 40
0.0
 40
0.0
 40
0.0
 40
0.2480050547
 40
0.5081864844
 40
0.7640575985
 40
1.0
 40
1.0
 40
1.0
 40
1.0
 10
21.3948524264
 20
31.7661123703
 30
0.0
 10
21.36696654
 20
31.756398572
 30
0.0
 10
21.3075013104
 20
31.7428872333
 30
0.0
 10
21.2161622911
 20
31.7390440149
 30
0.0
 10
21.1269747544
 20
31.751018581
 30
0.0
 10
21.0709799098
 20
31.7699950374
 30
0.0
 10
21.0457523568
 20
31.782355859
 30
0.0
  0
SPLINE
  5
27F
100
AcDbEntity
  8
0
100
AcDbSpline
 62
7
  6
BYLAYER
 70
0
 71
3
 72
15
 73
11
 74
0
 42
0.0000001
 43
0.0000001
 44
0.0000000001
 40
0.0
 40
0.0
 40
0.0
 40
0.0
 40
0.117517961
 40
0.2357136995
 40
0.3553074384
 40
0.4770495475
 40
0.6017220037
 40
0.7300324488
 40
0.862683464
 40
1.0
 40
1.0
 40
1.0
 40
1.0
 10
11.0880880877
 20
12.0799602881
 30
0.0
 10
11.0880476106
 20
11.9865274626
 30
0.0
 10
11.1023906256
 20
11.7987973173
 30
0.0
 10
11.1666906137
 20
11.5227021892
 30
0.0
 10
11.2713669561
 20
11.2556775423
 30
0.0
 10
11.4139749013
 20
11.0010673472
 30
0.0
 10
11.5912612675
 20
10.7607515217
 30
0.0
 10
11.800696101
 20
10.5359943807
 30
0.0
 10
12.0397508444
 20
10.3275894984
 30
0.0
 10
12.2142815849
 20
10.2020862649
 30
0.0
 10
12.3055009335
 20
10.1421035015
 30
0.0
  0
SPLINE
  5
280
100
AcDbEntity
  8
0
100
AcDbSpline
 62
7
  6
BYLAYER
 70
0
 71
3
 72
25
 73
21
 74
0
 42
0.0000001
 43
0.0000001
 44
0.0000000001
 40
0.0
 40
0.0
 40
0.0
 40
0.0
 40
0.0623734201
 40
0.128728588
 40
0.1983149442
 40
0.2702932931
 40
0.3436698875
 40
0.4174008447
 40
0.4904261433
 40
0.5617139898
 40
0.6303116562
 40
0.6953988796
 40
0.7563464525
 40
0.8127840591
 40
0.8646840479
 40
0.9124581987
 40
0.9351031817
 40
0.9571080711
 40
0.9786683515
 40
1.0
 40
1.0
 40
1.0
 40
1.0
 10
18.0232817463
 20
4.5413793462
 30
0.0
 10
17.8993450309
 20
4.4698248774
 30
0.0
 10
17.6336835948
 20
4.3388648744
 30
0.0
 10
17.2051853615
 20
4.1835661383
 30
0.0
 10
16.7420837791
 20
4.066029364
 30
0.0
 10
16.2543775958
 20
3.9886763634
 30
0.0
 10
15.7523455673
 20
3.953194887
 30
0.0
 10
15.2467209655
 20
3.9603167826
 30
0.0
 10
14.7482786417
 20
4.0098780697
 30
0.0
 10
14.2676414803
 20
4.100837967
 30
0.0
 10
13.8150307546
 20
4.2312875741
 30
0.0
 10
13.4000106958
 20
4.3984924851
 30
0.0
 10
13.0312971406
 20
4.5990224741
 30
0.0
 10
12.7165992218
 20
4.8289820881
 30
0.0
 10
12.462672281
 20
5.0839336097
 30
0.0
 10
12.3037308226
 20
5.3178496458
 30
0.0
 10
12.2151280024
 20
5.5109632292
 30
0.0
 10
12.1681784389
 20
5.6558349971
 30
0.0
 10
12.1398833924
 20
5.8023933378
 30
0.0
 10
12.1335470977
 20
5.9009169517
 30
0.0
 10
12.1335469119
 20
5.9498602873
 30
0.0
  0
SPLINE
  5
281
100
AcDbEntity
  8
0
100
AcDbSpline
 62
7
  6
BYLAYER
 70
0
 71
3
 72
9
 73
5
 74
0
 42
0.0000001
 43
0.0000001
 44
0.0000000001
 40
0.0
 40
0.0
 40
0.0
 40
0.0
 40
0.4755213274
 40
1.0
 40
1.0
 40
1.0
 40
1.0
 10
17.7757414808
 20
36.2830625433
 30
0.0
 10
17.7757414808
 20
36.3105359328
 30
0.0
 10
17.7839591135
 20
36.3683593483
 30
0.0
 10
17.803611657
 20
36.4230664433
 30
0.0
 10
17.8163223758
 20
36.4505736001
 30
0.0
  0
SPLINE
  5
282
100
AcDbEntity
  8
0
100
AcDbSpline
 62
7
  6
BYLAYER
 70
0
 71
3
 72
9
 73
5
 74
0
 42
0.0000001
 43
0.0000001
 44
0.0000000001
 40
0.0
 40
0.0
 40
0.0
 40
0.0
 40
0.5244793035
 40
1.0
 40
1.0
 40
1.0
 40
1.0
 10
17.8631055364
 20
36.5316017148
 30
0.0
 10
17.8805709527
 20
36.5563599524
 30
0.0
 10
17.9181193642
 20
36.6007274505
 30
0.0
 10
17.9640825294
 20
36.6367513745
 30
0.0
 10
17.9878726319
 20
36.6504865146
 30
0.0
  0
SPLINE
  5
283
100
AcDbEntity
  8
0
100
AcDbSpline
 62
7
  6
BYLAYER
 70
0
 71
3
 72
13
 73
9
 74
0
 42
0.0000001
 43
0.0000001
 44
0.0000000001
 40
0.0
 40
0.0
 40
0.0
 40
0.0
 40
0.1219826011
 40
0.2465123109
 40
0.4995129993
 40
0.7527623947
 40
0.8775931388
 40
1.0
 40
1.0
 40
1.0
 40
1.0
 10
28.0669067094
 20
40.1585350389
 30
0.0
 10
28.1481971768
 20
40.0734132255
 30
0.0
 10
28.3069853137
 20
39.8960631723
 30
0.0
 10
28.6066098147
 20
39.5182410764
 30
0.0
 10
28.9428372825
 20
39.0092233364
 30
0.0
 10
29.220405096
 20
38.4656657581
 30
0.0
 10
29.4021330552
 20
38.0179996457
 30
0.0
 10
29.4786755731
 20
37.7918586052
 30
0.0
 10
29.5129851592
 20
37.6788397943
 30
0.0
  0
SPLINE
  5
284
100
AcDbEntity
  8
0
100
AcDbSpline
 62
7
  6
BYLAYER
 70
0
 71
3
 72
9
 73
5
 74
0
 42
0.0000001
 43
0.0000001
 44
0.0000000001
 40
0.0
 40
0.0
 40
0.0
 40
0.0
 40
0.5001663428
 40
1.0
 40
1.0
 40
1.0
 40
1.0
 10
28.0653264756
 20
40.1601904326
 30
0.0
 10
27.9939031727
 20
40.2312406249
 30
0.0
 10
27.8387982485
 20
40.3611084791
 30
0.0
 10
27.6691605886
 20
40.4704264885
 30
0.0
 10
27.5819661307
 20
40.520755876
 30
0.0
  0
SPLINE
  5
285
100
AcDbEntity
  8
0
100
AcDbSpline
 62
7
  6
BYLAYER
 70
0
 71
3
 72
17
 73
13
 74
0
 42
0.0000001
 43
0.0000001
 44
0.0000000001
 40
0.0
 40
0.0
 40
0.0
 40
0.0
 40
0.2452886885
 40
0.3701181692
 40
0.4959867307
 40
0.6226532414
 40
0.7498111193
 40
0.8135682578
 40
0.8768353004
 40
0.9407345691
 40
0.9719866396
 40
1.0
 40
1.0
 40
1.0
 40
1.0
 10
21.2377938291
 20
6.9116699498
 30
0.0
 10
21.2172805255
 20
6.9237904312
 30
0.0
 10
21.1878822971
 20
6.944815005
 30
0.0
 10
21.1517934507
 20
6.9767557988
 30
0.0
 10
21.1259445474
 20
7.0027857309
 30
0.0
 10
21.1015844244
 20
7.0305045736
 30
0.0
 10
21.0826490773
 20
7.0548887091
 30
0.0
 10
21.0685721927
 20
7.0751812578
 30
0.0
 10
21.0585792012
 20
7.0908036501
 30
0.0
 10
21.0512166952
 20
7.1043695665
 30
0.0
 10
21.0468535859
 20
7.115520199
 30
0.0
 10
21.0457523568
 20
7.1212617411
 30
0.0
 10
21.0457523568
 20
7.1239828616
 30
0.0
  0
SPLINE
  5
286
100
AcDbEntity
  8
0
100
AcDbSpline
 62
7
  6
BYLAYER
 70
0
 71
3
 72
14
 73
10
 74
0
 42
0.0000001
 43
0.0000001
 44
0.0000000001
 40
0.0
 40
0.0
 40
0.0
 40
0.0
 40
0.1461176505
 40
0.2857927098
 40
0.5451539519
 40
0.6658129239
 40
0.7811847113
 40
0.8921851801
 40
1.0
 40
1.0
 40
1.0
 40
1.0
 10
12.4047992367
 20
10.2441388545
 30
0.0
 10
12.3162835685
 20
10.2952422432
 30
0.0
 10
12.1466599342
 20
10.4015503988
 30
0.0
 10
11.8406707501
 20
10.6294451774
 30
0.0
 10
11.57753693
 20
10.8843524946
 30
0.0
 10
11.3713402579
 20
11.1636685178
 30
0.0
 10
11.2509719523
 20
11.3752170394
 30
0.0
 10
11.1623592568
 20
11.5922483232
 30
0.0
 10
11.1245202682
 20
11.7411917903
 30
0.0
 10
11.1113664828
 20
11.8154516987
 30
0.0
  0
SPLINE
  5
287
100
AcDbEntity
  8
0
100
AcDbSpline
 62
7
  6
BYLAYER
 70
0
 71
3
 72
14
 73
10
 74
0
 42
0.0000001
 43
0.0000001
 44
0.0000000001
 40
0.0
 40
0.0
 40
0.0
 40
0.0
 40
0.2892182204
 40
0.422573064
 40
0.5485289745
 40
0.6679004585
 40
0.781862937
 40
0.891954353
 40
1.0
 40
1.0
 40
1.0
 40
1.0
 10
18.2000073159
 20
10.6448929179
 30
0.0
 10
18.2000073159
 20
10.7209069949
 30
0.0
 10
18.2089129589
 20
10.8325105339
 30
0.0
 10
18.2431829882
 20
10.9727999798
 30
0.0
 10
18.2781100132
 20
11.0662808139
 30
0.0
 10
18.3225862334
 20
11.1499211484
 30
0.0
 10
18.3763436978
 20
11.2228694394
 30
0.0
 10
18.4387992064
 20
11.2843722065
 30
0.0
 10
18.4860844194
 20
11.317370003
 30
0.0
 10
18.5106795427
 20
11.3315644162
 30
0.0
  0
SPLINE
  5
288
100
AcDbEntity
  8
0
100
AcDbSpline
 62
7
  6
BYLAYER
 70
0
 71
3
 72
9
 73
5
 74
0
 42
0.0000001
 43
0.0000001
 44
0.0000000001
 40
0.0
 40
0.0
 40
0.0
 40
0.0
 40
0.2441465931
 40
1.0
 40
1.0
 40
1.0
 40
1.0
 10
18.4724049372
 20
28.9174018075
 30
0.0
 10
18.4715934397
 20
28.9157130012
 30
0.0
 10
18.4684014944
 20
28.9087328403
 30
0.0
 10
18.4657288364
 20
28.9015183621
 30
0.0
 10
18.4639788194
 20
28.8959879846
 30
0.0
  0
SPLINE
  5
289
100
AcDbEntity
  8
0
100
AcDbSpline
 62
7
  6
BYLAYER
 70
0
 71
3
 72
9
 73
5
 74
0
 42
0.0000001
 43
0.0000001
 44
0.0000000001
 40
0.0
 40
0.0
 40
0.0
 40
0.0
 40
0.2349100613
 40
1.0
 40
1.0
 40
1.0
 40
1.0
 10
18.4639788194
 20
28.8959879846
 30
0.0
 10
18.4623631517
 20
28.8908821759
 30
0.0
 10
18.4564599065
 20
28.8688420418
 30
0.0
 10
18.4543728666
 20
28.8458521752
 30
0.0
 10
18.4545655346
 20
28.828411174
 30
0.0
  0
SPLINE
  5
28A
100
AcDbEntity
  8
0
100
AcDbSpline
 62
7
  6
BYLAYER
 70
0
 71
3
 72
11
 73
7
 74
0
 42
0.0000001
 43
0.0000001
 44
0.0000000001
 40
0.0
 40
0.0
 40
0.0
 40
0.0
 40
0.2898541556
 40
0.549312538
 40
0.7824454094
 40
1.0
 40
1.0
 40
1.0
 40
1.0
 10
18.3493698018
 20
28.7676767519
 30
0.0
 10
18.3491995256
 20
28.7830907709
 30
0.0
 10
18.3515287925
 20
28.8124381984
 30
0.0
 10
18.3635210072
 20
28.8526428934
 30
0.0
 10
18.3832887695
 20
28.885421901
 30
0.0
 10
18.4020546989
 20
28.9012072756
 30
0.0
 10
18.4120757374
 20
28.9069902074
 30
0.0
  0
SPLINE
  5
28B
100
AcDbEntity
  8
0
100
AcDbSpline
 62
7
  6
BYLAYER
 70
0
 71
3
 72
14
 73
10
 74
0
 42
0.0000001
 43
0.0000001
 44
0.0000000001
 40
0.0
 40
0.0
 40
0.0
 40
0.0
 40
0.1105601309
 40
0.2306822416
 40
0.3578233811
 40
0.4893101946
 40
0.7534330638
 40
0.8805275862
 40
1.0
 40
1.0
 40
1.0
 40
1.0
 10
19.9304612788
 20
11.9356278156
 30
0.0
 10
19.9177125671
 20
11.9421782287
 30
0.0
 10
19.8923261165
 20
11.9582593815
 30
0.0
 10
19.8568730926
 20
11.9883575825
 30
0.0
 10
19.8236108437
 20
12.0246487121
 30
0.0
 10
19.7836556216
 20
12.0794993154
 30
0.0
 10
19.7526347486
 20
12.1404901303
 30
0.0
 10
19.7330162867
 20
12.2038353296
 30
0.0
 10
19.7273319888
 20
12.2354111301
 30
0.0
 10
19.7257382795
 20
12.2508174063
 30
0.0
  0
SPLINE
  5
28C
100
AcDbEntity
  8
0
100
AcDbSpline
 62
7
  6
BYLAYER
 70
0
 71
3
 72
22
 73
18
 74
0
 42
0.0000001
 43
0.0000001
 44
0.0000000001
 40
0.0
 40
0.0
 40
0.0
 40
0.0
 40
0.0065212133
 40
0.0212244582
 40
0.0438757702
 40
0.0741163551
 40
0.111662917
 40
0.1562390829
 40
0.2075937479
 40
0.2654987836
 40
0.4000632458
 40
0.4764535457
 40
0.5591293614
 40
0.6484664427
 40
0.7472776164
 40
0.8643614117
 40
1.0
 40
1.0
 40
1.0
 40
1.0
 10
29.6008316482
 20
11.7400750458
 30
0.0
 10
29.6008271263
 20
11.74028414
 30
0.0
 10
29.6002087005
 20
11.7407768382
 30
0.0
 10
29.5992454104
 20
11.7416804584
 30
0.0
 10
29.5974727463
 20
11.7430087983
 30
0.0
 10
29.5951773608
 20
11.7447498064
 30
0.0
 10
29.592267865
 20
11.746888484
 30
0.0
 10
29.5888149884
 20
11.7494145115
 30
0.0
 10
29.5848279748
 20
11.7523221087
 30
0.0
 10
29.5785124751
 20
11.7569318714
 30
0.0
 10
29.5715959106
 20
11.7620875794
 30
0.0
 10
29.5643762285
 20
11.7681388919
 30
0.0
 10
29.5584235758
 20
11.773430326
 30
0.0
 10
29.5519624006
 20
11.7792498206
 30
0.0
 10
29.5460943067
 20
11.7872497985
 30
0.0
 10
29.5424581713
 20
11.7980435278
 30
0.0
 10
29.5408314468
 20
11.8059753546
 30
0.0
 10
29.5400559677
 20
11.8102557658
 30
0.0
  0
SPLINE
  5
28D
100
AcDbEntity
  8
0
100
AcDbSpline
 62
7
  6
BYLAYER
 70
0
 71
3
 72
22
 73
18
 74
0
 42
0.0000001
 43
0.0000001
 44
0.0000000001
 40
0.0
 40
0.0
 40
0.0
 40
0.0
 40
0.0428179779
 40
0.0874049377
 40
0.1351917774
 40
0.1871085277
 40
0.2435607828
 40
0.3045238168
 40
0.3696299415
 40
0.4382444271
 40
0.5095514893
 40
0.5825942412
 40
0.7296172789
 40
0.8016125154
 40
0.8712251595
 40
0.9376261371
 40
1.0
 40
1.0
 40
1.0
 40
1.0
 10
20.0106642645
 20
8.733499156
 30
0.0
 10
19.9736817806
 20
8.7121557112
 30
0.0
 10
19.8921743578
 20
8.6782569218
 30
0.0
 10
19.7576111408
 20
8.6585659317
 30
0.0
 10
19.6131141688
 20
8.6691700041
 30
0.0
 10
19.4618912922
 20
8.7093652743
 30
0.0
 10
19.3069080354
 20
8.7778557163
 30
0.0
 10
19.1512426674
 20
8.8730720417
 30
0.0
 10
18.9980836018
 20
8.9929971817
 30
0.0
 10
18.8505727817
 20
9.1350358837
 30
0.0
 10
18.711834776
 20
9.2962383095
 30
0.0
 10
18.5422184614
 20
9.5324839612
 30
0.0
 10
18.4027929507
 20
9.7901349917
 30
0.0
 10
18.2995437297
 20
10.0591170045
 30
0.0
 10
18.2431141744
 20
10.259078319
 30
0.0
 10
18.208472737
 20
10.454189775
 30
0.0
 10
18.2000073159
 20
10.5826916537
 30
0.0
 10
18.2000073159
 20
10.6448929179
 30
0.0
  0
SPLINE
  5
28E
100
AcDbEntity
  8
0
100
AcDbSpline
 62
7
  6
BYLAYER
 70
0
 71
3
 72
9
 73
5
 74
0
 42
0.0000001
 43
0.0000001
 44
0.0000000001
 40
0.0
 40
0.0
 40
0.0
 40
0.0
 40
0.2480398188
 40
1.0
 40
1.0
 40
1.0
 40
1.0
 10
7.2245211659
 20
42.6231930558
 30
0.0
 10
7.2279519422
 20
42.6251739904
 30
0.0
 10
7.2418987619
 20
42.6329599402
 30
0.0
 10
7.256273316
 20
42.6399722993
 30
0.0
 10
7.2672495898
 20
42.6448469998
 30
0.0
  0
SPLINE
  5
28F
100
AcDbEntity
  8
0
100
AcDbSpline
 62
7
  6
BYLAYER
 70
0
 71
3
 72
16
 73
12
 74
0
 42
0.0000001
 43
0.0000001
 44
0.0000000001
 40
0.0
 40
0.0
 40
0.0
 40
0.0
 40
0.2477997475
 40
0.3731719891
 40
0.4992491312
 40
0.6261119612
 40
0.7530837592
 40
0.8164475587
 40
0.8802964348
 40
0.9433800709
 40
1.0
 40
1.0
 40
1.0
 40
1.0
 10
7.2672495898
 20
42.6448469998
 30
0.0
 10
7.2851858254
 20
42.6528127064
 30
0.0
 10
7.3129220285
 20
42.6632288559
 30
0.0
 10
7.3508423628
 20
42.674453339
 30
0.0
 10
7.3799294936
 20
42.6816805947
 30
0.0
 10
7.4093737768
 20
42.687897269
 30
0.0
 10
7.4340936753
 20
42.6923849325
 30
0.0
 10
7.4539164309
 20
42.695887927
 30
0.0
 10
7.4686988456
 20
42.698858981
 30
0.0
 10
7.4827989872
 20
42.7023711047
 30
0.0
 10
7.4917258467
 20
42.7058184045
 30
0.0
 10
7.4956093252
 20
42.7080605185
 30
0.0
  0
SPLINE
  5
290
100
AcDbEntity
  8
0
100
AcDbSpline
 62
7
  6
BYLAYER
 70
0
 71
3
 72
13
 73
9
 74
0
 42
0.0000001
 43
0.0000001
 44
0.0000000001
 40
0.0
 40
0.0
 40
0.0
 40
0.0
 40
0.114175582
 40
0.23756922
 40
0.49999856
 40
0.7624286893
 40
0.8858231943
 40
1.0
 40
1.0
 40
1.0
 40
1.0
 10
17.8464506869
 20
36.7321346655
 30
0.0
 10
17.83193902
 20
36.7237564008
 30
0.0
 10
17.8032597632
 20
36.7036322684
 30
0.0
 10
17.7495320434
 20
36.6533937471
 30
0.0
 10
17.6928326421
 20
36.5758775971
 30
0.0
 10
17.6540518339
 20
36.4880160881
 30
0.0
 10
17.6374079356
 20
36.4163668097
 30
0.0
 10
17.6343195357
 20
36.3814674783
 30
0.0
 10
17.6343195357
 20
36.3647106942
 30
0.0
  0
SPLINE
  5
291
100
AcDbEntity
  8
0
100
AcDbSpline
 62
7
  6
BYLAYER
 70
0
 71
3
 72
19
 73
15
 74
0
 42
0.0000001
 43
0.0000001
 44
0.0000000001
 40
0.0
 40
0.0
 40
0.0
 40
0.0
 40
0.1214819688
 40
0.2446795649
 40
0.3692487991
 40
0.4949038345
 40
0.621415937
 40
0.6849019653
 40
0.7485955118
 40
0.8124525894
 40
0.8759064344
 40
0.9402372503
 40
0.9718077712
 40
1.0
 40
1.0
 40
1.0
 40
1.0
 10
7.2219148901
 20
42.6194722198
 30
0.0
 10
7.2219197122
 20
42.6075170809
 30
0.0
 10
7.2230543558
 20
42.5834313159
 30
0.0
 10
7.2274614511
 20
42.5473345451
 30
0.0
 10
7.2343755057
 20
42.5112147929
 30
0.0
 10
7.2436136899
 20
42.4752865378
 30
0.0
 10
7.2530712501
 20
42.4456810263
 30
0.0
 10
7.2615335327
 20
42.4221911248
 30
0.0
 10
7.2682941627
 20
42.4046475446
 30
0.0
 10
7.2753752011
 20
42.3872330982
 30
0.0
 10
7.2827055138
 20
42.3698616235
 30
0.0
 10
7.2885956058
 20
42.3553095981
 30
0.0
 10
7.2922581718
 20
42.343658801
 30
0.0
 10
7.2932114082
 20
42.3377916093
 30
0.0
 10
7.2932114082
 20
42.335017189
 30
0.0
  0
SPLINE
  5
292
100
AcDbEntity
  8
0
100
AcDbSpline
 62
7
  6
BYLAYER
 70
0
 71
3
 72
14
 73
10
 74
0
 42
0.0000001
 43
0.0000001
 44
0.0000000001
 40
0.0
 40
0.0
 40
0.0
 40
0.0
 40
0.1194724138
 40
0.2465669362
 40
0.5106898054
 40
0.6421766189
 40
0.7693177584
 40
0.8894398691
 40
1.0
 40
1.0
 40
1.0
 40
1.0
 10
19.8309340123
 20
12.3115518283
 30
0.0
 10
19.8325277215
 20
12.2961455522
 30
0.0
 10
19.8382120194
 20
12.2645697516
 30
0.0
 10
19.8578304813
 20
12.2012245524
 30
0.0
 10
19.8888513543
 20
12.1402337374
 30
0.0
 10
19.9288065764
 20
12.0853831342
 30
0.0
 10
19.9620688253
 20
12.0490920046
 30
0.0
 10
19.9975218492
 20
12.0189938036
 30
0.0
 10
20.0229082999
 20
12.0029126508
 30
0.0
 10
20.0356570115
 20
11.9963622377
 30
0.0
  0
SPLINE
  5
293
100
AcDbEntity
  8
0
100
AcDbSpline
 62
7
  6
BYLAYER
 70
0
 71
3
 72
22
 73
18
 74
0
 42
0.0000001
 43
0.0000001
 44
0.0000000001
 40
0.0
 40
0.0
 40
0.0
 40
0.0
 40
0.0428179779
 40
0.0874049377
 40
0.1351917774
 40
0.1871085277
 40
0.2435607828
 40
0.3045238168
 40
0.3696299415
 40
0.4382444271
 40
0.5095514893
 40
0.5825942412
 40
0.7296172789
 40
0.8016125154
 40
0.8712251595
 40
0.9376261371
 40
1.0
 40
1.0
 40
1.0
 40
1.0
 10
20.0106642645
 20
29.4726605511
 30
0.0
 10
19.9736817806
 20
29.4513171063
 30
0.0
 10
19.8921743578
 20
29.4174183169
 30
0.0
 10
19.7576111408
 20
29.3977273268
 30
0.0
 10
19.6131141688
 20
29.4083313992
 30
0.0
 10
19.4618912922
 20
29.4485266694
 30
0.0
 10
19.3069080354
 20
29.5170171113
 30
0.0
 10
19.1512426674
 20
29.6122334368
 30
0.0
 10
18.9980836018
 20
29.7321585768
 30
0.0
 10
18.8505727817
 20
29.8741972788
 30
0.0
 10
18.711834776
 20
30.0353997045
 30
0.0
 10
18.5422184614
 20
30.2716453563
 30
0.0
 10
18.4027929507
 20
30.5292963868
 30
0.0
 10
18.2995437297
 20
30.7982783996
 30
0.0
 10
18.2431141744
 20
30.9982397141
 30
0.0
 10
18.208472737
 20
31.1933511701
 30
0.0
 10
18.2000073159
 20
31.3218530488
 30
0.0
 10
18.2000073159
 20
31.384054313
 30
0.0
  0
SPLINE
  5
294
100
AcDbEntity
  8
0
100
AcDbSpline
 62
7
  6
BYLAYER
 70
0
 71
3
 72
12
 73
8
 74
0
 42
0.0000001
 43
0.0000001
 44
0.0000000001
 40
0.0
 40
0.0
 40
0.0
 40
0.0
 40
0.1155234211
 40
0.2384548351
 40
0.4968476661
 40
0.7570237765
 40
1.0
 40
1.0
 40
1.0
 40
1.0
 10
21.0457523568
 20
31.6190553755
 30
0.0
 10
21.0590228403
 20
31.612553196
 30
0.0
 10
21.0873757892
 20
31.601041563
 30
0.0
 10
21.1487179148
 20
31.5840246007
 30
0.0
 10
21.2308876961
 20
31.574860404
 30
0.0
 10
21.3285176558
 20
31.5823574985
 30
0.0
 10
21.3910727711
 20
31.6001087464
 30
0.0
 10
21.419605649
 20
31.6124353241
 30
0.0
  0
SPLINE
  5
295
100
AcDbEntity
  8
0
100
AcDbSpline
 62
7
  6
BYLAYER
 70
0
 71
3
 72
25
 73
21
 74
0
 42
0.0000001
 43
0.0000001
 44
0.0000000001
 40
0.0
 40
0.0
 40
0.0
 40
0.0
 40
0.0213317797
 40
0.042892043
 40
0.0648969414
 40
0.0875419536
 40
0.1353163243
 40
0.1872166937
 40
0.2436548455
 40
0.3046029226
 40
0.3696903377
 40
0.4382877458
 40
0.5095749599
 40
0.5825996089
 40
0.6563309761
 40
0.7297087932
 40
0.8016867703
 40
0.8712723804
 40
0.9376269365
 40
1.0
 40
1.0
 40
1.0
 40
1.0
 10
12.1335427013
 20
7.6702866563
 30
0.0
 10
12.1335431937
 20
7.6213429668
 30
0.0
 10
12.1398790392
 20
7.522819054
 30
0.0
 10
12.1681724202
 20
7.3762598228
 30
0.0
 10
12.2151239499
 20
7.231388456
 30
0.0
 10
12.3037256566
 20
7.0382735446
 30
0.0
 10
12.4626690657
 20
6.8043565017
 30
0.0
 10
12.7165976928
 20
6.5494025302
 30
0.0
 10
13.0312993741
 20
6.3194415772
 30
0.0
 10
13.4000165278
 20
6.1189113457
 30
0.0
 10
13.8150384243
 20
5.9517070026
 30
0.0
 10
14.267648518
 20
5.8212591456
 30
0.0
 10
14.748282901
 20
5.7303009581
 30
0.0
 10
15.2467238182
 20
5.6807400553
 30
0.0
 10
15.7523512468
 20
5.6736200924
 30
0.0
 10
16.2543866926
 20
5.7091019061
 30
0.0
 10
16.742093435
 20
5.7864566125
 30
0.0
 10
17.2051912162
 20
5.9039941467
 30
0.0
 10
17.6336860854
 20
6.0592920178
 30
0.0
 10
17.8993456055
 20
6.1902515784
 30
0.0
 10
18.0232817463
 20
6.2618057156
 30
0.0
  0
SPLINE
  5
296
100
AcDbEntity
  8
0
100
AcDbSpline
 62
7
  6
BYLAYER
 70
0
 71
3
 72
23
 73
19
 74
0
 42
0.0000001
 43
0.0000001
 44
0.0000000001
 40
0.0
 40
0.0
 40
0.0
 40
0.0
 40
0.1383199876
 40
0.2514840024
 40
0.3493238407
 40
0.4385635957
 40
0.5993454938
 40
0.7351431048
 40
0.7935107924
 40
0.8452852914
 40
0.8902015367
 40
0.9279392913
 40
0.9581249876
 40
0.9803879948
 40
0.9884449912
 40
0.9944048241
 40
0.9982431528
 40
1.0
 40
1.0
 40
1.0
 40
1.0
 10
15.5565930694
 20
47.3620438727
 30
0.0
 10
15.5603299599
 20
47.3642013545
 30
0.0
 10
15.5665248494
 20
47.369391833
 30
0.0
 10
15.5719655894
 20
47.3789788757
 30
0.0
 10
15.5749550854
 20
47.3878877764
 30
0.0
 10
15.5771293273
 20
47.3985294621
 30
0.0
 10
15.5789604647
 20
47.4104320817
 30
0.0
 10
15.5799761531
 20
47.4214617621
 30
0.0
 10
15.5805990138
 20
47.4291083647
 30
0.0
 10
15.5809734412
 20
47.4339311505
 30
0.0
 10
15.5812945036
 20
47.4381121276
 30
0.0
 10
15.5815693915
 20
47.4416223203
 30
0.0
 10
15.5818012057
 20
47.4444239878
 30
0.0
 10
15.5819647122
 20
47.4463091523
 30
0.0
 10
15.5820885574
 20
47.447427751
 30
0.0
 10
15.5821581583
 20
47.4479916698
 30
0.0
 10
15.5822342148
 20
47.4483230408
 30
0.0
 10
15.5822790046
 20
47.4485187736
 30
0.0
 10
15.5823268113
 20
47.4485455732
 30
0.0
  0
SPLINE
  5
297
100
AcDbEntity
  8
0
100
AcDbSpline
 62
7
  6
BYLAYER
 70
0
 71
3
 72
26
 73
22
 74
0
 42
0.0000001
 43
0.0000001
 44
0.0000000001
 40
0.0
 40
0.0
 40
0.0
 40
0.0
 40
0.1251927899
 40
0.250127395
 40
0.37477894
 40
0.4991810022
 40
0.561308804
 40
0.6233938765
 40
0.685461533
 40
0.747567733
 40
0.7786490733
 40
0.8097591669
 40
0.8409087584
 40
0.8721526325
 40
0.9036304739
 40
0.9354531208
 40
0.9515380468
 40
0.9677081799
 40
0.9843368198
 40
0.9926660853
 40
1.0
 40
1.0
 40
1.0
 40
1.0
 10
27.5819661307
 20
40.520755876
 30
0.0
 10
27.5574227304
 20
40.5349225367
 30
0.0
 10
27.5079852918
 20
40.5625374156
 30
0.0
 10
27.4328237274
 20
40.6018975356
 30
0.0
 10
27.3568359379
 20
40.6392339662
 30
0.0
 10
27.2928064514
 20
40.6686139704
 30
0.0
 10
27.2411789101
 20
40.6910145327
 30
0.0
 10
27.2022688537
 20
40.7072663813
 30
0.0
 10
27.1631312636
 20
40.7229501055
 30
0.0
 10
27.1302850392
 20
40.7354535344
 30
0.0
 10
27.1038535443
 20
40.7450985562
 30
0.0
 10
27.0839326845
 20
40.7521407643
 30
0.0
 10
27.0639060907
 20
40.7589910935
 30
0.0
 10
27.0437065871
 20
40.7655888333
 30
0.0
 10
27.0231852238
 20
40.7716786796
 30
0.0
 10
27.0057497845
 20
40.7760495783
 30
0.0
 10
26.9915751613
 20
40.7791382475
 30
0.0
 10
26.9806654368
 20
40.7810063709
 30
0.0
 10
26.9713174992
 20
40.7815343028
 30
0.0
 10
26.964039908
 20
40.7808125931
 30
0.0
 10
26.9605777573
 20
40.7797592698
 30
0.0
 10
26.9591400672
 20
40.778929224
 30
0.0
  0
SPLINE
  5
298
100
AcDbEntity
  8
0
100
AcDbSpline
 62
7
  6
BYLAYER
 70
0
 71
3
 72
15
 73
11
 74
0
 42
0.0000001
 43
0.0000001
 44
0.0000000001
 40
0.0
 40
0.0
 40
0.0
 40
0.0
 40
0.1078328048
 40
0.2189278172
 40
0.3343885904
 40
0.4551078106
 40
0.5817467986
 40
0.7147539036
 40
0.8542440252
 40
1.0
 40
1.0
 40
1.0
 40
1.0
 10
18.8045277872
 20
7.6195140994
 30
0.0
 10
18.7942952685
 20
7.566761109
 30
0.0
 10
18.7657270328
 20
7.4610310862
 30
0.0
 10
18.7006303849
 20
7.3071453607
 30
0.0
 10
18.6134464152
 20
7.1571524006
 30
0.0
 10
18.504783598
 20
7.0121824861
 30
0.0
 10
18.3755121979
 20
6.8731192763
 30
0.0
 10
18.2265005287
 20
6.7409491588
 30
0.0
 10
18.0589439486
 20
6.616601345
 30
0.0
 10
17.9383296208
 20
6.5410815686
 30
0.0
 10
17.8754262469
 20
6.5047645055
 30
0.0
  0
SPLINE
  5
299
100
AcDbEntity
  8
0
100
AcDbSpline
 62
7
  6
BYLAYER
 70
0
 71
3
 72
15
 73
11
 74
0
 42
0.0000001
 43
0.0000001
 44
0.0000000001
 40
0.0
 40
0.0
 40
0.0
 40
0.0
 40
0.1188643657
 40
0.1817707788
 40
0.2458931335
 40
0.3734644626
 40
0.5008480101
 40
0.6275096939
 40
0.7531238192
 40
1.0
 40
1.0
 40
1.0
 40
1.0
 10
21.4205999105
 20
7.1225136075
 30
0.0
 10
21.4191352321
 20
7.11129727
 30
0.0
 10
21.4144906311
 20
7.0942837023
 30
0.0
 10
21.4031749921
 20
7.0737487409
 30
0.0
 10
21.3898039403
 20
7.0535346695
 30
0.0
 10
21.3717579089
 20
7.0290775731
 30
0.0
 10
21.3479486049
 20
7.0016154165
 30
0.0
 10
21.3225828516
 20
6.9758484377
 30
0.0
 10
21.2870442901
 20
6.9443036835
 30
0.0
 10
21.258038294
 20
6.9235951077
 30
0.0
 10
21.2377962039
 20
6.9116699792
 30
0.0
  0
SPLINE
  5
29A
100
AcDbEntity
  8
0
100
AcDbSpline
 62
7
  6
BYLAYER
 70
0
 71
3
 72
14
 73
10
 74
0
 42
0.0000001
 43
0.0000001
 44
0.0000000001
 40
0.0
 40
0.0
 40
0.0
 40
0.0
 40
0.2892182204
 40
0.422573064
 40
0.5485289745
 40
0.6679004585
 40
0.781862937
 40
0.891954353
 40
1.0
 40
1.0
 40
1.0
 40
1.0
 10
18.2000073159
 20
31.384054313
 30
0.0
 10
18.2000073159
 20
31.46006839
 30
0.0
 10
18.2089129589
 20
31.571671929
 30
0.0
 10
18.2431829882
 20
31.7119613749
 30
0.0
 10
18.2781100132
 20
31.8054422089
 30
0.0
 10
18.3225862334
 20
31.8890825435
 30
0.0
 10
18.3763436978
 20
31.9620308345
 30
0.0
 10
18.4387992064
 20
32.0235336016
 30
0.0
 10
18.4860844194
 20
32.0565313981
 30
0.0
 10
18.5106795427
 20
32.0707258113
 30
0.0
  0
SPLINE
  5
29B
100
AcDbEntity
  8
0
100
AcDbSpline
 62
7
  6
BYLAYER
 70
0
 71
3
 72
12
 73
8
 74
0
 42
0.0000001
 43
0.0000001
 44
0.0000000001
 40
0.0
 40
0.0
 40
0.0
 40
0.0
 40
0.2726807092
 40
0.5301215202
 40
0.6531361464
 40
0.7724852151
 40
1.0
 40
1.0
 40
1.0
 40
1.0
 10
21.046116294
 20
32.7209632125
 30
0.0
 10
21.0742755727
 20
32.6329545571
 30
0.0
 10
21.1342048611
 20
32.4635252985
 30
0.0
 10
21.2133530704
 20
32.2568403332
 30
0.0
 10
21.2739294102
 20
32.098672108
 30
0.0
 10
21.3299084264
 20
31.9496083878
 30
0.0
 10
21.3697618645
 20
31.8390137116
 30
0.0
 10
21.394851932
 20
31.7661120849
 30
0.0
  0
SPLINE
  5
29C
100
AcDbEntity
  8
0
100
AcDbSpline
 62
7
  6
BYLAYER
 70
0
 71
3
 72
31
 73
27
 74
0
 42
0.0000001
 43
0.0000001
 44
0.0000000001
 40
0.0
 40
0.0
 40
0.0
 40
0.0
 40
0.0034119324
 40
0.0064551313
 40
0.009379055
 40
0.0122537904
 40
0.0181805739
 40
0.0243639458
 40
0.0306623364
 40
0.0370560677
 40
0.0501505218
 40
0.063537205
 40
0.0770996774
 40
0.1045840198
 40
0.1324976352
 40
0.1608018989
 40
0.2184177139
 40
0.2772834182
 40
0.3373346709
 40
0.3985183171
 40
0.4608277732
 40
0.5242634216
 40
0.5888240009
 40
0.7213388067
 40
0.8584143575
 40
1.0
 40
1.0
 40
1.0
 40
1.0
 10
18.898156323
 20
36.1249458699
 30
0.0
 10
18.8970055884
 20
36.1242814969
 30
0.0
 10
18.8950493401
 20
36.122519313
 30
0.0
 10
18.8937397252
 20
36.1190118905
 30
0.0
 10
18.8935342876
 20
36.1155422866
 30
0.0
 10
18.8942605315
 20
36.11100773
 30
0.0
 10
18.8964169224
 20
36.105541079
 30
0.0
 10
18.8996607631
 20
36.0991529247
 30
0.0
 10
18.9032577121
 20
36.0927379516
 30
0.0
 10
18.9084904778
 20
36.0841645723
 30
0.0
 10
18.915756835
 20
36.0736133576
 30
0.0
 10
18.9250887947
 20
36.0611184527
 30
0.0
 10
18.9380136748
 20
36.0443151389
 30
0.0
 10
18.9545939182
 20
36.0231875952
 30
0.0
 10
18.9749500254
 20
35.9977272599
 30
0.0
 10
19.0028536088
 20
35.9632787825
 30
0.0
 10
19.0384353709
 20
35.9195376114
 30
0.0
 10
19.0818142953
 20
35.8662014445
 30
0.0
 10
19.1259964226
 20
35.811727529
 30
0.0
 10
19.1708597296
 20
35.7560796709
 30
0.0
 10
19.2164719491
 20
35.6993427788
 30
0.0
 10
19.2629072192
 20
35.6415800739
 30
0.0
 10
19.3265825229
 20
35.5625967766
 30
0.0
 10
19.4087655864
 20
35.4616949557
 30
0.0
 10
19.5119416516
 20
35.3392220912
 30
0.0
 10
19.5843399345
 20
35.258337786
 30
0.0
 10
19.6219924636
 20
35.2180556615
 30
0.0
  0
SPLINE
  5
29D
100
AcDbEntity
  8
0
100
AcDbSpline
 62
7
  6
BYLAYER
 70
0
 71
3
 72
12
 73
8
 74
0
 42
0.0000001
 43
0.0000001
 44
0.0000000001
 40
0.0
 40
0.0
 40
0.0
 40
0.0
 40
0.1155234211
 40
0.2384548351
 40
0.4968476661
 40
0.7570237765
 40
1.0
 40
1.0
 40
1.0
 40
1.0
 10
21.0457523568
 20
11.2917287785
 30
0.0
 10
21.0590228403
 20
11.285226599
 30
0.0
 10
21.0873757892
 20
11.273714966
 30
0.0
 10
21.1487179148
 20
11.2566980036
 30
0.0
 10
21.2308876961
 20
11.247533807
 30
0.0
 10
21.3285176558
 20
11.2550309015
 30
0.0
 10
21.3910727711
 20
11.2727821494
 30
0.0
 10
21.419605649
 20
11.2851087271
 30
0.0
  0
SPLINE
  5
29E
100
AcDbEntity
  8
0
100
AcDbSpline
 62
7
  6
BYLAYER
 70
0
 71
3
 72
9
 73
5
 74
0
 42
0.0000001
 43
0.0000001
 44
0.0000000001
 40
0.0
 40
0.0
 40
0.0
 40
0.0
 40
0.4975828904
 40
1.0
 40
1.0
 40
1.0
 40
1.0
 10
29.5577225466
 20
36.4789194999
 30
0.0
 10
29.5716055046
 20
36.567077306
 30
0.0
 10
29.5930374294
 20
36.7453277694
 30
0.0
 10
29.6008173306
 20
36.9247382293
 30
0.0
 10
29.6008864616
 20
37.0148494919
 30
0.0
  0
SPLINE
  5
29F
100
AcDbEntity
  8
0
100
AcDbSpline
 62
7
  6
BYLAYER
 70
0
 71
3
 72
13
 73
9
 74
0
 42
0.0000001
 43
0.0000001
 44
0.0000000001
 40
0.0
 40
0.0
 40
0.0
 40
0.0
 40
0.1219344515
 40
0.246423951
 40
0.4993951431
 40
0.7526748943
 40
0.8775486986
 40
1.0
 40
1.0
 40
1.0
 40
1.0
 10
21.0457523568
 20
32.722210418
 30
0.0
 10
21.0128050741
 20
32.8351691923
 30
0.0
 10
20.9388876914
 20
33.0613797197
 30
0.0
 10
20.7620568075
 20
33.5099153827
 30
0.0
 10
20.489906535
 20
34.0559034405
 30
0.0
 10
20.1584129651
 20
34.568464063
 30
0.0
 10
19.8619628831
 20
34.9501638902
 30
0.0
 10
19.7045127797
 20
35.1297713186
 30
0.0
 10
19.6238230632
 20
35.2160962822
 30
0.0
  0
SPLINE
  5
2A0
100
AcDbEntity
  8
0
100
AcDbSpline
 62
7
  6
BYLAYER
 70
0
 71
3
 72
24
 73
20
 74
0
 42
0.0000001
 43
0.0000001
 44
0.0000000001
 40
0.0
 40
0.0
 40
0.0
 40
0.0
 40
0.061191822
 40
0.1261396057
 40
0.1941636484
 40
0.2645510927
 40
0.3364436884
 40
0.408923354
 40
0.4810541337
 40
0.5519115745
 40
0.6206239731
 40
0.6864071429
 40
0.7486151536
 40
0.8067871051
 40
0.8607034905
 40
0.9104664585
 40
0.9565665225
 40
0.9785480814
 40
1.0
 40
1.0
 40
1.0
 40
1.0
 10
17.8754262469
 20
6.5047645055
 30
0.0
 10
17.7652983163
 20
6.4411824946
 30
0.0
 10
17.5299817634
 20
6.3241748129
 30
0.0
 10
17.151244713
 20
6.1832290394
 30
0.0
 10
16.742399437
 20
6.0739221347
 30
0.0
 10
16.3114211042
 20
5.9983130856
 30
0.0
 10
15.8664687816
 20
5.9577925424
 30
0.0
 10
15.4160882872
 20
5.9531631066
 30
0.0
 10
14.9689275862
 20
5.9845392301
 30
0.0
 10
14.5335571728
 20
6.0512805265
 30
0.0
 10
14.1183088534
 20
6.1521139135
 30
0.0
 10
13.7311166902
 20
6.2851753965
 30
0.0
 10
13.3793171151
 20
6.4479431762
 30
0.0
 10
13.0695489731
 20
6.637439656
 30
0.0
 10
12.8076959622
 20
6.8504240899
 30
0.0
 10
12.5988555582
 20
7.0831440678
 30
0.0
 10
12.4706420464
 20
7.293940943
 30
0.0
 10
12.4008878889
 20
7.4667798095
 30
0.0
 10
12.3766678757
 20
7.5539809491
 30
0.0
 10
12.3673002585
 20
7.5975655105
 30
0.0
  0
SPLINE
  5
2A1
100
AcDbEntity
  8
0
100
AcDbSpline
 62
7
  6
BYLAYER
 70
0
 71
3
 72
15
 73
11
 74
0
 42
0.0000001
 43
0.0000001
 44
0.0000000001
 40
0.0
 40
0.0
 40
0.0
 40
0.0
 40
0.1485260938
 40
0.2895006119
 40
0.4227409634
 40
0.5486445713
 40
0.6679954014
 40
0.7819394365
 40
0.8919880463
 40
1.0
 40
1.0
 40
1.0
 40
1.0
 10
18.0232817463
 20
6.2618057156
 30
0.0
 10
18.1010625605
 20
6.3067122216
 30
0.0
 10
18.2491347938
 20
6.400600914
 30
0.0
 10
18.451633313
 20
6.5572764155
 30
0.0
 10
18.6267695045
 20
6.7249344555
 30
0.0
 10
18.7728109615
 20
6.9019257258
 30
0.0
 10
18.8882197746
 20
7.0867493665
 30
0.0
 10
18.9718307936
 20
7.2776814045
 30
0.0
 10
19.0224227024
 20
7.4728496486
 30
0.0
 10
19.0337899663
 20
7.604972057
 30
0.0
 10
19.0337893091
 20
7.6702866563
 30
0.0
  0
SPLINE
  5
2A2
100
AcDbEntity
  8
0
100
AcDbSpline
 62
7
  6
BYLAYER
 70
0
 71
3
 72
13
 73
9
 74
0
 42
0.0000001
 43
0.0000001
 44
0.0000000001
 40
0.0
 40
0.0
 40
0.0
 40
0.0
 40
0.1140623922
 40
0.2375575596
 40
0.4999994774
 40
0.7624416812
 40
0.8859371837
 40
1.0
 40
1.0
 40
1.0
 40
1.0
 10
21.3452770061
 20
11.3627421127
 30
0.0
 10
21.338028452
 20
11.3585571831
 30
0.0
 10
21.3221402542
 20
11.3511825544
 30
0.0
 10
21.2869623157
 20
11.3404555214
 30
0.0
 10
21.239211155
 20
11.3352866714
 30
0.0
 10
21.1914599486
 20
11.3404553007
 30
0.0
 10
21.1562818779
 20
11.3511821605
 30
0.0
 10
21.140393583
 20
11.3585567099
 30
0.0
 10
21.1331449718
 20
11.3627416028
 30
0.0
  0
SPLINE
  5
2A3
100
AcDbEntity
  8
0
100
AcDbSpline
 62
7
  6
BYLAYER
 70
0
 71
3
 72
15
 73
11
 74
0
 42
0.0000001
 43
0.0000001
 44
0.0000000001
 40
0.0
 40
0.0
 40
0.0
 40
0.0
 40
0.1268478661
 40
0.2586634171
 40
0.3926731843
 40
0.5259767449
 40
0.6557177754
 40
0.7792843954
 40
0.8945249015
 40
1.0
 40
1.0
 40
1.0
 40
1.0
 10
17.1341046267
 20
9.2709599342
 30
0.0
 10
16.958024907
 20
9.2155847439
 30
0.0
 10
16.5916085692
 20
9.1251572243
 30
0.0
 10
16.0241300421
 20
9.050147526
 30
0.0
 10
15.4424841593
 20
9.0346456124
 30
0.0
 10
14.865371081
 20
9.0791635986
 30
0.0
 10
14.3111706687
 20
9.182264432
 30
0.0
 10
13.7974065173
 20
9.340754371
 30
0.0
 10
13.3404306106
 20
9.5496160693
 30
0.0
 10
13.0703462011
 20
9.7267890758
 30
0.0
 10
12.9507552857
 20
9.8229897451
 30
0.0
  0
ENDSEC
  0
SECTION
  2
OBJECTS
  0
DICTIONARY
  5
C
100
AcDbDictionary
280
0
281
1
  3
ACAD_GROUP
350
D
  3
ACAD_MLINESTYLE
350
17
  3
ACAD_LAYOUT
350
1A
  3
ACAD_PLOTSETTINGS
350
19
  3
ACAD_PLOTSTYLENAME
350
E
  0
DICTIONARY
  5
D
102
{ACAD_REACTORS
330
C
102
}
100
AcDbDictionary
280
0
281
1
  0
ACDBDICTIONARYWDFLT
  5
E
102
{ACAD_REACTORS
330
C
102
}
100
AcDbDictionary
281
1
  3
Normal
350
F
100
AcDbDictionaryWithDefault
340
F
  0
DICTIONARY
  5
17
102
{ACAD_REACTORS
330
C
102
}
100
AcDbDictionary
280
0
281
1
  3
Standard
350
18
  0
DICTIONARY
  5
19
102
{ACAD_REACTORS
330
C
102
}
100
AcDbDictionary
281
1
  0
DICTIONARY
  5
1A
102
{ACAD_REACTORS
330
C
102
}
100
AcDbDictionary
281
1
  3
Model
350
2A4
  3
Layout1
350
2A5
  0
ACDBPLACEHOLDER
  5
F
102
{ACAD_REACTORS
330
E
102
}
  0
MLINESTYLE
  5
18
102
{ACAD_REACTORS
330
17
102
}
100
AcDbMlineStyle
  2
STANDARD
 70
0
  3

 62
256
 51
90.0
 52
90.0
 71
2
 49
0.5
 62
256
  6
BYLAYER
 49
-0.5
 62
256
  6
BYLAYER
  0
LAYOUT
  5
2A4
102
{ACAD_REACTORS
330
1A
102
}
100
AcDbPlotSettings
  1

  2
none_device
  4

  6

 40
0.0
 41
0.0
 42
0.0
 43
0.0
 44
210.0
 45
297.0
 46
0.0
 47
0.0
 48
0.0
 49
0.0
140
0.0
141
0.0
142
1.0
143
1.0
 70
1024
 72
1
 73
0
 74
0
  7

 75
0
147
1.0
148
0.0
149
0.0
100
AcDbLayout
  1
Model
 70
0
 71
0
 10
0.0
 20
0.0
 11
210.0
 21
297.0
 12
0.0
 22
0.0
 32
0.0
 14
0.0
 24
0.0
 34
0.0
 15
0.0
 25
0.0
 35
0.0
146
0.0
 13
0.0
 23
0.0
 33
0.0
 16
1.0
 26
0.0
 36
0.0
 17
0.0
 27
1.0
 37
0.0
 76
0
330
210
345
0
346
0
  0
LAYOUT
  5
2A5
102
{ACAD_REACTORS
330
1A
102
}
100
AcDbPlotSettings
  1

  2
none_device
  4

  6

 40
0.0
 41
0.0
 42
0.0
 43
0.0
 44
210.0
 45
297.0
 46
0.0
 47
0.0
 48
0.0
 49
0.0
140
0.0
141
0.0
142
1.0
143
1.0
 70
0
 72
1
 73
0
 74
0
  7

 75
0
147
1.0
148
0.0
149
0.0
100
AcDbLayout
  1
Layout1
 70
0
 71
1
 10
0.0
 20
0.0
 11
210.0
 21
297.0
 12
0.0
 22
0.0
 32
0.0
 14
0.0
 24
0.0
 34
0.0
 15
0.0
 25
0.0
 35
0.0
146
0.0
 13
0.0
 23
0.0
 33
0.0
 16
1.0
 26
0.0
 36
0.0
 17
0.0
 27
1.0
 37
0.0
 76
0
330
211
345
0
346
0
  0
ENDSEC
  0
EOF
