999
DXF file: C:\Users\sesa63760\Dev\_Creo\CAD\MCADID0004142_3D-CAD\drw0001_1.dxf
999
Pro/ENGINEER 2019471 by Parametric Technology Corporation
  0
SECTION
  2
HEADER
  9
$ACADVER
  1
AC1024
  9
$DWGCODEPAGE
  3
ANSI_1252
  9
$EXTMAX
 10
33.79696846
 20
47.7985696792
 30
0.0
  9
$EXTMIN
 10
0.0
 20
0.0
 30
0.0
  9
$LIMMIN
 10
0.0
 20
0.0
  9
$LIMMAX
 10
33.79696846
 20
47.7985696792
  9
$VIEWCTR
 10
16.89848423
 20
23.8992848396
  9
$VIEWSIZE
 40
47.7985696792
  9
$CLAYER
  8
0
  9
$LTSCALE
 40
3.1157586161
  9
$CELTYPE
  6
BYLAYER
  9
$DIMSCALE
 40
1.0
  9
$DIMASZ
 40
0.4023448626
  9
$DIMEXO
 40
1.0
  9
$DIMDLI
 40
2.152705953
  9
$DIMEXE
 40
1.0
  9
$DIMCEN
 40
0.5098514099
  9
$DIMLFAC
 40
1.0
  9
$DIMBLK
  1
_FILLED
  9
$DIMALT
 70
0
  9
$DIMALTF
 40
0.0393700787
  9
$DIMTXT
 40
0.5632828077
  9
$DIMTOL
 70
1
  9
$DIMLIM
 70
0
  9
$DIMTFAC
 40
1.0
  9
$DIMTP
 40
0.01
  9
$DIMTM
 40
0.01
  9
$DIMGAP
 40
0.625
  9
$DIMDSEP
 70
46
  9
$AUNITS
 70
0
  9
$PDMODE
 70
3
  9
$PDSIZE
 40
0.3125
  9
$HANDSEED
  5
28F
  9
$TILEMODE
 70
1
  9
$MEASUREMENT
 70
1
  9
$INSUNITS
 70
4
  0
ENDSEC
  0
SECTION
  2
CLASSES
  0
CLASS
  1
ACDBDICTIONARYWDFLT
  2
AcDbDictionaryWithDefault
  3
AutoCAD 2000
 90
0
 91
1
280
0
281
0
  0
CLASS
  1
ACDBPLACEHOLDER
  2
AcDbPlaceHolder
  3
AutoCAD 2000
 90
0
 91
1
280
0
281
0
  0
CLASS
  1
LAYOUT
  2
AcDbLayout
  3
AutoCAD 2000
 90
0
 91
0
280
0
281
0
  0
ENDSEC
  0
SECTION
  2
TABLES
  0
TABLE
  2
VPORT
  5
8
100
AcDbSymbolTable
 70
2
  0
VPORT
  5
1F4
100
AcDbSymbolTableRecord
100
AcDbViewportTableRecord
  2
*ACTIVE
 70
0
 10
0.0
 20
0.0
 11
1.0
 21
1.0
 12
16.89848423
 22
23.8992848396
 13
0.0
 23
0.0
 14
1.0
 24
1.0
 15
0.0
 25
0.0
 16
0.0
 26
0.0
 36
1.0
 17
0.0
 27
0.0
 37
0.0
 40
47.7985696792
 41
0.7070707071
 42
50.0
 43
0.0
 44
0.0
 50
0.0
 51
0.0
 71
0
 72
100
 73
1
 74
1
 75
0
 76
0
 77
0
 78
0
  0
ENDTAB
  0
TABLE
  2
LTYPE
  5
5
100
AcDbSymbolTable
 70
6
  0
LTYPE
  5
14
100
AcDbSymbolTableRecord
100
AcDbLinetypeTableRecord
  2
BYBLOCK
 70
0
  3

 72
65
 73
0
 40
0.0
  0
LTYPE
  5
15
100
AcDbSymbolTableRecord
100
AcDbLinetypeTableRecord
  2
BYLAYER
 70
0
  3

 72
65
 73
0
 40
0.0
  0
LTYPE
  5
16
100
AcDbSymbolTableRecord
100
AcDbLinetypeTableRecord
  2
CONTINUOUS
 70
64
  3
Solid line
 72
65
 73
0
 40
0.0
  0
LTYPE
  5
1F5
100
AcDbSymbolTableRecord
100
AcDbLinetypeTableRecord
  2
CENTER
 70
64
  3
____ _ ____ _ ____ _ ____ _ ____ _ ____ _ ____
 72
65
 73
4
 40
0.6
 49
0.375
 74
0
 49
-0.075
 74
0
 49
0.075
 74
0
 49
-0.075
 74
0
  0
LTYPE
  5
1F6
100
AcDbSymbolTableRecord
100
AcDbLinetypeTableRecord
  2
HIDDEN
 70
64
  3
- - - - - - - - - - - - - - - - - - - -
 72
65
 73
2
 40
0.2
 49
0.1
 74
0
 49
-0.1
 74
0
  0
LTYPE
  5
1F7
100
AcDbSymbolTableRecord
100
AcDbLinetypeTableRecord
  2
PHANTOM
 70
64
  3
_____ _ _ _____ _ _ _____ _ _ _____
 72
65
 73
6
 40
0.8
 49
0.45
 74
0
 49
-0.05
 74
0
 49
0.1
 74
0
 49
-0.05
 74
0
 49
0.1
 74
0
 49
-0.05
 74
0
  0
LTYPE
  5
1F8
100
AcDbSymbolTableRecord
100
AcDbLinetypeTableRecord
  2
DOT
 70
64
  3
. . . . . . . . . . . . . . . . . . . .
 72
65
 73
2
 40
0.2
 49
0.1
 74
0
 49
-0.1
 74
0
  0
LTYPE
  5
1F9
100
AcDbSymbolTableRecord
100
AcDbLinetypeTableRecord
  2
DASHED
 70
64
  3
- - - - - - - - - - - - - - - - - - - -
 72
65
 73
2
 40
0.2
 49
0.1
 74
0
 49
-0.1
 74
0
  0
ENDTAB
  0
TABLE
  2
LAYER
  5
2
100
AcDbSymbolTable
 70
36
  0
LAYER
  5
10
100
AcDbSymbolTableRecord
100
AcDbLayerTableRecord
  2
0
 70
0
 62
7
  6
CONTINUOUS
370
-3
390
F
  0
LAYER
  5
1FA
100
AcDbSymbolTableRecord
100
AcDbLayerTableRecord
  2
DEFAULT_1
 70
0
 62
7
  6
CENTER
370
-3
390
F
  0
LAYER
  5
1FB
100
AcDbSymbolTableRecord
100
AcDbLayerTableRecord
  2
DEFAULT_2
 70
0
 62
7
  6
HIDDEN
370
-3
390
F
  0
LAYER
  5
1FC
100
AcDbSymbolTableRecord
100
AcDbLayerTableRecord
  2
DEFAULT_3
 70
0
 62
7
  6
PHANTOM
370
-3
390
F
  0
LAYER
  5
1FD
100
AcDbSymbolTableRecord
100
AcDbLayerTableRecord
  2
00_COMPONENTS
 70
0
 62
7
  6
CONTINUOUS
370
-3
390
F
  0
LAYER
  5
1FE
100
AcDbSymbolTableRecord
100
AcDbLayerTableRecord
  2
01_1_DEFAULT_DATUMS
 70
0
 62
7
  6
CONTINUOUS
370
-3
390
F
  0
LAYER
  5
1FF
100
AcDbSymbolTableRecord
100
AcDbLayerTableRecord
  2
01_PLANES
 70
0
 62
7
  6
CONTINUOUS
370
-3
390
F
  0
LAYER
  5
200
100
AcDbSymbolTableRecord
100
AcDbLayerTableRecord
  2
02_COORD_SYS
 70
0
 62
7
  6
CONTINUOUS
370
-3
390
F
  0
LAYER
  5
201
100
AcDbSymbolTableRecord
100
AcDbLayerTableRecord
  2
03_AXES
 70
0
 62
7
  6
CONTINUOUS
370
-3
390
F
  0
LAYER
  5
202
100
AcDbSymbolTableRecord
100
AcDbLayerTableRecord
  2
04_POINTS
 70
0
 62
7
  6
CONTINUOUS
370
-3
390
F
  0
LAYER
  5
203
100
AcDbSymbolTableRecord
100
AcDbLayerTableRecord
  2
05_CURVES
 70
0
 62
7
  6
CONTINUOUS
370
-3
390
F
  0
LAYER
  5
204
100
AcDbSymbolTableRecord
100
AcDbLayerTableRecord
  2
06_SURFS
 70
0
 62
7
  6
CONTINUOUS
370
-3
390
F
  0
LAYER
  5
205
100
AcDbSymbolTableRecord
100
AcDbLayerTableRecord
  2
07_COSMETICS
 70
0
 62
7
  6
CONTINUOUS
370
-3
390
F
  0
LAYER
  5
206
100
AcDbSymbolTableRecord
100
AcDbLayerTableRecord
  2
10_NOTES
 70
0
 62
7
  6
CONTINUOUS
370
-3
390
F
  0
LAYER
  5
207
100
AcDbSymbolTableRecord
100
AcDbLayerTableRecord
  2
11_NOTES_PUB
 70
0
 62
7
  6
CONTINUOUS
370
-3
390
F
  0
LAYER
  5
208
100
AcDbSymbolTableRecord
100
AcDbLayerTableRecord
  2
13_REF_GTOL
 70
0
 62
7
  6
CONTINUOUS
370
-3
390
F
  0
LAYER
  5
209
100
AcDbSymbolTableRecord
100
AcDbLayerTableRecord
  2
16_MISC
 70
0
 62
7
  6
CONTINUOUS
370
-3
390
F
  0
LAYER
  5
20A
100
AcDbSymbolTableRecord
100
AcDbLayerTableRecord
  2
17_NO_PRINT
 70
0
 62
7
  6
CONTINUOUS
370
-3
390
F
  0
LAYER
  5
20B
100
AcDbSymbolTableRecord
100
AcDbLayerTableRecord
  2
18_DATUM_CAMS_JOINTS
 70
0
 62
7
  6
CONTINUOUS
370
-3
390
F
  0
LAYER
  5
20C
100
AcDbSymbolTableRecord
100
AcDbLayerTableRecord
  2
19_DATUM_FUNCTIONAL
 70
0
 62
7
  6
CONTINUOUS
370
-3
390
F
  0
LAYER
  5
20D
100
AcDbSymbolTableRecord
100
AcDbLayerTableRecord
  2
20_DATUM_KINEMATIC_SCHEME
 70
0
 62
7
  6
CONTINUOUS
370
-3
390
F
  0
ENDTAB
  0
TABLE
  2
STYLE
  5
3
100
AcDbSymbolTable
 70
1
  0
STYLE
  5
11
100
AcDbSymbolTableRecord
100
AcDbTextStyleTableRecord
  2
STANDARD
 70
0
 40
0.0
 41
1.0
 50
0.0
 71
0
 42
0.2
  3
ARIAL.TTF
  4

  0
STYLE
  5
20E
100
AcDbSymbolTableRecord
100
AcDbTextStyleTableRecord
  2
TEXTSTYLE_1
 70
0
 40
0.0
 41
0.8
 50
0.0
 71
0
 42
0.2
  3
gdt
  4

  0
ENDTAB
  0
TABLE
  2
VIEW
  5
6
100
AcDbSymbolTable
 70
0
  0
ENDTAB
  0
TABLE
  2
UCS
  5
7
100
AcDbSymbolTable
 70
0
  0
ENDTAB
  0
TABLE
  2
APPID
  5
9
100
AcDbSymbolTable
 70
1
  0
APPID
  5
20F
100
AcDbSymbolTableRecord
100
AcDbRegAppTableRecord
  2
ACAD
 70
0
  0
ENDTAB
  0
TABLE
  2
BLOCK_RECORD
  5
1
100
AcDbSymbolTable
 70
0
  0
BLOCK_RECORD
  5
210
100
AcDbSymbolTableRecord
100
AcDbBlockTableRecord
  2
*Model_Space
  0
BLOCK_RECORD
  5
211
100
AcDbSymbolTableRecord
100
AcDbBlockTableRecord
  2
*Paper_Space
  0
BLOCK_RECORD
  5
212
100
AcDbSymbolTableRecord
100
AcDbBlockTableRecord
  2
_FILLED
  0
ENDTAB
  0
TABLE
  2
DIMSTYLE
  5
A
100
AcDbSymbolTable
 70
1
100
AcDbDimStyleTable
 71
0
  0
DIMSTYLE
105
213
100
AcDbSymbolTableRecord
100
AcDbDimStyleTableRecord
  2
STANDARD
 70
0
  3

  4

 40
1.0
 41
0.4023448626
 42
1.0
 43
0.38
 44
1.0
 45
0.0
 46
0.0
 47
0.01
 48
0.01
140
0.5632828077
141
0.09
142
0.0
143
25.4
144
1.0
145
0.0
146
1.0
147
0.625
 71
1
 72
0
 73
0
 74
0
 75
0
 76
0
 77
1
 78
8
 79
2
170
0
171
1
172
0
173
0
174
0
175
0
176
0
177
0
178
0
270
2
179
2
271
2
272
2
273
2
274
2
275
0
280
0
281
0
282
0
283
1
284
8
285
0
286
0
287
3
288
0
340
11
278
46
341
212
342
212
343
212
344
212
  0
ENDTAB
  0
ENDSEC
  0
SECTION
  2
BLOCKS
  0
BLOCK
  5
20
100
AcDbEntity
  8
0
100
AcDbBlockBegin
  2
*Model_Space
 70
0
 10
0.0
 20
0.0
 30
0.0
  3
*Model_Space
  1

  0
ENDBLK
  5
21
100
AcDbEntity
  8
0
100
AcDbBlockEnd
  0
BLOCK
  5
1C
100
AcDbEntity
  8
0
100
AcDbBlockBegin
  2
*Paper_Space
 70
0
 10
0.0
 20
0.0
 30
0.0
  3
*Paper_Space
  1

  0
ENDBLK
  5
1D
100
AcDbEntity
  8
0
100
AcDbBlockEnd
  0
BLOCK
  5
214
100
AcDbEntity
  8
0
100
AcDbBlockBegin
  2
_FILLED
 70
64
 10
0.0
 20
0.0
  3
_FILLED
  1

  0
SOLID
  5
215
100
AcDbEntity
  8
0
  6
BYBLOCK
 62
0
100
AcDbTrace
 10
0.0
 20
0.0
 11
-1.0
 21
0.25
 12
-1.0
 22
-0.25
 13
-1.0
 23
-0.25
  0
ENDBLK
  5
216
100
AcDbEntity
  8
0
  6
BYBLOCK
 62
0
100
AcDbBlockEnd
  0
ENDSEC
  0
SECTION
  2
ENTITIES
  0
LINE
  5
217
100
AcDbEntity
  8
0
100
AcDbLine
 62
7
  6
BYLAYER
 10
14.9102605701
 20
44.2260672057
 11
6.5498516651
 21
39.3991994188
  0
LINE
  5
218
100
AcDbEntity
  8
0
100
AcDbLine
 62
7
  6
BYLAYER
 10
6.8234734178
 20
39.4855419195
 11
14.884457162
 21
44.1395252736
  0
LINE
  5
219
100
AcDbEntity
  8
0
100
AcDbLine
 62
7
  6
BYLAYER
 10
14.9102497483
 20
44.2260609576
 11
14.9102717913
 21
44.2260712078
  0
LINE
  5
21A
100
AcDbEntity
  8
0
100
AcDbLine
 62
7
  6
BYLAYER
 10
10.795565833
 20
9.3297655147
 11
20.5656535435
 21
3.6891303532
  0
LINE
  5
21B
100
AcDbEntity
  8
0
100
AcDbLine
 62
7
  6
BYLAYER
 10
20.3736164494
 20
3.9014642626
 11
10.4662414364
 21
9.6213604919
  0
LINE
  5
21C
100
AcDbEntity
  8
0
100
AcDbLine
 62
7
  6
BYLAYER
 10
10.7955570805
 20
9.3297539178
 11
10.4662414364
 21
9.6213604919
  0
LINE
  5
21D
100
AcDbEntity
  8
0
100
AcDbLine
 62
7
  6
BYLAYER
 10
20.5656602974
 20
3.6891513807
 11
20.5656731666
 21
3.6891412759
  0
LINE
  5
21E
100
AcDbEntity
  8
0
100
AcDbLine
 62
7
  6
BYLAYER
 10
6.6747778957
 20
16.1770037102
 11
10.3786135073
 21
9.7618078603
  0
LINE
  5
21F
100
AcDbEntity
  8
0
100
AcDbLine
 62
7
  6
BYLAYER
 10
19.2583253714
 20
8.7131092166
 11
20.3736164494
 21
8.0692101795
  0
LINE
  5
220
100
AcDbEntity
  8
0
100
AcDbLine
 62
7
  6
BYLAYER
 10
19.3635211041
 20
8.7738436387
 11
20.4610090643
 21
8.1402230038
  0
LINE
  5
221
100
AcDbEntity
  8
0
100
AcDbLine
 62
7
  6
BYLAYER
 10
6.621070379
 20
16.2761540579
 11
6.5498760402
 21
16.6448883411
  0
LINE
  5
222
100
AcDbEntity
  8
0
100
AcDbLine
 62
7
  6
BYLAYER
 10
6.5497843262
 20
39.3991430383
 11
6.5498001151
 21
39.3969576628
  0
LINE
  5
223
100
AcDbEntity
  8
0
100
AcDbLine
 62
7
  6
BYLAYER
 10
6.5498056885
 20
16.6448821919
 11
6.5498056885
 21
39.3969587903
  0
LINE
  5
224
100
AcDbEntity
  8
0
100
AcDbLine
 62
7
  6
BYLAYER
 10
6.6210755008
 20
16.2761439545
 11
6.6210755008
 21
39.1124985899
  0
LINE
  5
225
100
AcDbEntity
  8
0
100
AcDbLine
 62
7
  6
BYLAYER
 10
25.2352985237
 20
38.1635994206
 11
17.1743147795
 21
33.5096160665
  0
LINE
  5
226
100
AcDbEntity
  8
0
100
AcDbLine
 62
7
  6
BYLAYER
 10
25.3767204687
 20
38.0819512697
 11
17.1036043957
 21
33.3054911677
  0
LINE
  5
227
100
AcDbEntity
  8
0
100
AcDbLine
 62
7
  6
BYLAYER
 10
26.2870041598
 20
37.556410625
 11
18.2260204155
 21
32.9024272708
  0
LINE
  5
228
100
AcDbEntity
  8
0
100
AcDbLine
 62
7
  6
BYLAYER
 10
16.9621836283
 20
30.366083877
 11
17.1036043957
 21
30.4477327077
  0
LINE
  5
229
100
AcDbEntity
  8
0
100
AcDbLine
 62
7
  6
BYLAYER
 10
28.8408492517
 20
12.9777232605
 11
28.7797980699
 21
13.0129703794
  0
LINE
  5
22A
100
AcDbEntity
  8
0
100
AcDbLine
 62
7
  6
BYLAYER
 10
20.722716519
 20
28.5435937713
 11
28.885586145
 21
33.2564006155
  0
LINE
  5
22B
100
AcDbEntity
  8
0
100
AcDbLine
 62
7
  6
BYLAYER
 10
28.7708465606
 20
33.1829851955
 11
20.568442049
 21
28.4473530106
  0
LINE
  5
22C
100
AcDbEntity
  8
0
100
AcDbLine
 62
7
  6
BYLAYER
 10
20.7474697415
 20
28.3899167251
 11
28.8689178305
 21
33.0788089766
  0
LINE
  5
22D
100
AcDbEntity
  8
0
100
AcDbLine
 62
7
  6
BYLAYER
 10
16.9621836283
 20
33.1421920952
 11
16.9621836283
 21
30.366083877
  0
LINE
  5
22E
100
AcDbEntity
  8
0
100
AcDbLine
 62
7
  6
BYLAYER
 10
17.1036055733
 20
30.4477362095
 11
17.1036043957
 21
33.3054911677
  0
LINE
  5
22F
100
AcDbEntity
  8
0
100
AcDbLine
 62
7
  6
BYLAYER
 10
17.6772206521
 20
25.5453170651
 11
17.7399401989
 21
25.6844709284
  0
LINE
  5
230
100
AcDbEntity
  8
0
100
AcDbLine
 62
7
  6
BYLAYER
 10
17.6774088771
 20
25.5430583045
 11
17.7826046098
 21
25.6037927265
  0
LINE
  5
231
100
AcDbEntity
  8
0
100
AcDbLine
 62
7
  6
BYLAYER
 10
19.0536023721
 20
9.0282988072
 11
17.6772206521
 21
25.5453170651
  0
LINE
  5
232
100
AcDbEntity
  8
0
100
AcDbLine
 62
7
  6
BYLAYER
 10
17.7824163913
 20
25.6060514085
 11
19.1587981048
 21
9.0890332293
  0
LINE
  5
233
100
AcDbEntity
  8
0
100
AcDbLine
 62
7
  6
BYLAYER
 10
28.8689178305
 20
28.9182370411
 11
20.7474697415
 21
24.2293447896
  0
LINE
  5
234
100
AcDbEntity
  8
0
100
AcDbLine
 62
7
  6
BYLAYER
 10
17.7399401989
 20
25.6844709284
 11
17.8821318764
 21
25.6743915883
  0
LINE
  5
235
100
AcDbEntity
  8
0
100
AcDbLine
 62
7
  6
BYLAYER
 10
20.3736164494
 20
29.499691819
 11
20.3736164494
 21
28.5598372599
  0
LINE
  5
236
100
AcDbEntity
  8
0
100
AcDbLine
 62
7
  6
BYLAYER
 10
20.3736164494
 20
28.3965367765
 11
20.3736164494
 21
24.235964841
  0
LINE
  5
237
100
AcDbEntity
  8
0
100
AcDbLine
 62
7
  6
BYLAYER
 10
20.3736164494
 20
8.0692101795
 11
20.3736164494
 21
3.9014642626
  0
LINE
  5
238
100
AcDbEntity
  8
0
100
AcDbLine
 62
7
  6
BYLAYER
 10
20.4610090643
 20
24.2165588539
 11
20.4610090643
 21
8.1402230038
  0
LINE
  5
239
100
AcDbEntity
  8
0
100
AcDbLine
 62
7
  6
BYLAYER
 10
7.4974387511
 20
14.7521212212
 11
6.3722454718
 21
14.1024720046
  0
LINE
  5
23A
100
AcDbEntity
  8
0
100
AcDbLine
 62
7
  6
BYLAYER
 10
20.3736164494
 20
24.235964841
 11
17.8821318764
 21
25.6743915883
  0
LINE
  5
23B
100
AcDbEntity
  8
0
100
AcDbLine
 62
7
  6
BYLAYER
 10
20.568442049
 20
28.5226242662
 11
20.568442049
 21
28.4473530106
  0
LINE
  5
23C
100
AcDbEntity
  8
0
100
AcDbLine
 62
7
  6
BYLAYER
 10
20.6731410987
 20
8.1402235137
 11
20.6731410987
 21
24.2157945637
  0
LINE
  5
23D
100
AcDbEntity
  8
0
100
AcDbLine
 62
7
  6
BYLAYER
 10
20.7474697415
 20
3.8994209748
 11
20.7474697415
 21
8.0625901281
  0
LINE
  5
23E
100
AcDbEntity
  8
0
100
AcDbLine
 62
7
  6
BYLAYER
 10
20.7474697415
 20
24.2293447896
 11
20.7474697415
 21
28.3899167251
  0
LINE
  5
23F
100
AcDbEntity
  8
0
100
AcDbLine
 62
7
  6
BYLAYER
 10
28.9286746819
 20
8.5174984567
 11
28.9286578934
 21
8.5175341647
  0
LINE
  5
240
100
AcDbEntity
  8
0
100
AcDbLine
 62
7
  6
BYLAYER
 10
28.8689178305
 20
33.0788089766
 11
28.9286819552
 21
33.1825766549
  0
LINE
  5
241
100
AcDbEntity
  8
0
100
AcDbLine
 62
7
  6
BYLAYER
 10
16.9621836283
 20
30.366083877
 11
20.3736164494
 21
28.3965367765
  0
LINE
  5
242
100
AcDbEntity
  8
0
100
AcDbLine
 62
7
  6
BYLAYER
 10
20.568442049
 20
28.4473530106
 11
17.1036055733
 21
30.4477362095
  0
LINE
  5
243
100
AcDbEntity
  8
0
100
AcDbLine
 62
7
  6
BYLAYER
 10
28.9286692386
 20
33.3458771163
 11
28.885586145
 21
33.2564006155
  0
LINE
  5
244
100
AcDbEntity
  8
0
100
AcDbLine
 62
7
  6
BYLAYER
 10
28.9286819552
 20
29.0220047194
 11
28.8689178305
 21
28.9182370411
  0
LINE
  5
245
100
AcDbEntity
  8
0
100
AcDbLine
 62
7
  6
BYLAYER
 10
8.4722542149
 20
10.4651703567
 11
9.5974474942
 21
11.1148195733
  0
LINE
  5
246
100
AcDbEntity
  8
0
100
AcDbLine
 62
7
  6
BYLAYER
 10
6.6210755008
 20
39.1124985899
 11
16.9621836283
 21
33.1421920952
  0
LINE
  5
247
100
AcDbEntity
  8
0
100
AcDbLine
 62
7
  6
BYLAYER
 10
17.1036055733
 20
33.0605439443
 11
18.9516871558
 21
31.9935776832
  0
LINE
  5
248
100
AcDbEntity
  8
0
100
AcDbLine
 62
7
  6
BYLAYER
 10
17.1036043957
 20
33.3054911677
 11
17.1675727393
 21
33.2685598628
  0
LINE
  5
249
100
AcDbEntity
  8
0
100
AcDbLine
 62
7
  6
BYLAYER
 10
18.2260204155
 20
32.9024272708
 11
17.3157367245
 21
33.4279679156
  0
LINE
  5
24A
100
AcDbEntity
  8
0
100
AcDbLine
 62
7
  6
BYLAYER
 10
17.1743147795
 20
33.5096160665
 11
6.8234734178
 21
39.4855419195
  0
LINE
  5
24B
100
AcDbEntity
  8
0
100
AcDbLine
 62
7
  6
BYLAYER
 10
28.7358645286
 20
28.84141914
 11
28.7358645286
 21
12.7952112699
  0
LINE
  5
24C
100
AcDbEntity
  8
0
100
AcDbLine
 62
7
  6
BYLAYER
 10
28.7708465606
 20
33.1829851955
 11
28.7708465606
 21
33.1901560811
  0
LINE
  5
24D
100
AcDbEntity
  8
0
100
AcDbLine
 62
7
  6
BYLAYER
 10
28.7797980699
 20
12.8564473831
 11
28.7797980699
 21
28.8667840304
  0
LINE
  5
24E
100
AcDbEntity
  8
0
100
AcDbLine
 62
7
  6
BYLAYER
 10
28.8689178305
 20
33.0788089766
 11
28.8689178305
 21
28.9182370411
  0
LINE
  5
24F
100
AcDbEntity
  8
0
100
AcDbLine
 62
7
  6
BYLAYER
 10
28.8689178305
 20
12.7514823795
 11
28.8689178305
 21
8.5883132262
  0
LINE
  5
250
100
AcDbEntity
  8
0
100
AcDbLine
 62
7
  6
BYLAYER
 10
28.9287181006
 20
8.5175697201
 11
28.9287181006
 21
12.8552500144
  0
LINE
  5
251
100
AcDbEntity
  8
0
100
AcDbLine
 62
7
  6
BYLAYER
 10
28.9287181006
 20
29.0220046759
 11
28.9287181006
 21
33.1825766114
  0
LINE
  5
252
100
AcDbEntity
  8
0
100
AcDbLine
 62
7
  6
BYLAYER
 10
28.9287181006
 20
33.3458770948
 11
28.9287181006
 21
33.7923255211
  0
LINE
  5
253
100
AcDbEntity
  8
0
100
AcDbLine
 62
7
  6
BYLAYER
 10
19.1587981048
 20
9.0890332293
 11
19.0536023721
 21
9.0282988072
  0
LINE
  5
254
100
AcDbEntity
  8
0
100
AcDbLine
 62
7
  6
BYLAYER
 10
19.2583253714
 20
8.7131092166
 11
19.3635211041
 21
8.7738436387
  0
LINE
  5
255
100
AcDbEntity
  8
0
100
AcDbLine
 62
7
  6
BYLAYER
 10
25.3767204687
 20
38.0819512697
 11
25.5267080311
 21
38.0967925463
  0
LINE
  5
256
100
AcDbEntity
  8
0
100
AcDbLine
 62
7
  6
BYLAYER
 10
25.385286086
 20
38.1784406972
 11
25.2352985237
 21
38.1635994206
  0
LINE
  5
257
100
AcDbEntity
  8
0
100
AcDbLine
 62
7
  6
BYLAYER
 10
28.8689178305
 20
12.7514823795
 11
28.9286819552
 21
12.8552500578
  0
LINE
  5
258
100
AcDbEntity
  8
0
100
AcDbLine
 62
7
  6
BYLAYER
 10
20.6731410987
 20
8.1402235137
 11
28.7358645286
 21
12.7952112699
  0
LINE
  5
259
100
AcDbEntity
  8
0
100
AcDbLine
 62
7
  6
BYLAYER
 10
20.7474697415
 20
8.0625901281
 11
28.8689178305
 21
12.7514823795
  0
LINE
  5
25A
100
AcDbEntity
  8
0
100
AcDbLine
 62
7
  6
BYLAYER
 10
28.7797948159
 20
12.8564473831
 11
28.7358645286
 21
12.7952112699
  0
LINE
  5
25B
100
AcDbEntity
  8
0
100
AcDbLine
 62
7
  6
BYLAYER
 10
14.884457162
 20
44.1395252736
 11
25.2352985237
 21
38.1635994206
  0
LINE
  5
25C
100
AcDbEntity
  8
0
100
AcDbLine
 62
7
  6
BYLAYER
 10
25.3767204687
 20
38.0819512697
 11
26.2870041598
 21
37.556410625
  0
LINE
  5
25D
100
AcDbEntity
  8
0
100
AcDbLine
 62
7
  6
BYLAYER
 10
14.9122018871
 20
44.2249646887
 11
25.3852959786
 21
38.178457786
  0
LINE
  5
25E
100
AcDbEntity
  8
0
100
AcDbLine
 62
7
  6
BYLAYER
 10
25.5267179237
 20
38.0968096351
 11
26.9098628534
 21
37.298268603
  0
LINE
  5
25F
100
AcDbEntity
  8
0
100
AcDbLine
 62
7
  6
BYLAYER
 10
28.8689178305
 20
8.5883132262
 11
20.7474697415
 21
3.8994209748
  0
LINE
  5
260
100
AcDbEntity
  8
0
100
AcDbLine
 62
7
  6
BYLAYER
 10
28.927093238
 20
8.5165805887
 11
20.5656542497
 21
3.6891303539
  0
ARC
  5
261
100
AcDbEntity
  8
0
100
AcDbCircle
 62
7
  6
BYLAYER
 10
12.4722004685
 20
10.9704786471
 40
2.4174348874
100
AcDbArc
 50
209.9987231175
 51
213.9230090848
  0
ARC
  5
262
100
AcDbEntity
  8
0
100
AcDbCircle
 62
7
  6
BYLAYER
 10
8.4685311121
 20
17.2127608036
 40
2.0713144034
100
AcDbArc
 50
206.8839438419
 51
210.0031906736
  0
ARC
  5
263
100
AcDbEntity
  8
0
100
AcDbCircle
 62
7
  6
BYLAYER
 10
17.6149111918
 20
33.0102925534
 40
0.5186542672
100
AcDbArc
 50
144.8241303443
 51
155.1742184686
  0
SPLINE
  5
264
100
AcDbEntity
  8
0
100
AcDbSpline
 62
7
  6
BYLAYER
 70
0
 71
3
 72
22
 73
18
 74
0
 42
0.0000001
 43
0.0000001
 44
0.0000000001
 40
0.0
 40
0.0
 40
0.0
 40
0.0
 40
0.0428181053
 40
0.0874052111
 40
0.1351921664
 40
0.1871089787
 40
0.2435612175
 40
0.304524211
 40
0.3696303144
 40
0.4382448351
 40
0.5095519985
 40
0.5825948808
 40
0.7296179413
 40
0.8016131199
 40
0.871225632
 40
0.9376263139
 40
1.0
 40
1.0
 40
1.0
 40
1.0
 10
17.8385436536
 20
8.1090457856
 30
0.0
 10
17.875526262
 20
8.1303892686
 30
0.0
 10
17.9570339156
 20
8.1642882377
 30
0.0
 10
18.0915975725
 20
8.1839790179
 30
0.0
 10
18.2360948559
 20
8.173374824
 30
0.0
 10
18.3873178097
 20
8.133179202
 30
0.0
 10
18.5423010334
 20
8.0646886932
 30
0.0
 10
18.697966219
 20
7.9694722101
 30
0.0
 10
18.8511251935
 20
7.8495470078
 30
0.0
 10
18.9986360341
 20
7.7075081575
 30
0.0
 10
19.1373740866
 20
7.5463054205
 30
0.0
 10
19.3069904116
 20
7.3100594657
 30
0.0
 10
19.4464158147
 20
7.0524082659
 30
0.0
 10
19.549664738
 20
6.7834263108
 30
0.0
 10
19.6060939215
 20
6.5834654062
 30
0.0
 10
19.6407353884
 20
6.3883545648
 30
0.0
 10
19.6492005839
 20
6.2598531431
 30
0.0
 10
19.6492005839
 20
6.1976520553
 30
0.0
  0
SPLINE
  5
265
100
AcDbEntity
  8
0
100
AcDbSpline
 62
7
  6
BYLAYER
 70
0
 71
3
 72
22
 73
18
 74
0
 42
0.0000001
 43
0.0000001
 44
0.0000000001
 40
0.0
 40
0.0
 40
0.0
 40
0.0
 40
0.0428181053
 40
0.0874052111
 40
0.1351921664
 40
0.1871089787
 40
0.2435612175
 40
0.304524211
 40
0.3696303144
 40
0.4382448351
 40
0.5095519985
 40
0.5825948808
 40
0.7296179413
 40
0.8016131199
 40
0.871225632
 40
0.9376263139
 40
1.0
 40
1.0
 40
1.0
 40
1.0
 10
17.8385436536
 20
28.8482071807
 30
0.0
 10
17.875526262
 20
28.8695506637
 30
0.0
 10
17.9570339156
 20
28.9034496328
 30
0.0
 10
18.0915975725
 20
28.923140413
 30
0.0
 10
18.2360948559
 20
28.9125362191
 30
0.0
 10
18.3873178097
 20
28.872340597
 30
0.0
 10
18.5423010334
 20
28.8038500883
 30
0.0
 10
18.697966219
 20
28.7086336052
 30
0.0
 10
18.8511251935
 20
28.5887084029
 30
0.0
 10
18.9986360341
 20
28.4466695526
 30
0.0
 10
19.1373740866
 20
28.2854668156
 30
0.0
 10
19.3069904116
 20
28.0492208608
 30
0.0
 10
19.4464158147
 20
27.791569661
 30
0.0
 10
19.549664738
 20
27.5225877059
 30
0.0
 10
19.6060939215
 20
27.3226268013
 30
0.0
 10
19.6407353884
 20
27.1275159599
 30
0.0
 10
19.6492005839
 20
26.9990145382
 30
0.0
 10
19.6492005839
 20
26.9368134504
 30
0.0
  0
SPLINE
  5
266
100
AcDbEntity
  8
0
100
AcDbSpline
 62
7
  6
BYLAYER
 70
0
 71
3
 72
9
 73
5
 74
0
 42
0.0000001
 43
0.0000001
 44
0.0000000001
 40
0.0
 40
0.0
 40
0.0
 40
0.0
 40
0.2560009566
 40
1.0
 40
1.0
 40
1.0
 40
1.0
 10
25.4415210375
 20
38.0950092494
 30
0.0
 10
25.441054282
 20
38.0969746198
 30
0.0
 10
25.439111232
 20
38.1046225255
 30
0.0
 10
25.4366780616
 20
38.1121486428
 30
0.0
 10
25.4345671785
 20
38.1176267136
 30
0.0
  0
SPLINE
  5
267
100
AcDbEntity
  8
0
100
AcDbSpline
 62
7
  6
BYLAYER
 70
0
 71
3
 72
9
 73
5
 74
0
 42
0.0000001
 43
0.0000001
 44
0.0000000001
 40
0.0
 40
0.0
 40
0.0
 40
0.0
 40
0.520926487
 40
1.0
 40
1.0
 40
1.0
 40
1.0
 10
25.4345671785
 20
38.1176267136
 30
0.0
 10
25.4296066345
 20
38.1305000989
 30
0.0
 10
25.4167468772
 20
38.1542112207
 30
0.0
 10
25.3962784417
 20
38.1721047524
 30
0.0
 10
25.3852926471
 20
38.1784520587
 30
0.0
  0
SPLINE
  5
268
100
AcDbEntity
  8
0
100
AcDbSpline
 62
7
  6
BYLAYER
 70
0
 71
3
 72
15
 73
11
 74
0
 42
0.0000001
 43
0.0000001
 44
0.0000000001
 40
0.0
 40
0.0
 40
0.0
 40
0.0
 40
0.1484460279
 40
0.2894448755
 40
0.4227566388
 40
0.5486723329
 40
0.6680058922
 40
0.781932166
 40
0.891988588
 40
1.0
 40
1.0
 40
1.0
 40
1.0
 10
19.6492005839
 20
26.9368134504
 30
0.0
 10
19.6492005839
 20
26.8977854976
 30
0.0
 10
19.6460275968
 20
26.8216361797
 30
0.0
 10
19.6310530457
 20
26.7113278271
 30
0.0
 10
19.606021269
 20
26.608900113
 30
0.0
 10
19.5710990799
 20
26.5154278584
 30
0.0
 10
19.5266217208
 20
26.4317852489
 30
0.0
 10
19.4728645464
 20
26.3588372909
 30
0.0
 10
19.4104089332
 20
26.2973341338
 30
0.0
 10
19.3631235387
 20
26.2643364186
 30
0.0
 10
19.3385283387
 20
26.2501419836
 30
0.0
  0
SPLINE
  5
269
100
AcDbEntity
  8
0
100
AcDbSpline
 62
7
  6
BYLAYER
 70
0
 71
3
 72
15
 73
11
 74
0
 42
0.0000001
 43
0.0000001
 44
0.0000000001
 40
0.0
 40
0.0
 40
0.0
 40
0.0
 40
0.1484460279
 40
0.2894448755
 40
0.4227566388
 40
0.5486723329
 40
0.6680058922
 40
0.781932166
 40
0.891988588
 40
1.0
 40
1.0
 40
1.0
 40
1.0
 10
19.6492005839
 20
6.1976520553
 30
0.0
 10
19.6492005839
 20
6.1586241025
 30
0.0
 10
19.6460275968
 20
6.0824747847
 30
0.0
 10
19.6310530457
 20
5.9721664321
 30
0.0
 10
19.606021269
 20
5.869738718
 30
0.0
 10
19.5710990799
 20
5.7762664633
 30
0.0
 10
19.5266217208
 20
5.6926238538
 30
0.0
 10
19.4728645464
 20
5.6196758958
 30
0.0
 10
19.4104089332
 20
5.5581727387
 30
0.0
 10
19.3631235387
 20
5.5251750235
 30
0.0
 10
19.3385283387
 20
5.5109805885
 30
0.0
  0
SPLINE
  5
26A
100
AcDbEntity
  8
0
100
AcDbSpline
 62
7
  6
BYLAYER
 70
0
 71
3
 72
9
 73
5
 74
0
 42
0.0000001
 43
0.0000001
 44
0.0000000001
 40
0.0
 40
0.0
 40
0.0
 40
0.0
 40
0.4998931611
 40
1.0
 40
1.0
 40
1.0
 40
1.0
 10
28.9287504779
 20
33.7923308786
 30
0.0
 10
28.9288361975
 20
33.9041078631
 30
0.0
 10
28.9168951249
 20
34.1279095498
 30
0.0
 10
28.8735524603
 20
34.3485940826
 30
0.0
 10
28.8410691577
 20
34.4555969802
 30
0.0
  0
SPLINE
  5
26B
100
AcDbEntity
  8
0
100
AcDbSpline
 62
7
  6
BYLAYER
 70
0
 71
3
 72
13
 73
9
 74
0
 42
0.0000001
 43
0.0000001
 44
0.0000000001
 40
0.0
 40
0.0
 40
0.0
 40
0.0
 40
0.1182553419
 40
0.2432671294
 40
0.5033432604
 40
0.7616367973
 40
0.8845209718
 40
1.0
 40
1.0
 40
1.0
 40
1.0
 10
20.7474697415
 20
24.2293447896
 30
0.0
 10
20.7335775907
 20
24.2233431981
 30
0.0
 10
20.7041618533
 20
24.2128814762
 30
0.0
 10
20.641365421
 20
24.1980986708
 30
0.0
 10
20.5587166543
 20
24.1917724752
 30
0.0
 10
20.4765861658
 20
24.2009337577
 30
0.0
 10
20.4152391281
 20
24.2179510844
 30
0.0
 10
20.3868869329
 20
24.2294626615
 30
0.0
 10
20.3736164494
 20
24.235964841
 30
0.0
  0
SPLINE
  5
26C
100
AcDbEntity
  8
0
100
AcDbSpline
 62
7
  6
BYLAYER
 70
0
 71
3
 72
10
 73
6
 74
0
 42
0.0000001
 43
0.0000001
 44
0.0000000001
 40
0.0
 40
0.0
 40
0.0
 40
0.0
 40
0.2366070035
 40
0.4791105916
 40
1.0
 40
1.0
 40
1.0
 40
1.0
 10
28.9287107153
 20
33.1825766518
 30
0.0
 10
28.9287128084
 20
33.189102626
 30
0.0
 10
28.9274007476
 20
33.2023556753
 30
0.0
 10
28.9194501432
 20
33.2288990656
 30
0.0
 10
28.9079285216
 20
33.2471102827
 30
0.0
 10
28.8986828071
 20
33.2581068643
 30
0.0
  0
SPLINE
  5
26D
100
AcDbEntity
  8
0
100
AcDbSpline
 62
7
  6
BYLAYER
 70
0
 71
3
 72
11
 73
7
 74
0
 42
0.0000001
 43
0.0000001
 44
0.0000000001
 40
0.0
 40
0.0
 40
0.0
 40
0.0
 40
0.2176455466
 40
0.4508449722
 40
0.7106220054
 40
1.0
 40
1.0
 40
1.0
 40
1.0
 10
28.9287107153
 20
12.8552500547
 30
0.0
 10
28.9287143777
 20
12.8666689693
 30
0.0
 10
28.9244880207
 20
12.8904789028
 30
0.0
 10
28.9064459591
 20
12.9236909237
 30
0.0
 10
28.8778605201
 20
12.953656519
 30
0.0
 10
28.8539976742
 20
12.970132187
 30
0.0
 10
28.8408492517
 20
12.9777232605
 30
0.0
  0
SPLINE
  5
26E
100
AcDbEntity
  8
0
100
AcDbSpline
 62
7
  6
BYLAYER
 70
0
 71
3
 72
11
 73
7
 74
0
 42
0.0000001
 43
0.0000001
 44
0.0000000001
 40
0.0
 40
0.0
 40
0.0
 40
0.0
 40
0.2480050547
 40
0.5081864844
 40
0.7640575985
 40
1.0
 40
1.0
 40
1.0
 40
1.0
 10
20.722716519
 20
28.5435937713
 30
0.0
 10
20.6948306326
 20
28.5338799729
 30
0.0
 10
20.6353654029
 20
28.5203686343
 30
0.0
 10
20.5440263837
 20
28.5165254159
 30
0.0
 10
20.4548388469
 20
28.5284999819
 30
0.0
 10
20.3988440024
 20
28.5474764384
 30
0.0
 10
20.3736164494
 20
28.5598372599
 30
0.0
  0
SPLINE
  5
26F
100
AcDbEntity
  8
0
100
AcDbSpline
 62
7
  6
BYLAYER
 70
0
 71
3
 72
9
 73
5
 74
0
 42
0.0000001
 43
0.0000001
 44
0.0000000001
 40
0.0
 40
0.0
 40
0.0
 40
0.0
 40
0.4755213274
 40
1.0
 40
1.0
 40
1.0
 40
1.0
 10
17.1036055733
 20
33.0605439443
 30
0.0
 10
17.1036055733
 20
33.0880173338
 30
0.0
 10
17.1118232061
 20
33.1458407492
 30
0.0
 10
17.1314757495
 20
33.2005478442
 30
0.0
 10
17.1441864684
 20
33.2280550011
 30
0.0
  0
SPLINE
  5
270
100
AcDbEntity
  8
0
100
AcDbSpline
 62
7
  6
BYLAYER
 70
0
 71
3
 72
9
 73
5
 74
0
 42
0.0000001
 43
0.0000001
 44
0.0000000001
 40
0.0
 40
0.0
 40
0.0
 40
0.0
 40
0.5244793035
 40
1.0
 40
1.0
 40
1.0
 40
1.0
 10
17.1909696289
 20
33.3090831158
 30
0.0
 10
17.2084350452
 20
33.3338413533
 30
0.0
 10
17.2459834568
 20
33.3782088515
 30
0.0
 10
17.291946622
 20
33.4142327755
 30
0.0
 10
17.3157367245
 20
33.4279679156
 30
0.0
  0
SPLINE
  5
271
100
AcDbEntity
  8
0
100
AcDbSpline
 62
7
  6
BYLAYER
 70
0
 71
3
 72
13
 73
9
 74
0
 42
0.0000001
 43
0.0000001
 44
0.0000000001
 40
0.0
 40
0.0
 40
0.0
 40
0.0
 40
0.1202015531
 40
0.2428108724
 40
0.367204889
 40
0.4929071177
 40
0.746140164
 40
1.0
 40
1.0
 40
1.0
 40
1.0
 10
5.3976412615
 20
12.8295554773
 30
0.0
 10
5.4082632658
 20
12.8949111956
 30
0.0
 10
5.4399577857
 20
13.0254369414
 30
0.0
 10
5.5146902594
 20
13.2140109359
 30
0.0
 10
5.6144485178
 20
13.394049867
 30
0.0
 10
5.7757776029
 20
13.6201394348
 30
0.0
 10
6.0213980283
 20
13.8707254503
 30
0.0
 10
6.2511412207
 20
14.0325523143
 30
0.0
 10
6.3722454718
 20
14.1024720046
 30
0.0
  0
SPLINE
  5
272
100
AcDbEntity
  8
0
100
AcDbSpline
 62
7
  6
BYLAYER
 70
0
 71
3
 72
13
 73
9
 74
0
 42
0.0000001
 43
0.0000001
 44
0.0000000001
 40
0.0
 40
0.0
 40
0.0
 40
0.0
 40
0.1219843124
 40
0.2465121432
 40
0.4995128872
 40
0.752762338
 40
0.8775930705
 40
1.0
 40
1.0
 40
1.0
 40
1.0
 10
27.3947708019
 20
36.9360164399
 30
0.0
 10
27.4760539352
 20
36.8508853755
 30
0.0
 10
27.6348396904
 20
36.6735344826
 30
0.0
 10
27.9344814592
 20
36.295725984
 30
0.0
 10
28.2706991292
 20
35.7867029886
 30
0.0
 10
28.5482693317
 20
35.2431473627
 30
0.0
 10
28.7299972865
 20
34.7954811176
 30
0.0
 10
28.8065396617
 20
34.5693400468
 30
0.0
 10
28.8408492517
 20
34.4563211953
 30
0.0
  0
SPLINE
  5
273
100
AcDbEntity
  8
0
100
AcDbSpline
 62
7
  6
BYLAYER
 70
0
 71
3
 72
26
 73
22
 74
0
 42
0.0000001
 43
0.0000001
 44
0.0000000001
 40
0.0
 40
0.0
 40
0.0
 40
0.0
 40
0.0198084905
 40
0.0402129691
 40
0.0838922026
 40
0.1329451932
 40
0.1884030523
 40
0.2502044164
 40
0.3173252892
 40
0.3880500283
 40
0.4604297389
 40
0.5328149777
 40
0.603999567
 40
0.6733371703
 40
0.7406225051
 40
0.8060676239
 40
0.8383198837
 40
0.87040137
 40
0.9024569547
 40
0.9346980868
 40
1.0
 40
1.0
 40
1.0
 40
1.0
 10
8.4722542149
 20
10.4651703567
 30
0.0
 10
8.4469666811
 20
10.4505708804
 30
0.0
 10
8.3937560416
 20
10.4240603293
 30
0.0
 10
8.2771055347
 20
10.3822816137
 30
0.0
 10
8.1114940337
 20
10.3534548663
 30
0.0
 10
7.8921306965
 20
10.3565312224
 30
0.0
 10
7.6494590913
 20
10.3962011551
 30
0.0
 10
7.3879486924
 20
10.4722063649
 30
0.0
 10
7.1146294296
 20
10.5824880414
 30
0.0
 10
6.8383025335
 20
10.7235543462
 30
0.0
 10
6.5675671103
 20
10.890320725
 30
0.0
 10
6.3102367861
 20
11.0782878346
 30
0.0
 10
6.0726202452
 20
11.2838937025
 30
0.0
 10
5.8596454031
 20
11.5047460104
 30
0.0
 10
5.6761862306
 20
11.740184324
 30
0.0
 10
5.5519161726
 20
11.9503350173
 30
0.0
 10
5.4750719963
 20
12.1257595273
 30
0.0
 10
5.4297562839
 20
12.2606389829
 30
0.0
 10
5.397891749
 20
12.3993746413
 30
0.0
 10
5.3752756729
 20
12.5893219454
 30
0.0
 10
5.3821990436
 20
12.7345416541
 30
0.0
 10
5.3976412615
 20
12.8295554773
 30
0.0
  0
SPLINE
  5
274
100
AcDbEntity
  8
0
100
AcDbSpline
 62
7
  6
BYLAYER
 70
0
 71
3
 72
11
 73
7
 74
0
 42
0.0000001
 43
0.0000001
 44
0.0000000001
 40
0.0
 40
0.0
 40
0.0
 40
0.0
 40
0.249947257
 40
0.5002497831
 40
0.7503919282
 40
1.0
 40
1.0
 40
1.0
 40
1.0
 10
27.3935724586
 20
36.9372719044
 30
0.0
 10
27.3578321482
 20
36.9728319112
 30
0.0
 10
27.2832628475
 20
37.0410048721
 30
0.0
 10
27.1641420083
 20
37.1345677722
 30
0.0
 10
27.0395042836
 20
37.2204766305
 30
0.0
 10
26.9534497701
 20
37.2730789628
 30
0.0
 10
26.9098460528
 20
37.2982524725
 30
0.0
  0
SPLINE
  5
275
100
AcDbEntity
  8
0
100
AcDbSpline
 62
7
  6
BYLAYER
 70
0
 71
3
 72
13
 73
9
 74
0
 42
0.0000001
 43
0.0000001
 44
0.0000000001
 40
0.0
 40
0.0
 40
0.0
 40
0.0
 40
0.1154790282
 40
0.2383632027
 40
0.4966567396
 40
0.7567328706
 40
0.8817446581
 40
1.0
 40
1.0
 40
1.0
 40
1.0
 10
20.3736164494
 20
8.0692101795
 30
0.0
 10
20.3868869329
 20
8.0627079999
 30
0.0
 10
20.4152391281
 20
8.0511964228
 30
0.0
 10
20.4765861658
 20
8.0341790962
 30
0.0
 10
20.5587166543
 20
8.0250178136
 30
0.0
 10
20.641365421
 20
8.0313440092
 30
0.0
 10
20.7041618533
 20
8.0461268146
 30
0.0
 10
20.7335775907
 20
8.0565885366
 30
0.0
 10
20.7474697415
 20
8.0625901281
 30
0.0
  0
SPLINE
  5
276
100
AcDbEntity
  8
0
100
AcDbSpline
 62
7
  6
BYLAYER
 70
0
 71
3
 72
13
 73
9
 74
0
 42
0.0000001
 43
0.0000001
 44
0.0000000001
 40
0.0
 40
0.0
 40
0.0
 40
0.0
 40
0.1140623922
 40
0.2375575596
 40
0.4999994774
 40
0.7624416812
 40
0.8859371837
 40
1.0
 40
1.0
 40
1.0
 40
1.0
 10
20.6731410987
 20
8.1402235137
 30
0.0
 10
20.6658925446
 20
8.136038584
 30
0.0
 10
20.6500043468
 20
8.1286639554
 30
0.0
 10
20.6148264083
 20
8.1179369223
 30
0.0
 10
20.5670752476
 20
8.1127680723
 30
0.0
 10
20.5193240412
 20
8.1179367016
 30
0.0
 10
20.4841459705
 20
8.1286635615
 30
0.0
 10
20.4682576755
 20
8.1360381109
 30
0.0
 10
20.4610090643
 20
8.1402230038
 30
0.0
  0
SPLINE
  5
277
100
AcDbEntity
  8
0
100
AcDbSpline
 62
7
  6
BYLAYER
 70
0
 71
3
 72
9
 73
5
 74
0
 42
0.0000001
 43
0.0000001
 44
0.0000000001
 40
0.0
 40
0.0
 40
0.0
 40
0.0
 40
0.2426904144
 40
1.0
 40
1.0
 40
1.0
 40
1.0
 10
17.8004404757
 20
25.6953053486
 30
0.0
 10
17.799415907
 20
25.6932061528
 30
0.0
 10
17.7954020655
 20
25.6844557093
 30
0.0
 10
17.7922092219
 20
25.6753355648
 30
0.0
 10
17.7902163226
 20
25.6683242179
 30
0.0
  0
SPLINE
  5
278
100
AcDbEntity
  8
0
100
AcDbSpline
 62
7
  6
BYLAYER
 70
0
 71
3
 72
9
 73
5
 74
0
 42
0.0000001
 43
0.0000001
 44
0.0000000001
 40
0.0
 40
0.0
 40
0.0
 40
0.0
 40
0.2364289491
 40
1.0
 40
1.0
 40
1.0
 40
1.0
 10
17.7902163226
 20
25.6683242179
 30
0.0
 10
17.7888613627
 20
25.6635572467
 30
0.0
 10
17.7839537178
 20
25.6431634303
 30
0.0
 10
17.7822395947
 20
25.6220556785
 30
0.0
 10
17.7824163913
 20
25.6060514085
 30
0.0
  0
SPLINE
  5
279
100
AcDbEntity
  8
0
100
AcDbSpline
 62
7
  6
BYLAYER
 70
0
 71
3
 72
13
 73
9
 74
0
 42
0.0000001
 43
0.0000001
 44
0.0000000001
 40
0.0
 40
0.0
 40
0.0
 40
0.0
 40
0.114175582
 40
0.23756922
 40
0.49999856
 40
0.7624286893
 40
0.8858231943
 40
1.0
 40
1.0
 40
1.0
 40
1.0
 10
17.1743147795
 20
33.5096160665
 30
0.0
 10
17.1598031126
 20
33.5012378017
 30
0.0
 10
17.1311238557
 20
33.4811136694
 30
0.0
 10
17.0773961359
 20
33.4308751481
 30
0.0
 10
17.0206967347
 20
33.3533589981
 30
0.0
 10
16.9819159265
 20
33.2654974891
 30
0.0
 10
16.9652720282
 20
33.1938482107
 30
0.0
 10
16.9621836283
 20
33.1589488793
 30
0.0
 10
16.9621836283
 20
33.1421920952
 30
0.0
  0
SPLINE
  5
27A
100
AcDbEntity
  8
0
100
AcDbSpline
 62
7
  6
BYLAYER
 70
0
 71
3
 72
19
 73
15
 74
0
 42
0.0000001
 43
0.0000001
 44
0.0000000001
 40
0.0
 40
0.0
 40
0.0
 40
0.0
 40
0.1214823959
 40
0.2446804676
 40
0.3692500777
 40
0.4949054757
 40
0.6214179717
 40
0.6849043299
 40
0.7485971996
 40
0.8124550448
 40
0.8759111625
 40
0.9402352979
 40
0.9718064352
 40
1.0
 40
1.0
 40
1.0
 40
1.0
 10
6.5497789502
 20
39.3969536145
 30
0.0
 10
6.5497837713
 20
39.3849984351
 30
0.0
 10
6.5509183647
 20
39.3609125789
 30
0.0
 10
6.5553256488
 20
39.3248157101
 30
0.0
 10
6.5622396241
 20
39.2886958266
 30
0.0
 10
6.5714779759
 20
39.2527675043
 30
0.0
 10
6.5809354738
 20
39.2231618653
 30
0.0
 10
6.5893978763
 20
39.1996720045
 30
0.0
 10
6.5961585078
 20
39.1821283854
 30
0.0
 10
6.6032394579
 20
39.1647136527
 30
0.0
 10
6.6105698919
 20
39.1473426228
 30
0.0
 10
6.6164595971
 20
39.1327908328
 30
0.0
 10
6.6201219618
 20
39.1211404919
 30
0.0
 10
6.6210755008
 20
39.1152731413
 30
0.0
 10
6.6210755008
 20
39.1124985899
 30
0.0
  0
SPLINE
  5
27B
100
AcDbEntity
  8
0
100
AcDbSpline
 62
7
  6
BYLAYER
 70
0
 71
3
 72
15
 73
11
 74
0
 42
0.0000001
 43
0.0000001
 44
0.0000000001
 40
0.0
 40
0.0
 40
0.0
 40
0.0
 40
0.1194255435
 40
0.2464702055
 40
0.3779484424
 40
0.5108817668
 40
0.6423169967
 40
0.7694082574
 40
0.889483243
 40
1.0
 40
1.0
 40
1.0
 40
1.0
 10
19.1587981048
 20
9.0890332293
 30
0.0
 10
19.1603918141
 20
9.0736269531
 30
0.0
 10
19.1660775089
 20
9.0420567703
 30
0.0
 10
19.1805956282
 20
8.9951312699
 30
0.0
 10
19.2010841495
 20
8.94856455
 30
0.0
 10
19.2267147123
 20
8.903969768
 30
0.0
 10
19.2566768257
 20
8.862860811
 30
0.0
 10
19.2899313795
 20
8.8265743361
 30
0.0
 10
19.3253863341
 20
8.7964749673
 30
0.0
 10
19.3507723924
 20
8.7803940517
 30
0.0
 10
19.3635211041
 20
8.7738436387
 30
0.0
  0
SPLINE
  5
27C
100
AcDbEntity
  8
0
100
AcDbSpline
 62
7
  6
BYLAYER
 70
0
 71
3
 72
22
 73
18
 74
0
 42
0.0000001
 43
0.0000001
 44
0.0000000001
 40
0.0
 40
0.0
 40
0.0
 40
0.0
 40
0.0428181053
 40
0.0874052111
 40
0.1351921664
 40
0.1871089787
 40
0.2435612175
 40
0.304524211
 40
0.3696303144
 40
0.4382448351
 40
0.5095519985
 40
0.5825948808
 40
0.7296179413
 40
0.8016131199
 40
0.871225632
 40
0.9376263139
 40
1.0
 40
1.0
 40
1.0
 40
1.0
 10
19.3385283387
 20
26.2501419836
 30
0.0
 10
19.3015457302
 20
26.2287985006
 30
0.0
 10
19.2200380766
 20
26.1948995315
 30
0.0
 10
19.0854744197
 20
26.1752087513
 30
0.0
 10
18.9409771364
 20
26.1858129452
 30
0.0
 10
18.7897541826
 20
26.2260085673
 30
0.0
 10
18.6347709588
 20
26.294499076
 30
0.0
 10
18.4791057733
 20
26.3897155592
 30
0.0
 10
18.3259467988
 20
26.5096407615
 30
0.0
 10
18.1784359581
 20
26.6516796117
 30
0.0
 10
18.0396979057
 20
26.8128823487
 30
0.0
 10
17.8700815807
 20
27.0491283035
 30
0.0
 10
17.7306561775
 20
27.3067795033
 30
0.0
 10
17.6274072543
 20
27.5757614584
 30
0.0
 10
17.5709780707
 20
27.775722363
 30
0.0
 10
17.5363366039
 20
27.9708332044
 30
0.0
 10
17.5278714084
 20
28.0993346261
 30
0.0
 10
17.5278714084
 20
28.1615357139
 30
0.0
  0
SPLINE
  5
27D
100
AcDbEntity
  8
0
100
AcDbSpline
 62
7
  6
BYLAYER
 70
0
 71
3
 72
22
 73
18
 74
0
 42
0.0000001
 43
0.0000001
 44
0.0000000001
 40
0.0
 40
0.0
 40
0.0
 40
0.0
 40
0.006519413
 40
0.0212223488
 40
0.0438748735
 40
0.07411563
 40
0.1116616869
 40
0.156237462
 40
0.2075919666
 40
0.2654968294
 40
0.4000610079
 40
0.4764508234
 40
0.5591261492
 40
0.6484638862
 40
0.7472683389
 40
0.8643453894
 40
1.0
 40
1.0
 40
1.0
 40
1.0
 10
28.9286945847
 20
8.5175557628
 30
0.0
 10
28.9286916256
 20
8.5177648287
 30
0.0
 10
28.9280724614
 20
8.5182591876
 30
0.0
 10
28.9271099778
 20
8.5191615948
 30
0.0
 10
28.9253366183
 20
8.5204902631
 30
0.0
 10
28.9230414114
 20
8.5222311078
 30
0.0
 10
28.9201318925
 20
8.5243699398
 30
0.0
 10
28.916679042
 20
8.5268959357
 30
0.0
 10
28.9126919516
 20
8.5298034694
 30
0.0
 10
28.9063765905
 20
8.5344134798
 30
0.0
 10
28.8994599744
 20
8.5395691475
 30
0.0
 10
28.8922396599
 20
8.5456197444
 30
0.0
 10
28.8862878632
 20
8.5509123057
 30
0.0
 10
28.8798279559
 20
8.5567326739
 30
0.0
 10
28.8739566421
 20
8.5647297047
 30
0.0
 10
28.8703195407
 20
8.5755237959
 30
0.0
 10
28.8686949807
 20
8.5834564291
 30
0.0
 10
28.8679208905
 20
8.5877376461
 30
0.0
  0
SPLINE
  5
27E
100
AcDbEntity
  8
0
100
AcDbSpline
 62
7
  6
BYLAYER
 70
0
 71
3
 72
15
 73
11
 74
0
 42
0.0000001
 43
0.0000001
 44
0.0000000001
 40
0.0
 40
0.0
 40
0.0
 40
0.0
 40
0.110516757
 40
0.2305917426
 40
0.3576830033
 40
0.4891182332
 40
0.6220515576
 40
0.7535297945
 40
0.8805744565
 40
1.0
 40
1.0
 40
1.0
 40
1.0
 10
19.2583253714
 20
8.7131092166
 30
0.0
 10
19.2455766597
 20
8.7196596297
 30
0.0
 10
19.2201906014
 20
8.7357405452
 30
0.0
 10
19.1847356468
 20
8.7658399141
 30
0.0
 10
19.151481093
 20
8.8021263889
 30
0.0
 10
19.1215189796
 20
8.8432353459
 30
0.0
 10
19.0958884168
 20
8.8878301279
 30
0.0
 10
19.0753998955
 20
8.9343968479
 30
0.0
 10
19.0608817762
 20
8.9813223482
 30
0.0
 10
19.0551960814
 20
9.0128925311
 30
0.0
 10
19.0536023721
 20
9.0282988072
 30
0.0
  0
SPLINE
  5
27F
100
AcDbEntity
  8
0
100
AcDbSpline
 62
7
  6
BYLAYER
 70
0
 71
3
 72
16
 73
12
 74
0
 42
0.0000001
 43
0.0000001
 44
0.0000000001
 40
0.0
 40
0.0
 40
0.0
 40
0.0
 40
0.1188565733
 40
0.1817648658
 40
0.2458854577
 40
0.3097670732
 40
0.3734759463
 40
0.5008574799
 40
0.6275165436
 40
0.7531283523
 40
1.0
 40
1.0
 40
1.0
 40
1.0
 10
20.7484631639
 20
3.899994524
 30
0.0
 10
20.7470013483
 20
3.8887783213
 30
0.0
 10
20.7423557273
 20
3.8717645551
 30
0.0
 10
20.7310394056
 20
3.851230679
 30
0.0
 10
20.7210080924
 20
3.8360747296
 30
0.0
 10
20.7104450888
 20
3.8211956282
 30
0.0
 10
20.6956300319
 20
3.801970873
 30
0.0
 10
20.6758155659
 20
3.7790946796
 30
0.0
 10
20.6504464594
 20
3.7533306182
 30
0.0
 10
20.614908893
 20
3.7217848329
 30
0.0
 10
20.5859024408
 20
3.7010765407
 30
0.0
 10
20.5656602974
 20
3.6891513807
 30
0.0
  0
SPLINE
  5
280
100
AcDbEntity
  8
0
100
AcDbSpline
 62
7
  6
BYLAYER
 70
0
 71
3
 72
22
 73
18
 74
0
 42
0.0000001
 43
0.0000001
 44
0.0000000001
 40
0.0
 40
0.0
 40
0.0
 40
0.0
 40
0.0428181053
 40
0.0874052111
 40
0.1351921664
 40
0.1871089787
 40
0.2435612175
 40
0.304524211
 40
0.3696303144
 40
0.4382448351
 40
0.5095519985
 40
0.5825948808
 40
0.7296179413
 40
0.8016131199
 40
0.871225632
 40
0.9376263139
 40
1.0
 40
1.0
 40
1.0
 40
1.0
 10
19.3385283387
 20
5.5109805885
 30
0.0
 10
19.3015457302
 20
5.4896371055
 30
0.0
 10
19.2200380766
 20
5.4557381364
 30
0.0
 10
19.0854744197
 20
5.4360473562
 30
0.0
 10
18.9409771364
 20
5.4466515501
 30
0.0
 10
18.7897541826
 20
5.4868471722
 30
0.0
 10
18.6347709588
 20
5.5553376809
 30
0.0
 10
18.4791057733
 20
5.6505541641
 30
0.0
 10
18.3259467988
 20
5.7704793664
 30
0.0
 10
18.1784359581
 20
5.9125182166
 30
0.0
 10
18.0396979057
 20
6.0737209536
 30
0.0
 10
17.8700815807
 20
6.3099669084
 30
0.0
 10
17.7306561775
 20
6.5676181082
 30
0.0
 10
17.6274072543
 20
6.8366000633
 30
0.0
 10
17.5709780707
 20
7.0365609679
 30
0.0
 10
17.5363366039
 20
7.2316718093
 30
0.0
 10
17.5278714084
 20
7.360173231
 30
0.0
 10
17.5278714084
 20
7.4223743188
 30
0.0
  0
SPLINE
  5
281
100
AcDbEntity
  8
0
100
AcDbSpline
 62
7
  6
BYLAYER
 70
0
 71
3
 72
15
 73
11
 74
0
 42
0.0000001
 43
0.0000001
 44
0.0000000001
 40
0.0
 40
0.0
 40
0.0
 40
0.0
 40
0.1484460279
 40
0.2894448755
 40
0.4227566388
 40
0.5486723329
 40
0.6680058922
 40
0.781932166
 40
0.891988588
 40
1.0
 40
1.0
 40
1.0
 40
1.0
 10
17.5278714084
 20
28.1615357139
 30
0.0
 10
17.5278714084
 20
28.2005636667
 30
0.0
 10
17.5310443955
 20
28.2767129846
 30
0.0
 10
17.5460189466
 20
28.3870213372
 30
0.0
 10
17.5710507233
 20
28.4894490513
 30
0.0
 10
17.6059729124
 20
28.5829213059
 30
0.0
 10
17.6504502714
 20
28.6665639154
 30
0.0
 10
17.7042074458
 20
28.7395118734
 30
0.0
 10
17.7666630591
 20
28.8010150305
 30
0.0
 10
17.8139484536
 20
28.8340127457
 30
0.0
 10
17.8385436536
 20
28.8482071807
 30
0.0
  0
SPLINE
  5
282
100
AcDbEntity
  8
0
100
AcDbSpline
 62
7
  6
BYLAYER
 70
0
 71
3
 72
15
 73
11
 74
0
 42
0.0000001
 43
0.0000001
 44
0.0000000001
 40
0.0
 40
0.0
 40
0.0
 40
0.0
 40
0.1484460279
 40
0.2894448755
 40
0.4227566388
 40
0.5486723329
 40
0.6680058922
 40
0.781932166
 40
0.891988588
 40
1.0
 40
1.0
 40
1.0
 40
1.0
 10
17.5278714084
 20
7.4223743188
 30
0.0
 10
17.5278714084
 20
7.4614022717
 30
0.0
 10
17.5310443955
 20
7.5375515895
 30
0.0
 10
17.5460189466
 20
7.6478599421
 30
0.0
 10
17.5710507233
 20
7.7502876562
 30
0.0
 10
17.6059729124
 20
7.8437599108
 30
0.0
 10
17.6504502714
 20
7.9274025203
 30
0.0
 10
17.7042074458
 20
8.0003504783
 30
0.0
 10
17.7666630591
 20
8.0618536354
 30
0.0
 10
17.8139484536
 20
8.0948513506
 30
0.0
 10
17.8385436536
 20
8.1090457856
 30
0.0
  0
SPLINE
  5
283
100
AcDbEntity
  8
0
100
AcDbSpline
 62
7
  6
BYLAYER
 70
0
 71
3
 72
13
 73
9
 74
0
 42
0.0000001
 43
0.0000001
 44
0.0000000001
 40
0.0
 40
0.0
 40
0.0
 40
0.0
 40
0.1154790282
 40
0.2383632027
 40
0.4966567396
 40
0.7567328706
 40
0.8817446581
 40
1.0
 40
1.0
 40
1.0
 40
1.0
 10
20.3736164494
 20
28.3965367765
 30
0.0
 10
20.3868869329
 20
28.390034597
 30
0.0
 10
20.4152391281
 20
28.3785230199
 30
0.0
 10
20.4765861658
 20
28.3615056932
 30
0.0
 10
20.5587166543
 20
28.3523444107
 30
0.0
 10
20.641365421
 20
28.3586706063
 30
0.0
 10
20.7041618533
 20
28.3734534117
 30
0.0
 10
20.7335775907
 20
28.3839151336
 30
0.0
 10
20.7474697415
 20
28.3899167251
 30
0.0
  0
SPLINE
  5
284
100
AcDbEntity
  8
0
100
AcDbSpline
 62
7
  6
BYLAYER
 70
0
 71
3
 72
9
 73
5
 74
0
 42
0.0000001
 43
0.0000001
 44
0.0000000001
 40
0.0
 40
0.0
 40
0.0
 40
0.0
 40
0.248038134
 40
1.0
 40
1.0
 40
1.0
 40
1.0
 10
6.5523852627
 20
39.4006744592
 30
0.0
 10
6.5558192475
 20
39.4026572466
 30
0.0
 10
6.569779313
 20
39.410450344
 30
0.0
 10
6.5841678824
 20
39.4174684218
 30
0.0
 10
6.5951549617
 20
39.4223467324
 30
0.0
  0
SPLINE
  5
285
100
AcDbEntity
  8
0
100
AcDbSpline
 62
7
  6
BYLAYER
 70
0
 71
3
 72
16
 73
12
 74
0
 42
0.0000001
 43
0.0000001
 44
0.0000000001
 40
0.0
 40
0.0
 40
0.0
 40
0.0
 40
0.2478028897
 40
0.3731761512
 40
0.4992540542
 40
0.626116578
 40
0.7530909389
 40
0.816454359
 40
0.8802977634
 40
0.943379096
 40
1.0
 40
1.0
 40
1.0
 40
1.0
 10
6.5951549617
 20
39.4223467324
 30
0.0
 10
6.6130887356
 20
39.4303094054
 30
0.0
 10
6.6408206695
 20
39.4407217183
 30
0.0
 10
6.678734717
 20
39.4519423111
 30
0.0
 10
6.7078166643
 20
39.459167284
 30
0.0
 10
6.7372557865
 20
39.4653818319
 30
0.0
 10
6.7619710637
 20
39.4698690272
 30
0.0
 10
6.7817898554
 20
39.4733709813
 30
0.0
 10
6.796568755
 20
39.4763417497
 30
0.0
 10
6.810665544
 20
39.4798536276
 30
0.0
 10
6.8195906104
 20
39.483300193
 30
0.0
 10
6.8234734178
 20
39.4855419195
 30
0.0
  0
SPLINE
  5
286
100
AcDbEntity
  8
0
100
AcDbSpline
 62
7
  6
BYLAYER
 70
0
 71
3
 72
12
 73
8
 74
0
 42
0.0000001
 43
0.0000001
 44
0.0000000001
 40
0.0
 40
0.0
 40
0.0
 40
0.0
 40
0.2726805723
 40
0.5301211315
 40
0.65313592
 40
0.7724851607
 40
1.0
 40
1.0
 40
1.0
 40
1.0
 10
20.3739805052
 20
29.4984442066
 30
0.0
 10
20.4021397506
 20
29.4104356302
 30
0.0
 10
20.4620691646
 20
29.2410066352
 30
0.0
 10
20.541217166
 20
29.0343217753
 30
0.0
 10
20.6017934659
 20
28.8761535804
 30
0.0
 10
20.6577722578
 20
28.727089708
 30
0.0
 10
20.6976259616
 20
28.6164950993
 30
0.0
 10
20.7227160246
 20
28.5435934859
 30
0.0
  0
SPLINE
  5
287
100
AcDbEntity
  8
0
100
AcDbSpline
 62
7
  6
BYLAYER
 70
0
 71
3
 72
32
 73
28
 74
0
 42
0.0000001
 43
0.0000001
 44
0.0000000001
 40
0.0
 40
0.0
 40
0.0
 40
0.0
 40
0.0034119282
 40
0.0064549384
 40
0.0093780491
 40
0.0122528524
 40
0.0181794975
 40
0.0243591565
 40
0.0306563957
 40
0.0370539904
 40
0.0435642154
 40
0.0501605234
 40
0.0635397974
 40
0.0770918485
 40
0.1045784153
 40
0.1324957397
 40
0.1607870598
 40
0.218415024
 40
0.2772910442
 40
0.3373321762
 40
0.3985087707
 40
0.4608176842
 40
0.5242573387
 40
0.5888230682
 40
0.7213428364
 40
0.8584167331
 40
1.0
 40
1.0
 40
1.0
 40
1.0
 10
18.2260204155
 20
32.9024272708
 30
0.0
 10
18.2248696665
 20
32.9017628896
 30
0.0
 10
18.2229136713
 20
32.9000003147
 30
0.0
 10
18.221605344
 20
32.8964926724
 30
0.0
 10
18.2214025537
 20
32.8930230229
 30
0.0
 10
18.2221348881
 20
32.8884898352
 30
0.0
 10
18.2242873763
 20
32.8830243466
 30
0.0
 10
18.2275146072
 20
32.8766296507
 30
0.0
 10
18.2311083569
 20
32.8702129929
 30
0.0
 10
18.2350152161
 20
32.8638333392
 30
0.0
 10
18.239234671
 20
32.8575154309
 30
0.0
 10
18.2451704158
 20
32.8490789063
 30
0.0
 10
18.2529656271
 20
32.8386018438
 30
0.0
 10
18.2658487683
 20
32.8217743388
 30
0.0
 10
18.2824490169
 20
32.8006635297
 30
0.0
 10
18.3028209805
 20
32.775219218
 30
0.0
 10
18.3306615942
 20
32.7407175205
 30
0.0
 10
18.3663075137
 20
32.6970226243
 30
0.0
 10
18.4097138605
 20
32.6437013698
 30
0.0
 10
18.4538579855
 20
32.5891988063
 30
0.0
 10
18.4987030049
 20
32.5335438523
 30
0.0
 10
18.5443143052
 20
32.4768067259
 30
0.0
 10
18.5907639536
 20
32.4190499688
 30
0.0
 10
18.6544629756
 20
32.340076941
 30
0.0
 10
18.7366594262
 20
32.2391795786
 30
0.0
 10
18.8398289762
 20
32.1166981544
 30
0.0
 10
18.9122175172
 20
32.0358050323
 30
0.0
 10
18.9498697936
 20
31.9955229005
 30
0.0
  0
SPLINE
  5
288
100
AcDbEntity
  8
0
100
AcDbSpline
 62
7
  6
BYLAYER
 70
0
 71
3
 72
9
 73
5
 74
0
 42
0.0000001
 43
0.0000001
 44
0.0000000001
 40
0.0
 40
0.0
 40
0.0
 40
0.0
 40
0.497582834
 40
1.0
 40
1.0
 40
1.0
 40
1.0
 10
28.8855866391
 20
33.2564009009
 30
0.0
 10
28.8994695955
 20
33.3445586962
 30
0.0
 10
28.9209018711
 20
33.5228091236
 30
0.0
 10
28.9286813734
 20
33.7022196066
 30
0.0
 10
28.9287504779
 20
33.7923308786
 30
0.0
  0
SPLINE
  5
289
100
AcDbEntity
  8
0
100
AcDbSpline
 62
7
  6
BYLAYER
 70
0
 71
3
 72
13
 73
9
 74
0
 42
0.0000001
 43
0.0000001
 44
0.0000000001
 40
0.0
 40
0.0
 40
0.0
 40
0.0
 40
0.1219344526
 40
0.2464239531
 40
0.499395147
 40
0.7526749001
 40
0.877548641
 40
1.0
 40
1.0
 40
1.0
 40
1.0
 10
20.3736164494
 20
29.499691819
 30
0.0
 10
20.3406691752
 20
29.6126505959
 30
0.0
 10
20.266751799
 20
29.8388611256
 30
0.0
 10
20.0899208999
 20
30.2873967871
 30
0.0
 10
19.8177705511
 20
30.8333847824
 30
0.0
 10
19.4862773202
 20
31.3459455847
 30
0.0
 10
19.1898266324
 20
31.7276449446
 30
0.0
 10
19.0323766128
 20
31.9072524022
 30
0.0
 10
18.9516871558
 20
31.9935776832
 30
0.0
  0
SPLINE
  5
28A
100
AcDbEntity
  8
0
100
AcDbSpline
 62
7
  6
BYLAYER
 70
0
 71
3
 72
17
 73
13
 74
0
 42
0.0000001
 43
0.0000001
 44
0.0000000001
 40
0.0
 40
0.0
 40
0.0
 40
0.0
 40
0.24529203
 40
0.3701226056
 40
0.495992472
 40
0.6226601389
 40
0.7498162519
 40
0.8135764607
 40
0.8768508817
 40
0.940726356
 40
0.9719816602
 40
1.0
 40
1.0
 40
1.0
 40
1.0
 10
20.5656579212
 20
3.6891513511
 30
0.0
 10
20.5451443649
 20
3.7012719819
 30
0.0
 10
20.5157458106
 20
3.7222967816
 30
0.0
 10
20.4796567302
 20
3.7542380501
 30
0.0
 10
20.453807541
 20
3.7802681247
 30
0.0
 10
20.4294476608
 20
3.8079872021
 30
0.0
 10
20.4105119297
 20
3.8323712836
 30
0.0
 10
20.3964347048
 20
3.8526646001
 30
0.0
 10
20.3864433041
 20
3.8682864492
 30
0.0
 10
20.379082176
 20
3.8818516319
 30
0.0
 10
20.3747192295
 20
3.8930005084
 30
0.0
 10
20.3736164494
 20
3.8987426619
 30
0.0
 10
20.3736164494
 20
3.9014642626
 30
0.0
  0
SPLINE
  5
28B
100
AcDbEntity
  8
0
100
AcDbSpline
 62
7
  6
BYLAYER
 70
0
 71
3
 72
26
 73
22
 74
0
 42
0.0000001
 43
0.0000001
 44
0.0000000001
 40
0.0
 40
0.0
 40
0.0
 40
0.0
 40
0.1251908375
 40
0.2501311023
 40
0.374793457
 40
0.4991840572
 40
0.5612946121
 40
0.6233776399
 40
0.6854600915
 40
0.7475625305
 40
0.7786379078
 40
0.8097490297
 40
0.8409098542
 40
0.8721629365
 40
0.9036289838
 40
0.9354477996
 40
0.9515352364
 40
0.9677059066
 40
0.9843361651
 40
0.9926660908
 40
1.0
 40
1.0
 40
1.0
 40
1.0
 10
26.9098460528
 20
37.2982524725
 30
0.0
 10
26.8853040381
 20
37.3124211875
 30
0.0
 10
26.8358655496
 20
37.3400371851
 30
0.0
 10
26.7606931997
 20
37.3793860239
 30
0.0
 10
26.6846868103
 20
37.4166889292
 30
0.0
 10
26.6206654836
 20
37.4460768457
 30
0.0
 10
26.5690659285
 20
37.468525687
 30
0.0
 10
26.5301578589
 20
37.4847815691
 30
0.0
 10
26.4910002699
 20
37.5004217522
 30
0.0
 10
26.4581566486
 20
37.5129353324
 30
0.0
 10
26.4317327455
 20
37.5225963176
 30
0.0
 10
26.4118098328
 20
37.5296377544
 30
0.0
 10
26.3917705209
 20
37.5364669651
 30
0.0
 10
26.3715600664
 20
37.543037005
 30
0.0
 10
26.3510511665
 20
37.5491631043
 30
0.0
 10
26.333620221
 20
37.5535433029
 30
0.0
 10
26.3194418244
 20
37.5566145583
 30
0.0
 10
26.308530997
 20
37.5584808476
 30
0.0
 10
26.2991826646
 20
37.5590145361
 30
0.0
 10
26.2919042631
 20
37.5582939188
 30
0.0
 10
26.2884418624
 20
37.557240678
 30
0.0
 10
26.2870041598
 20
37.556410625
 30
0.0
  0
SPLINE
  5
28C
100
AcDbEntity
  8
0
100
AcDbSpline
 62
7
  6
BYLAYER
 70
0
 71
3
 72
22
 73
18
 74
0
 42
0.0000001
 43
0.0000001
 44
0.0000000001
 40
0.0
 40
0.0
 40
0.0
 40
0.0
 40
0.1383055057
 40
0.2514157593
 40
0.4381267244
 40
0.5988809754
 40
0.7346494042
 40
0.793022475
 40
0.8447884883
 40
0.8896636092
 40
0.9273560148
 40
0.9575692027
 40
0.979995268
 40
0.9881667149
 40
0.9942418345
 40
0.9981799989
 40
1.0
 40
1.0
 40
1.0
 40
1.0
 10
14.884457162
 20
44.1395252736
 30
0.0
 10
14.8881944944
 20
44.1416830106
 30
0.0
 10
14.8943809768
 20
44.1468753404
 30
0.0
 10
14.9012408412
 20
44.1588960695
 30
0.0
 10
14.9045686214
 20
44.1730168224
 30
0.0
 10
14.9068176415
 20
44.187908409
 30
0.0
 10
14.9078381595
 20
44.1989430839
 30
0.0
 10
14.9084655512
 20
44.2065895552
 30
0.0
 10
14.9088411901
 20
44.2114120175
 30
0.0
 10
14.9091570404
 20
44.2155913619
 30
0.0
 10
14.9094245006
 20
44.2191010152
 30
0.0
 10
14.9096568345
 20
44.2219079861
 30
0.0
 10
14.9098400073
 20
44.2238011538
 30
0.0
 10
14.9099875288
 20
44.2249300249
 30
0.0
 10
14.9100722766
 20
44.2255016387
 30
0.0
 10
14.9101601196
 20
44.2258406676
 30
0.0
 10
14.9102108513
 20
44.2260385427
 30
0.0
 10
14.9102600485
 20
44.2260669083
 30
0.0
  0
ENDSEC
  0
SECTION
  2
OBJECTS
  0
DICTIONARY
  5
C
100
AcDbDictionary
280
0
281
1
  3
ACAD_GROUP
350
D
  3
ACAD_MLINESTYLE
350
17
  3
ACAD_LAYOUT
350
1A
  3
ACAD_PLOTSETTINGS
350
19
  3
ACAD_PLOTSTYLENAME
350
E
  0
DICTIONARY
  5
D
102
{ACAD_REACTORS
330
C
102
}
100
AcDbDictionary
280
0
281
1
  0
ACDBDICTIONARYWDFLT
  5
E
102
{ACAD_REACTORS
330
C
102
}
100
AcDbDictionary
281
1
  3
Normal
350
F
100
AcDbDictionaryWithDefault
340
F
  0
DICTIONARY
  5
17
102
{ACAD_REACTORS
330
C
102
}
100
AcDbDictionary
280
0
281
1
  3
Standard
350
18
  0
DICTIONARY
  5
19
102
{ACAD_REACTORS
330
C
102
}
100
AcDbDictionary
281
1
  0
DICTIONARY
  5
1A
102
{ACAD_REACTORS
330
C
102
}
100
AcDbDictionary
281
1
  3
Model
350
28D
  3
Layout1
350
28E
  0
ACDBPLACEHOLDER
  5
F
102
{ACAD_REACTORS
330
E
102
}
  0
MLINESTYLE
  5
18
102
{ACAD_REACTORS
330
17
102
}
100
AcDbMlineStyle
  2
STANDARD
 70
0
  3

 62
256
 51
90.0
 52
90.0
 71
2
 49
0.5
 62
256
  6
BYLAYER
 49
-0.5
 62
256
  6
BYLAYER
  0
LAYOUT
  5
28D
102
{ACAD_REACTORS
330
1A
102
}
100
AcDbPlotSettings
  1

  2
none_device
  4

  6

 40
0.0
 41
0.0
 42
0.0
 43
0.0
 44
210.0
 45
297.0
 46
0.0
 47
0.0
 48
0.0
 49
0.0
140
0.0
141
0.0
142
1.0
143
1.0
 70
1024
 72
1
 73
0
 74
0
  7

 75
0
147
1.0
148
0.0
149
0.0
100
AcDbLayout
  1
Model
 70
0
 71
0
 10
0.0
 20
0.0
 11
210.0
 21
297.0
 12
0.0
 22
0.0
 32
0.0
 14
0.0
 24
0.0
 34
0.0
 15
0.0
 25
0.0
 35
0.0
146
0.0
 13
0.0
 23
0.0
 33
0.0
 16
1.0
 26
0.0
 36
0.0
 17
0.0
 27
1.0
 37
0.0
 76
0
330
210
345
0
346
0
  0
LAYOUT
  5
28E
102
{ACAD_REACTORS
330
1A
102
}
100
AcDbPlotSettings
  1

  2
none_device
  4

  6

 40
0.0
 41
0.0
 42
0.0
 43
0.0
 44
210.0
 45
297.0
 46
0.0
 47
0.0
 48
0.0
 49
0.0
140
0.0
141
0.0
142
1.0
143
1.0
 70
0
 72
1
 73
0
 74
0
  7

 75
0
147
1.0
148
0.0
149
0.0
100
AcDbLayout
  1
Layout1
 70
0
 71
1
 10
0.0
 20
0.0
 11
210.0
 21
297.0
 12
0.0
 22
0.0
 32
0.0
 14
0.0
 24
0.0
 34
0.0
 15
0.0
 25
0.0
 35
0.0
146
0.0
 13
0.0
 23
0.0
 33
0.0
 16
1.0
 26
0.0
 36
0.0
 17
0.0
 27
1.0
 37
0.0
 76
0
330
211
345
0
346
0
  0
ENDSEC
  0
EOF
