999
DXF file: C:\Users\sesa63760\Dev\_Creo\CAD\MCADID0004122_3D-CAD\drw0001_1.dxf
999
Pro/ENGINEER 2019471 by Parametric Technology Corporation
  0
SECTION
  2
HEADER
  9
$ACADVER
  1
AC1024
  9
$DWGCODEPAGE
  3
ANSI_1252
  9
$EXTMAX
 10
79.6299697235
 20
112.6195286089
 30
0.0
  9
$EXTMIN
 10
-0.0
 20
0.0
 30
0.0
  9
$LIMMIN
 10
-0.0
 20
0.0
  9
$LIMMAX
 10
79.6299697235
 20
112.6195286089
  9
$VIEWCTR
 10
39.8149848617
 20
56.3097643044
  9
$VIEWSIZE
 40
112.6195286089
  9
$CLAYER
  8
0
  9
$LTSCALE
 40
7.3411248278
  9
$CELTYPE
  6
BYLAYER
  9
$DIMSCALE
 40
1.0
  9
$DIMASZ
 40
0.94797583
  9
$DIMEXO
 40
1.0
  9
$DIMDLI
 40
5.0720498811
  9
$DIMEXE
 40
1.0
  9
$DIMCEN
 40
1.2012749718
  9
$DIMLFAC
 40
1.0
  9
$DIMBLK
  1
_FILLED
  9
$DIMALT
 70
0
  9
$DIMALTF
 40
0.0393700787
  9
$DIMTXT
 40
1.3271661621
  9
$DIMTOL
 70
1
  9
$DIMLIM
 70
0
  9
$DIMTFAC
 40
1.0
  9
$DIMTP
 40
0.01
  9
$DIMTM
 40
0.01
  9
$DIMGAP
 40
0.625
  9
$DIMDSEP
 70
46
  9
$AUNITS
 70
0
  9
$PDMODE
 70
3
  9
$PDSIZE
 40
0.3125
  9
$HANDSEED
  5
2FF
  9
$TILEMODE
 70
1
  9
$MEASUREMENT
 70
1
  9
$INSUNITS
 70
4
  0
ENDSEC
  0
SECTION
  2
CLASSES
  0
CLASS
  1
ACDBDICTIONARYWDFLT
  2
AcDbDictionaryWithDefault
  3
AutoCAD 2000
 90
0
 91
1
280
0
281
0
  0
CLASS
  1
ACDBPLACEHOLDER
  2
AcDbPlaceHolder
  3
AutoCAD 2000
 90
0
 91
1
280
0
281
0
  0
CLASS
  1
LAYOUT
  2
AcDbLayout
  3
AutoCAD 2000
 90
0
 91
0
280
0
281
0
  0
ENDSEC
  0
SECTION
  2
TABLES
  0
TABLE
  2
VPORT
  5
8
100
AcDbSymbolTable
 70
2
  0
VPORT
  5
1F4
100
AcDbSymbolTableRecord
100
AcDbViewportTableRecord
  2
*ACTIVE
 70
0
 10
0.0
 20
0.0
 11
1.0
 21
1.0
 12
39.8149848617
 22
56.3097643044
 13
0.0
 23
0.0
 14
1.0
 24
1.0
 15
0.0
 25
0.0
 16
0.0
 26
0.0
 36
1.0
 17
0.0
 27
0.0
 37
0.0
 40
112.6195286089
 41
0.7070707071
 42
50.0
 43
0.0
 44
0.0
 50
0.0
 51
0.0
 71
0
 72
100
 73
1
 74
1
 75
0
 76
0
 77
0
 78
0
  0
ENDTAB
  0
TABLE
  2
LTYPE
  5
5
100
AcDbSymbolTable
 70
6
  0
LTYPE
  5
14
100
AcDbSymbolTableRecord
100
AcDbLinetypeTableRecord
  2
BYBLOCK
 70
0
  3

 72
65
 73
0
 40
0.0
  0
LTYPE
  5
15
100
AcDbSymbolTableRecord
100
AcDbLinetypeTableRecord
  2
BYLAYER
 70
0
  3

 72
65
 73
0
 40
0.0
  0
LTYPE
  5
16
100
AcDbSymbolTableRecord
100
AcDbLinetypeTableRecord
  2
CONTINUOUS
 70
64
  3
Solid line
 72
65
 73
0
 40
0.0
  0
LTYPE
  5
1F5
100
AcDbSymbolTableRecord
100
AcDbLinetypeTableRecord
  2
CENTER
 70
64
  3
____ _ ____ _ ____ _ ____ _ ____ _ ____ _ ____
 72
65
 73
4
 40
0.6
 49
0.375
 74
0
 49
-0.075
 74
0
 49
0.075
 74
0
 49
-0.075
 74
0
  0
LTYPE
  5
1F6
100
AcDbSymbolTableRecord
100
AcDbLinetypeTableRecord
  2
HIDDEN
 70
64
  3
- - - - - - - - - - - - - - - - - - - -
 72
65
 73
2
 40
0.2
 49
0.1
 74
0
 49
-0.1
 74
0
  0
LTYPE
  5
1F7
100
AcDbSymbolTableRecord
100
AcDbLinetypeTableRecord
  2
PHANTOM
 70
64
  3
_____ _ _ _____ _ _ _____ _ _ _____
 72
65
 73
6
 40
0.8
 49
0.45
 74
0
 49
-0.05
 74
0
 49
0.1
 74
0
 49
-0.05
 74
0
 49
0.1
 74
0
 49
-0.05
 74
0
  0
LTYPE
  5
1F8
100
AcDbSymbolTableRecord
100
AcDbLinetypeTableRecord
  2
DOT
 70
64
  3
. . . . . . . . . . . . . . . . . . . .
 72
65
 73
2
 40
0.2
 49
0.1
 74
0
 49
-0.1
 74
0
  0
LTYPE
  5
1F9
100
AcDbSymbolTableRecord
100
AcDbLinetypeTableRecord
  2
DASHED
 70
64
  3
- - - - - - - - - - - - - - - - - - - -
 72
65
 73
2
 40
0.2
 49
0.1
 74
0
 49
-0.1
 74
0
  0
ENDTAB
  0
TABLE
  2
LAYER
  5
2
100
AcDbSymbolTable
 70
36
  0
LAYER
  5
10
100
AcDbSymbolTableRecord
100
AcDbLayerTableRecord
  2
0
 70
0
 62
7
  6
CONTINUOUS
370
-3
390
F
  0
LAYER
  5
1FA
100
AcDbSymbolTableRecord
100
AcDbLayerTableRecord
  2
DEFAULT_1
 70
0
 62
7
  6
CENTER
370
-3
390
F
  0
LAYER
  5
1FB
100
AcDbSymbolTableRecord
100
AcDbLayerTableRecord
  2
DEFAULT_2
 70
0
 62
7
  6
HIDDEN
370
-3
390
F
  0
LAYER
  5
1FC
100
AcDbSymbolTableRecord
100
AcDbLayerTableRecord
  2
DEFAULT_3
 70
0
 62
7
  6
PHANTOM
370
-3
390
F
  0
LAYER
  5
1FD
100
AcDbSymbolTableRecord
100
AcDbLayerTableRecord
  2
00_COMPONENTS
 70
0
 62
7
  6
CONTINUOUS
370
-3
390
F
  0
LAYER
  5
1FE
100
AcDbSymbolTableRecord
100
AcDbLayerTableRecord
  2
01_1_DEFAULT_DATUMS
 70
0
 62
7
  6
CONTINUOUS
370
-3
390
F
  0
LAYER
  5
1FF
100
AcDbSymbolTableRecord
100
AcDbLayerTableRecord
  2
01_PLANES
 70
0
 62
7
  6
CONTINUOUS
370
-3
390
F
  0
LAYER
  5
200
100
AcDbSymbolTableRecord
100
AcDbLayerTableRecord
  2
02_COORD_SYS
 70
0
 62
7
  6
CONTINUOUS
370
-3
390
F
  0
LAYER
  5
201
100
AcDbSymbolTableRecord
100
AcDbLayerTableRecord
  2
03_AXES
 70
0
 62
7
  6
CONTINUOUS
370
-3
390
F
  0
LAYER
  5
202
100
AcDbSymbolTableRecord
100
AcDbLayerTableRecord
  2
04_POINTS
 70
0
 62
7
  6
CONTINUOUS
370
-3
390
F
  0
LAYER
  5
203
100
AcDbSymbolTableRecord
100
AcDbLayerTableRecord
  2
05_CURVES
 70
0
 62
7
  6
CONTINUOUS
370
-3
390
F
  0
LAYER
  5
204
100
AcDbSymbolTableRecord
100
AcDbLayerTableRecord
  2
06_SURFS
 70
0
 62
7
  6
CONTINUOUS
370
-3
390
F
  0
LAYER
  5
205
100
AcDbSymbolTableRecord
100
AcDbLayerTableRecord
  2
07_COSMETICS
 70
0
 62
7
  6
CONTINUOUS
370
-3
390
F
  0
LAYER
  5
206
100
AcDbSymbolTableRecord
100
AcDbLayerTableRecord
  2
10_NOTES
 70
0
 62
7
  6
CONTINUOUS
370
-3
390
F
  0
LAYER
  5
207
100
AcDbSymbolTableRecord
100
AcDbLayerTableRecord
  2
11_NOTES_PUB
 70
0
 62
7
  6
CONTINUOUS
370
-3
390
F
  0
LAYER
  5
208
100
AcDbSymbolTableRecord
100
AcDbLayerTableRecord
  2
13_REF_GTOL
 70
0
 62
7
  6
CONTINUOUS
370
-3
390
F
  0
LAYER
  5
209
100
AcDbSymbolTableRecord
100
AcDbLayerTableRecord
  2
16_MISC
 70
0
 62
7
  6
CONTINUOUS
370
-3
390
F
  0
LAYER
  5
20A
100
AcDbSymbolTableRecord
100
AcDbLayerTableRecord
  2
17_NO_PRINT
 70
0
 62
7
  6
CONTINUOUS
370
-3
390
F
  0
LAYER
  5
20B
100
AcDbSymbolTableRecord
100
AcDbLayerTableRecord
  2
18_DATUM_CAMS_JOINTS
 70
0
 62
7
  6
CONTINUOUS
370
-3
390
F
  0
LAYER
  5
20C
100
AcDbSymbolTableRecord
100
AcDbLayerTableRecord
  2
19_DATUM_FUNCTIONAL
 70
0
 62
7
  6
CONTINUOUS
370
-3
390
F
  0
LAYER
  5
20D
100
AcDbSymbolTableRecord
100
AcDbLayerTableRecord
  2
20_DATUM_KINEMATIC_SCHEME
 70
0
 62
7
  6
CONTINUOUS
370
-3
390
F
  0
ENDTAB
  0
TABLE
  2
STYLE
  5
3
100
AcDbSymbolTable
 70
1
  0
STYLE
  5
11
100
AcDbSymbolTableRecord
100
AcDbTextStyleTableRecord
  2
STANDARD
 70
0
 40
0.0
 41
1.0
 50
0.0
 71
0
 42
0.2
  3
ARIAL.TTF
  4

  0
STYLE
  5
20E
100
AcDbSymbolTableRecord
100
AcDbTextStyleTableRecord
  2
TEXTSTYLE_1
 70
0
 40
0.0
 41
0.8
 50
0.0
 71
0
 42
0.2
  3
gdt
  4

  0
ENDTAB
  0
TABLE
  2
VIEW
  5
6
100
AcDbSymbolTable
 70
0
  0
ENDTAB
  0
TABLE
  2
UCS
  5
7
100
AcDbSymbolTable
 70
0
  0
ENDTAB
  0
TABLE
  2
APPID
  5
9
100
AcDbSymbolTable
 70
1
  0
APPID
  5
20F
100
AcDbSymbolTableRecord
100
AcDbRegAppTableRecord
  2
ACAD
 70
0
  0
ENDTAB
  0
TABLE
  2
BLOCK_RECORD
  5
1
100
AcDbSymbolTable
 70
0
  0
BLOCK_RECORD
  5
210
100
AcDbSymbolTableRecord
100
AcDbBlockTableRecord
  2
*Model_Space
  0
BLOCK_RECORD
  5
211
100
AcDbSymbolTableRecord
100
AcDbBlockTableRecord
  2
*Paper_Space
  0
BLOCK_RECORD
  5
212
100
AcDbSymbolTableRecord
100
AcDbBlockTableRecord
  2
_FILLED
  0
ENDTAB
  0
TABLE
  2
DIMSTYLE
  5
A
100
AcDbSymbolTable
 70
1
100
AcDbDimStyleTable
 71
0
  0
DIMSTYLE
105
213
100
AcDbSymbolTableRecord
100
AcDbDimStyleTableRecord
  2
STANDARD
 70
0
  3

  4

 40
1.0
 41
0.94797583
 42
1.0
 43
0.38
 44
1.0
 45
0.0
 46
0.0
 47
0.01
 48
0.01
140
1.3271661621
141
0.09
142
0.0
143
25.4
144
1.0
145
0.0
146
1.0
147
0.625
 71
1
 72
0
 73
0
 74
0
 75
0
 76
0
 77
1
 78
8
 79
2
170
0
171
1
172
0
173
0
174
0
175
0
176
0
177
0
178
0
270
2
179
2
271
2
272
2
273
2
274
2
275
0
280
0
281
0
282
0
283
1
284
8
285
0
286
0
287
3
288
0
340
11
278
46
341
212
342
212
343
212
344
212
  0
ENDTAB
  0
ENDSEC
  0
SECTION
  2
BLOCKS
  0
BLOCK
  5
20
100
AcDbEntity
  8
0
100
AcDbBlockBegin
  2
*Model_Space
 70
0
 10
0.0
 20
0.0
 30
0.0
  3
*Model_Space
  1

  0
ENDBLK
  5
21
100
AcDbEntity
  8
0
100
AcDbBlockEnd
  0
BLOCK
  5
1C
100
AcDbEntity
  8
0
100
AcDbBlockBegin
  2
*Paper_Space
 70
0
 10
0.0
 20
0.0
 30
0.0
  3
*Paper_Space
  1

  0
ENDBLK
  5
1D
100
AcDbEntity
  8
0
100
AcDbBlockEnd
  0
BLOCK
  5
214
100
AcDbEntity
  8
0
100
AcDbBlockBegin
  2
_FILLED
 70
64
 10
0.0
 20
0.0
  3
_FILLED
  1

  0
SOLID
  5
215
100
AcDbEntity
  8
0
  6
BYBLOCK
 62
0
100
AcDbTrace
 10
0.0
 20
0.0
 11
-1.0
 21
0.25
 12
-1.0
 22
-0.25
 13
-1.0
 23
-0.25
  0
ENDBLK
  5
216
100
AcDbEntity
  8
0
  6
BYBLOCK
 62
0
100
AcDbBlockEnd
  0
ENDSEC
  0
SECTION
  2
ENTITIES
  0
LWPOLYLINE
  5
217
100
AcDbEntity
  8
0
100
AcDbPolyline
 62
7
  6
BYLAYER
 90
3
 70
0
 10
12.9565746211
 20
76.7690156257
 10
12.9603447586
 20
76.7720179324
 10
12.9657101605
 20
76.773813361
  0
LINE
  5
218
100
AcDbEntity
  8
0
100
AcDbLine
 62
7
  6
BYLAYER
 10
9.5473228859
 20
70.1576666573
 11
9.5473273023
 21
69.5452359674
  0
LINE
  5
219
100
AcDbEntity
  8
0
100
AcDbLine
 62
7
  6
BYLAYER
 10
13.2569625867
 20
76.5830224337
 11
13.7873484962
 21
76.8892496366
  0
LINE
  5
21A
100
AcDbEntity
  8
0
100
AcDbLine
 62
7
  6
BYLAYER
 10
12.9565665028
 20
76.7698775434
 11
12.9656883447
 21
76.7750374881
  0
LINE
  5
21B
100
AcDbEntity
  8
0
100
AcDbLine
 62
7
  6
BYLAYER
 10
19.1956382752
 20
73.154403992
 11
19.7260241848
 21
73.4606311949
  0
LINE
  5
21C
100
AcDbEntity
  8
0
100
AcDbLine
 62
7
  6
BYLAYER
 10
23.2133486549
 20
75.2965923592
 11
16.5801524744
 21
71.4669376188
  0
LINE
  5
21D
100
AcDbEntity
  8
0
100
AcDbLine
 62
7
  6
BYLAYER
 10
27.475922826
 20
73.3444516154
 11
21.2123920237
 21
69.7282220065
  0
LINE
  5
21E
100
AcDbEntity
  8
0
100
AcDbLine
 62
7
  6
BYLAYER
 10
28.1050870305
 20
57.68672346
 11
28.105091447
 21
57.07429277
  0
LINE
  5
21F
100
AcDbEntity
  8
0
100
AcDbLine
 62
7
  6
BYLAYER
 10
33.9726217206
 20
67.8497044919
 11
34.5030076301
 21
68.1559316948
  0
LINE
  5
220
100
AcDbEntity
  8
0
100
AcDbLine
 62
7
  6
BYLAYER
 10
31.0182510382
 20
47.544905835
 11
31.9189127431
 21
47.0249203209
  0
LINE
  5
221
100
AcDbEntity
  8
0
100
AcDbLine
 62
7
  6
BYLAYER
 10
38.0893482897
 20
43.4624982898
 11
38.9900099946
 21
42.9425127757
  0
LINE
  5
222
100
AcDbEntity
  8
0
100
AcDbLine
 62
7
  6
BYLAYER
 10
37.1135479366
 20
46.9235468266
 11
36.5299172927
 21
46.9795629628
  0
LINE
  5
223
100
AcDbEntity
  8
0
100
AcDbLine
 62
7
  6
BYLAYER
 10
38.5269710285
 20
43.601267107
 11
37.6263093236
 21
44.1212526211
  0
LINE
  5
224
100
AcDbEntity
  8
0
100
AcDbLine
 62
7
  6
BYLAYER
 10
31.455873777
 20
47.6836746522
 11
30.5552120721
 21
48.2036601664
  0
LINE
  5
225
100
AcDbEntity
  8
0
100
AcDbLine
 62
7
  6
BYLAYER
 10
61.5539992802
 20
35.5309391862
 11
61.2756728719
 21
35.6752369975
  0
LINE
  5
226
100
AcDbEntity
  8
0
100
AcDbLine
 62
7
  6
BYLAYER
 10
49.9023758984
 20
42.2418259784
 11
49.9057303344
 21
42.2400559596
  0
LINE
  5
227
100
AcDbEntity
  8
0
100
AcDbLine
 62
7
  6
BYLAYER
 10
48.4202845969
 20
42.2854712533
 11
47.4906584957
 21
42.8221789911
  0
LINE
  5
228
100
AcDbEntity
  8
0
100
AcDbLine
 62
7
  6
BYLAYER
 10
61.2762115488
 20
35.6749332608
 11
50.0446689168
 21
42.1593207263
  0
LINE
  5
229
100
AcDbEntity
  8
0
100
AcDbLine
 62
7
  6
BYLAYER
 10
49.9055178453
 20
42.2396875499
 11
49.1960514615
 21
42.6492591587
  0
LINE
  5
22A
100
AcDbEntity
  8
0
100
AcDbLine
 62
7
  6
BYLAYER
 10
28.7094700009
 20
54.5313659802
 11
25.5887968802
 21
56.333046687
  0
LINE
  5
22B
100
AcDbEntity
  8
0
100
AcDbLine
 62
7
  6
BYLAYER
 10
25.3766425164
 20
56.4555312951
 11
24.7257561531
 21
56.8313122109
  0
LINE
  5
22C
100
AcDbEntity
  8
0
100
AcDbLine
 62
7
  6
BYLAYER
 10
24.7257561531
 20
56.8313122109
 11
24.360500738
 21
57.0830919841
  0
LINE
  5
22D
100
AcDbEntity
  8
0
100
AcDbLine
 62
7
  6
BYLAYER
 10
17.7624577516
 20
62.4491740428
 11
24.360500738
 21
57.0830919841
  0
LINE
  5
22E
100
AcDbEntity
  8
0
100
AcDbLine
 62
7
  6
BYLAYER
 10
17.9075319519
 20
62.331187533
 11
16.4248208449
 21
63.1872118239
  0
LINE
  5
22F
100
AcDbEntity
  8
0
100
AcDbLine
 62
7
  6
BYLAYER
 10
15.6237653941
 20
64.0090924125
 11
10.7892391449
 21
66.8002442996
  0
LINE
  5
230
100
AcDbEntity
  8
0
100
AcDbLine
 62
7
  6
BYLAYER
 10
30.5552120721
 20
58.2873790699
 11
31.455873777
 21
57.7673935558
  0
LINE
  5
231
100
AcDbEntity
  8
0
100
AcDbLine
 62
7
  6
BYLAYER
 10
37.6263093236
 20
54.2049715247
 11
38.5269710285
 21
53.6849860106
  0
LINE
  5
232
100
AcDbEntity
  8
0
100
AcDbLine
 62
7
  6
BYLAYER
 10
65.8696474248
 20
38.8991921371
 11
66.4350748319
 21
38.5727498565
  0
LINE
  5
233
100
AcDbEntity
  8
0
100
AcDbLine
 62
7
  6
BYLAYER
 10
38.9900099946
 20
54.8784084939
 11
38.0893482897
 21
55.398394008
  0
LINE
  5
234
100
AcDbEntity
  8
0
100
AcDbLine
 62
7
  6
BYLAYER
 10
31.9189127431
 20
58.9608160391
 11
31.0182510382
 21
59.4808015532
  0
LINE
  5
235
100
AcDbEntity
  8
0
100
AcDbLine
 62
7
  6
BYLAYER
 10
65.8696474248
 20
41.2788186025
 11
65.2812124561
 21
41.6185440044
  0
LINE
  5
236
100
AcDbEntity
  8
0
100
AcDbLine
 62
7
  6
BYLAYER
 10
65.3744102442
 20
42.2176274513
 11
66.4350748319
 21
41.6052663196
  0
LINE
  5
237
100
AcDbEntity
  8
0
100
AcDbLine
 62
7
  6
BYLAYER
 10
66.4350748319
 20
43.7128243633
 11
65.8696474248
 21
44.0392666439
  0
LINE
  5
238
100
AcDbEntity
  8
0
100
AcDbLine
 62
7
  6
BYLAYER
 10
21.6359316823
 20
74.3858756817
 11
16.7854578476
 21
77.1862347032
  0
LINE
  5
239
100
AcDbEntity
  8
0
100
AcDbLine
 62
7
  6
BYLAYER
 10
24.8513913914
 20
74.3585769725
 11
23.3686802844
 21
75.2146012634
  0
LINE
  5
23A
100
AcDbEntity
  8
0
100
AcDbLine
 62
7
  6
BYLAYER
 10
33.6742231309
 20
70.8163225331
 11
33.6859816712
 21
70.8107936261
  0
LINE
  5
23B
100
AcDbEntity
  8
0
100
AcDbLine
 62
7
  6
BYLAYER
 10
32.6229179273
 20
71.3943421058
 11
33.0235970455
 21
71.2039193741
  0
LINE
  5
23C
100
AcDbEntity
  8
0
100
AcDbLine
 62
7
  6
BYLAYER
 10
58.386006263
 20
56.6150927353
 11
58.3894713791
 21
56.6132698728
  0
LINE
  5
23D
100
AcDbEntity
  8
0
100
AcDbLine
 62
7
  6
BYLAYER
 10
23.2133486549
 20
75.2965923592
 11
23.3685199275
 21
75.2143236388
  0
LINE
  5
23E
100
AcDbEntity
  8
0
100
AcDbLine
 62
7
  6
BYLAYER
 10
36.9221763271
 20
68.9531244962
 11
33.8866377726
 21
70.7056538502
  0
LINE
  5
23F
100
AcDbEntity
  8
0
100
AcDbLine
 62
7
  6
BYLAYER
 10
33.6744834088
 20
70.8281384583
 11
33.0235970455
 21
71.2039193741
  0
LINE
  5
240
100
AcDbEntity
  8
0
100
AcDbLine
 62
7
  6
BYLAYER
 10
69.6211992645
 20
50.1292029647
 11
58.3862550047
 21
56.6155240135
  0
LINE
  5
241
100
AcDbEntity
  8
0
100
AcDbLine
 62
7
  6
BYLAYER
 10
58.2472101311
 20
56.6958300957
 11
57.5410391772
 21
57.1035288626
  0
LINE
  5
242
100
AcDbEntity
  8
0
100
AcDbLine
 62
7
  6
BYLAYER
 10
38.5809546718
 20
68.8889639203
 11
39.4816163767
 21
68.3689784062
  0
LINE
  5
243
100
AcDbEntity
  8
0
100
AcDbLine
 62
7
  6
BYLAYER
 10
45.6520519233
 20
64.8065563751
 11
46.5527136281
 21
64.286570861
  0
LINE
  5
244
100
AcDbEntity
  8
0
100
AcDbLine
 62
7
  6
BYLAYER
 10
24.6766736708
 20
74.4252182375
 11
32.6229179273
 21
71.3943421058
  0
LINE
  5
245
100
AcDbEntity
  8
0
100
AcDbLine
 62
7
  6
BYLAYER
 10
47.4787915603
 20
64.8212390129
 11
46.5781298555
 21
65.341224527
  0
LINE
  5
246
100
AcDbEntity
  8
0
100
AcDbLine
 62
7
  6
BYLAYER
 10
40.4076943088
 20
68.9036465581
 11
39.507032604
 21
69.4236320722
  0
LINE
  5
247
100
AcDbEntity
  8
0
100
AcDbLine
 62
7
  6
BYLAYER
 10
58.2574009881
 20
56.4747165822
 11
58.1416838574
 21
56.5850193157
  0
LINE
  5
248
100
AcDbEntity
  8
0
100
AcDbLine
 62
7
  6
BYLAYER
 10
57.9694677184
 20
56.7491774725
 11
57.684787272
 21
57.0205377389
  0
LINE
  5
249
100
AcDbEntity
  8
0
100
AcDbLine
 62
7
  6
BYLAYER
 10
47.79798258
 20
65.4299491403
 11
47.4576465073
 21
65.9073733685
  0
LINE
  5
24A
100
AcDbEntity
  8
0
100
AcDbLine
 62
7
  6
BYLAYER
 10
47.4787915603
 20
42.8016243911
 11
47.4974164973
 21
42.8182773453
  0
LINE
  5
24B
100
AcDbEntity
  8
0
100
AcDbLine
 62
7
  6
BYLAYER
 10
47.4787915603
 20
42.8016243911
 11
47.4981407397
 21
42.8174696537
  0
LINE
  5
24C
100
AcDbEntity
  8
0
100
AcDbLine
 62
7
  6
BYLAYER
 10
33.6722530233
 20
70.8126706214
 11
33.6859816712
 21
70.8107936261
  0
LINE
  5
24D
100
AcDbEntity
  8
0
100
AcDbLine
 62
7
  6
BYLAYER
 10
47.0697362376
 20
68.7480755358
 11
47.9703979424
 21
68.2280900216
  0
LINE
  5
24E
100
AcDbEntity
  8
0
100
AcDbLine
 62
7
  6
BYLAYER
 10
54.140833489
 20
64.6656679906
 11
55.0414951939
 21
64.1456824764
  0
LINE
  5
24F
100
AcDbEntity
  8
0
100
AcDbLine
 62
7
  6
BYLAYER
 10
58.8442457704
 20
56.0818528611
 11
58.7107946835
 21
56.4281854844
  0
LINE
  5
250
100
AcDbEntity
  8
0
100
AcDbLine
 62
7
  6
BYLAYER
 10
66.4350748319
 20
48.3798590204
 11
65.8696474248
 21
48.0534113033
  0
LINE
  5
251
100
AcDbEntity
  8
0
100
AcDbLine
 62
7
  6
BYLAYER
 10
65.3744102442
 20
42.2176274513
 11
65.3744102442
 21
41.5647374536
  0
LINE
  5
252
100
AcDbEntity
  8
0
100
AcDbLine
 62
7
  6
BYLAYER
 10
65.8696474248
 20
48.0534113033
 11
65.8696474248
 21
43.3863766462
  0
LINE
  5
253
100
AcDbEntity
  8
0
100
AcDbLine
 62
7
  6
BYLAYER
 10
65.8696474248
 20
41.2788186025
 11
65.8696474248
 21
38.2463021394
  0
LINE
  5
254
100
AcDbEntity
  8
0
100
AcDbLine
 62
7
  6
BYLAYER
 10
66.4350748319
 20
38.5727498565
 11
66.4350748319
 21
41.6052663196
  0
LINE
  5
255
100
AcDbEntity
  8
0
100
AcDbLine
 62
7
  6
BYLAYER
 10
66.4350748319
 20
43.7128243633
 11
66.4350748319
 21
48.3798590204
  0
LINE
  5
256
100
AcDbEntity
  8
0
100
AcDbLine
 62
7
  6
BYLAYER
 10
65.8696474248
 20
38.2463021394
 11
66.4350748319
 21
38.5727498565
  0
LINE
  5
257
100
AcDbEntity
  8
0
100
AcDbLine
 62
7
  6
BYLAYER
 10
68.9389604363
 20
39.0423407538
 11
63.3657618232
 21
35.8246722412
  0
ARC
  5
258
100
AcDbEntity
  8
0
100
AcDbCircle
 62
7
  6
BYLAYER
 10
14.2121978557
 20
70.32039588
 40
4.9467371963
100
AcDbArc
 50
179.6149460715
 51
179.9995830632
  0
ARC
  5
259
100
AcDbEntity
  8
0
100
AcDbCircle
 62
7
  6
BYLAYER
 10
14.1171292622
 20
70.362391636
 40
4.8819765606
100
AcDbArc
 50
179.9992172115
 51
180.5981280173
  0
ARC
  5
25A
100
AcDbEntity
  8
0
100
AcDbCircle
 62
7
  6
BYLAYER
 10
32.2852450603
 20
68.4229026515
 40
2.7775934133
100
AcDbArc
 50
55.2733669837
 51
59.3675054968
  0
ARC
  5
25B
100
AcDbEntity
  8
0
100
AcDbCircle
 62
7
  6
BYLAYER
 10
26.9775874346
 20
58.7376380469
 40
2.7768087991
100
AcDbArc
 50
235.2739978083
 51
239.9910846888
  0
ARC
  5
25C
100
AcDbEntity
  8
0
100
AcDbCircle
 62
7
  6
BYLAYER
 10
32.5011701956
 20
68.3061985444
 40
2.7706993261
100
AcDbArc
 50
59.9974705259
 51
64.6832710232
  0
ARC
  5
25D
100
AcDbEntity
  8
0
100
AcDbCircle
 62
7
  6
BYLAYER
 10
32.2904160414
 20
68.4313323903
 40
2.7677052545
100
AcDbArc
 50
59.3706973989
 51
59.9951486251
  0
ARC
  5
25E
100
AcDbEntity
  8
0
100
AcDbCircle
 62
7
  6
BYLAYER
 10
17.5958524464
 20
65.2138866867
 40
2.3406468114
100
AcDbArc
 50
227.7216575493
 51
239.9802786715
  0
ARC
  5
25F
100
AcDbEntity
  8
0
100
AcDbCircle
 62
7
  6
BYLAYER
 10
52.1107297859
 20
50.440003516
 40
21.9160608127
100
AcDbArc
 50
157.1205786036
 51
160.4676626893
  0
ARC
  5
260
100
AcDbEntity
  8
0
100
AcDbCircle
 62
7
  6
BYLAYER
 10
59.1818270374
 20
46.3575959708
 40
21.9160608126
100
AcDbArc
 50
157.1205786036
 51
160.4676626893
  0
ARC
  5
261
100
AcDbEntity
  8
0
100
AcDbCircle
 62
7
  6
BYLAYER
 10
51.0377695894
 20
51.0268395517
 40
21.7313275376
100
AcDbArc
 50
157.1063480889
 51
160.4818932041
  0
ARC
  5
262
100
AcDbEntity
  8
0
100
AcDbCircle
 62
7
  6
BYLAYER
 10
58.1088668409
 20
46.9444320065
 40
21.7313275376
100
AcDbArc
 50
157.1063480889
 51
160.4818932041
  0
ARC
  5
263
100
AcDbEntity
  8
0
100
AcDbCircle
 62
7
  6
BYLAYER
 10
50.3133219716
 20
53.6037372649
 40
20.3684444746
100
AcDbArc
 50
180.0164538143
 51
181.8434764645
  0
ARC
  5
264
100
AcDbEntity
  8
0
100
AcDbCircle
 62
7
  6
BYLAYER
 10
55.5025775056
 20
48.6989793702
 40
18.4647536458
100
AcDbArc
 50
141.8558087843
 51
145.0970536999
  0
ARC
  5
265
100
AcDbEntity
  8
0
100
AcDbCircle
 62
7
  6
BYLAYER
 10
52.7545243787
 20
53.5966849866
 40
13.2705060765
100
AcDbArc
 50
120.0208436263
 51
122.3579748034
  0
ARC
  5
266
100
AcDbEntity
  8
0
100
AcDbCircle
 62
7
  6
BYLAYER
 10
46.5032600774
 20
57.2926268479
 40
13.1144593523
100
AcDbArc
 50
120.0069371
 51
122.3718813297
  0
ARC
  5
267
100
AcDbEntity
  8
0
100
AcDbCircle
 62
7
  6
BYLAYER
 10
40.4571478596
 20
53.8779759494
 40
13.1144593523
100
AcDbArc
 50
300.0069371
 51
302.3718813297
  0
ARC
  5
268
100
AcDbEntity
  8
0
100
AcDbCircle
 62
7
  6
BYLAYER
 10
53.5743573288
 20
53.2102193028
 40
13.1144593522
100
AcDbArc
 50
120.0069371
 51
122.3718813297
  0
ARC
  5
269
100
AcDbEntity
  8
0
100
AcDbCircle
 62
7
  6
BYLAYER
 10
58.9729618508
 20
46.6305343841
 40
12.526046426
100
AcDbArc
 50
322.7140676282
 51
325.9448786106
  0
ARC
  5
26A
100
AcDbEntity
  8
0
100
AcDbCircle
 62
7
  6
BYLAYER
 10
52.2878614703
 20
54.3984915064
 40
12.3427890313
100
AcDbArc
 50
117.5547854193
 51
120.0073762199
  0
ARC
  5
26B
100
AcDbEntity
  8
0
100
AcDbCircle
 62
7
  6
BYLAYER
 10
40.9163275757
 20
53.0761697617
 40
12.1904858273
100
AcDbArc
 50
297.539462176
 51
300.0226994631
  0
ARC
  5
26C
100
AcDbEntity
  8
0
100
AcDbCircle
 62
7
  6
BYLAYER
 10
53.1151776127
 20
54.0120254905
 40
12.1904858273
100
AcDbArc
 50
117.539462176
 51
120.0226994631
  0
ARC
  5
26D
100
AcDbEntity
  8
0
100
AcDbCircle
 62
7
  6
BYLAYER
 10
58.1770727042
 20
49.3418818323
 40
7.9194966654
100
AcDbArc
 50
120.001349989
 51
120.733351105
  0
ARC
  5
26E
100
AcDbEntity
  8
0
100
AcDbCircle
 62
7
  6
BYLAYER
 10
57.8926467111
 20
49.5883290294
 40
7.6355878416
100
AcDbArc
 50
118.9129618503
 51
120.0011828759
  0
ARC
  5
26F
100
AcDbEntity
  8
0
100
AcDbCircle
 62
7
  6
BYLAYER
 10
37.5383969792
 20
51.3517092201
 40
4.448487401
100
AcDbArc
 50
264.5197054832
 51
265.2341090659
  0
ARC
  5
270
100
AcDbEntity
  8
0
100
AcDbCircle
 62
7
  6
BYLAYER
 10
55.1031121068
 20
54.6736839512
 40
4.1138528319
100
AcDbArc
 50
26.4978351037
 51
30.336297725
  0
ARC
  5
271
100
AcDbEntity
  8
0
100
AcDbCircle
 62
7
  6
BYLAYER
 10
50.0841033423
 20
45.9069526011
 40
4.0453043805
100
AcDbArc
 50
268.617305474
 51
274.3493058171
  0
ARC
  5
272
100
AcDbEntity
  8
0
100
AcDbCircle
 62
7
  6
BYLAYER
 10
55.9552997357
 20
54.5082892005
 40
3.1529600069
100
AcDbArc
 50
40.5866098867
 51
41.0271381514
  0
ARC
  5
273
100
AcDbEntity
  8
0
100
AcDbCircle
 62
7
  6
BYLAYER
 10
50.5954314859
 20
45.1021438126
 40
2.9278529752
100
AcDbArc
 50
249.285960372
 51
253.7146217235
  0
ARC
  5
274
100
AcDbEntity
  8
0
100
AcDbCircle
 62
7
  6
BYLAYER
 10
50.5587013072
 20
45.0093521103
 40
2.8280683744
100
AcDbArc
 50
239.8109713321
 51
249.3170598619
  0
ARC
  5
275
100
AcDbEntity
  8
0
100
AcDbCircle
 62
7
  6
BYLAYER
 10
56.1806106101
 20
54.7478639235
 40
2.8231239652
100
AcDbArc
 50
56.5830260593
 51
59.8047480899
  0
ARC
  5
276
100
AcDbEntity
  8
0
100
AcDbCircle
 62
7
  6
BYLAYER
 10
51.4431777077
 20
44.5802168809
 40
2.7957980696
100
AcDbArc
 50
236.3074948388
 51
236.8499584773
  0
ARC
  5
277
100
AcDbEntity
  8
0
100
AcDbCircle
 62
7
  6
BYLAYER
 10
56.9948848573
 20
54.1974933551
 40
2.7897739401
100
AcDbArc
 50
63.4590064826
 51
64.6822711373
  0
ARC
  5
278
100
AcDbEntity
  8
0
100
AcDbCircle
 62
7
  6
BYLAYER
 10
51.4392895186
 20
44.5742133838
 40
2.7886455016
100
AcDbArc
 50
236.8493922331
 51
239.4569356605
  0
ARC
  5
279
100
AcDbEntity
  8
0
100
AcDbCircle
 62
7
  6
BYLAYER
 10
56.852743803
 20
54.2811909071
 40
2.7883490414
100
AcDbArc
 50
56.8468567981
 51
59.5761248179
  0
ARC
  5
27A
100
AcDbEntity
  8
0
100
AcDbCircle
 62
7
  6
BYLAYER
 10
56.997307856
 20
54.2023629604
 40
2.7843348308
100
AcDbArc
 50
60.0764883317
 51
63.4588362217
  0
ARC
  5
27B
100
AcDbEntity
  8
0
100
AcDbCircle
 62
7
  6
BYLAYER
 10
51.4366605379
 20
44.5698483746
 40
2.7835501382
100
AcDbArc
 50
239.4578818326
 51
239.9951394952
  0
ARC
  5
27C
100
AcDbEntity
  8
0
100
AcDbCircle
 62
7
  6
BYLAYER
 10
51.2941112336
 20
44.6519114281
 40
2.7833461238
100
AcDbArc
 50
239.4575293234
 51
239.9951534796
  0
ARC
  5
27D
100
AcDbEntity
  8
0
100
AcDbCircle
 62
7
  6
BYLAYER
 10
56.8553777592
 20
54.2855761222
 40
2.7832338416
100
AcDbArc
 50
59.5771669831
 51
59.9951605431
  0
ARC
  5
27E
100
AcDbEntity
  8
0
100
AcDbCircle
 62
7
  6
BYLAYER
 10
45.6834271271
 20
57.6790925319
 40
13.2705060764
100
AcDbArc
 50
120.0208436263
 51
122.3579748034
  0
ARC
  5
27F
100
AcDbEntity
  8
0
100
AcDbCircle
 62
7
  6
BYLAYER
 10
45.2167642188
 20
58.4808990517
 40
12.3427890313
100
AcDbArc
 50
117.5547854192
 51
120.0073762199
  0
ARC
  5
280
100
AcDbEntity
  8
0
100
AcDbCircle
 62
7
  6
BYLAYER
 10
46.0440803612
 20
58.0944330357
 40
12.1904858273
100
AcDbArc
 50
117.539462176
 51
120.0226994631
  0
SPLINE
  5
281
100
AcDbEntity
  8
0
100
AcDbSpline
 62
7
  6
BYLAYER
 70
0
 71
3
 72
9
 73
5
 74
0
 42
0.0000001
 43
0.0000001
 44
0.0000000001
 40
0.0
 40
0.0
 40
0.0
 40
0.0
 40
0.2461771807
 40
1.0
 40
1.0
 40
1.0
 40
1.0
 10
31.0182510382
 20
47.544905835
 30
0.0
 10
30.9762555956
 20
47.595962666
 30
0.0
 10
30.8096897195
 20
47.8066508849
 30
0.0
 10
30.6593211913
 20
48.0300493455
 30
0.0
 10
30.5552120721
 20
48.2036601664
 30
0.0
  0
SPLINE
  5
282
100
AcDbEntity
  8
0
100
AcDbSpline
 62
7
  6
BYLAYER
 70
0
 71
3
 72
10
 73
6
 74
0
 42
0.0000001
 43
0.0000001
 44
0.0000000001
 40
0.0
 40
0.0
 40
0.0
 40
0.0
 40
0.2581226583
 40
0.5115173784
 40
1.0
 40
1.0
 40
1.0
 40
1.0
 10
30.5552120721
 20
48.2036601664
 30
0.0
 10
30.4736474821
 20
48.6073932367
 30
0.0
 10
30.323450227
 20
49.4099012104
 30
0.0
 10
30.0849308954
 20
50.9877826152
 30
0.0
 10
29.9804223552
 20
52.1694239351
 30
0.0
 10
29.9554194319
 20
52.9485010473
 30
0.0
  0
SPLINE
  5
283
100
AcDbEntity
  8
0
100
AcDbSpline
 62
7
  6
BYLAYER
 70
0
 71
3
 72
11
 73
7
 74
0
 42
0.0000001
 43
0.0000001
 44
0.0000000001
 40
0.0
 40
0.0
 40
0.0
 40
0.0
 40
0.2716847903
 40
0.5307386397
 40
0.7743479271
 40
1.0
 40
1.0
 40
1.0
 40
1.0
 10
31.9189127431
 20
47.0249203209
 30
0.0
 10
32.3136215571
 20
46.9446501206
 30
0.0
 10
33.0859476016
 20
46.7939073921
 30
0.0
 10
34.2171574106
 20
46.5975603026
 30
0.0
 10
35.2857442369
 20
46.4415319004
 30
0.0
 10
35.9773829899
 20
46.3645389297
 30
0.0
 10
36.3105982952
 20
46.3347736779
 30
0.0
  0
SPLINE
  5
284
100
AcDbEntity
  8
0
100
AcDbSpline
 62
7
  6
BYLAYER
 70
0
 71
3
 72
11
 73
7
 74
0
 42
0.0000001
 43
0.0000001
 44
0.0000000001
 40
0.0
 40
0.0
 40
0.0
 40
0.0
 40
0.2138609745
 40
0.4498736999
 40
0.7112735674
 40
1.0
 40
1.0
 40
1.0
 40
1.0
 10
39.507032604
 20
69.4236320722
 30
0.0
 10
39.7317506556
 20
69.4516707681
 30
0.0
 10
40.206379558
 20
69.4960848337
 30
0.0
 10
40.9594888198
 20
69.5223718709
 30
0.0
 10
41.7921511417
 20
69.5057219326
 30
0.0
 10
42.3735265658
 20
69.4654245219
 30
0.0
 10
42.6780506855
 20
69.4382221787
 30
0.0
  0
SPLINE
  5
285
100
AcDbEntity
  8
0
100
AcDbSpline
 62
7
  6
BYLAYER
 70
0
 71
3
 72
11
 73
7
 74
0
 42
0.0000001
 43
0.0000001
 44
0.0000000001
 40
0.0
 40
0.0
 40
0.0
 40
0.0
 40
0.2477731512
 40
0.4973921748
 40
0.7482964972
 40
1.0
 40
1.0
 40
1.0
 40
1.0
 10
34.1892691197
 20
64.5372511115
 30
0.0
 10
34.5097372276
 20
64.9359201773
 30
0.0
 10
35.178238
 20
65.7163247754
 30
0.0
 10
36.2516234464
 20
66.8283598174
 30
0.0
 10
37.3880886477
 20
67.8875487499
 30
0.0
 10
38.1788364019
 20
68.559868041
 30
0.0
 10
38.5809546718
 20
68.8889639203
 30
0.0
  0
SPLINE
  5
286
100
AcDbEntity
  8
0
100
AcDbSpline
 62
7
  6
BYLAYER
 70
0
 71
3
 72
11
 73
7
 74
0
 42
0.0000001
 43
0.0000001
 44
0.0000000001
 40
0.0
 40
0.0
 40
0.0
 40
0.0
 40
0.2458891186
 40
0.4944449149
 40
0.7458370139
 40
1.0
 40
1.0
 40
1.0
 40
1.0
 10
31.0182510382
 20
59.4808015532
 30
0.0
 10
31.2337369785
 20
59.9210585422
 30
0.0
 10
31.6862452547
 20
60.7971526761
 30
0.0
 10
32.4347451238
 20
62.0825974572
 30
0.0
 10
33.2645879738
 20
63.3370972068
 30
0.0
 10
33.8718380204
 20
64.1423601482
 30
0.0
 10
34.1892691197
 20
64.5372511115
 30
0.0
  0
SPLINE
  5
287
100
AcDbEntity
  8
0
100
AcDbSpline
 62
7
  6
BYLAYER
 70
0
 71
3
 72
9
 73
5
 74
0
 42
0.0000001
 43
0.0000001
 44
0.0000000001
 40
0.0
 40
0.0
 40
0.0
 40
0.0
 40
0.254188329
 40
1.0
 40
1.0
 40
1.0
 40
1.0
 10
48.4334369085
 20
67.5693356903
 30
0.0
 10
48.3983317999
 20
67.6278764479
 30
0.0
 10
48.2561920595
 20
67.8557285269
 30
0.0
 10
48.0976247901
 20
68.0734113407
 30
0.0
 10
47.9703979424
 20
68.2280900216
 30
0.0
  0
SPLINE
  5
288
100
AcDbEntity
  8
0
100
AcDbSpline
 62
7
  6
BYLAYER
 70
0
 71
3
 72
9
 73
5
 74
0
 42
0.0000001
 43
0.0000001
 44
0.0000000001
 40
0.0
 40
0.0
 40
0.0
 40
0.0
 40
0.2468656688
 40
1.0
 40
1.0
 40
1.0
 40
1.0
 10
48.8068033691
 20
65.3967123496
 30
0.0
 10
48.7819860141
 20
65.5764269387
 30
0.0
 10
48.6748267054
 20
66.3034950347
 30
0.0
 10
48.5430387102
 20
67.0268224273
 30
0.0
 10
48.4334369085
 20
67.5693356903
 30
0.0
  0
SPLINE
  5
289
100
AcDbEntity
  8
0
100
AcDbSpline
 62
7
  6
BYLAYER
 70
0
 71
3
 72
11
 73
7
 74
0
 42
0.0000001
 43
0.0000001
 44
0.0000000001
 40
0.0
 40
0.0
 40
0.0
 40
0.0
 40
0.2640505373
 40
0.518096522
 40
0.7629874112
 40
1.0
 40
1.0
 40
1.0
 40
1.0
 10
29.9448783369
 20
53.5978879929
 30
0.0
 10
29.9448783369
 20
54.0152402106
 30
0.0
 10
29.9710741987
 20
54.8344406659
 30
0.0
 10
30.0921993845
 20
56.0352147254
 30
0.0
 10
30.2861470641
 20
57.1829700775
 30
0.0
 10
30.4597614822
 20
57.9251266379
 30
0.0
 10
30.5552120721
 20
58.2873790699
 30
0.0
  0
SPLINE
  5
28A
100
AcDbEntity
  8
0
100
AcDbSpline
 62
7
  6
BYLAYER
 70
0
 71
3
 72
11
 73
7
 74
0
 42
0.0000001
 43
0.0000001
 44
0.0000000001
 40
0.0
 40
0.0
 40
0.0
 40
0.0
 40
0.2256492086
 40
0.4692584096
 40
0.7283047998
 40
1.0
 40
1.0
 40
1.0
 40
1.0
 10
42.6780506855
 20
69.4382221787
 30
0.0
 10
43.0112617613
 20
69.4084573048
 30
0.0
 10
43.7028968439
 20
69.3314690912
 30
0.0
 10
44.7714650097
 20
69.1754214589
 30
0.0
 10
45.9026861344
 20
68.979114959
 30
0.0
 10
46.6750122997
 20
68.8283488117
 30
0.0
 10
47.0697362376
 20
68.7480755358
 30
0.0
  0
SPLINE
  5
28B
100
AcDbEntity
  8
0
100
AcDbSpline
 62
7
  6
BYLAYER
 70
0
 71
3
 72
9
 73
5
 74
0
 42
0.0000001
 43
0.0000001
 44
0.0000000001
 40
0.0
 40
0.0
 40
0.0
 40
0.0
 40
0.2597625363
 40
1.0
 40
1.0
 40
1.0
 40
1.0
 10
36.3105982952
 20
46.3347736779
 30
0.0
 10
36.3960499992
 20
46.3271405007
 30
0.0
 10
36.7251708333
 20
46.2996070231
 30
0.0
 10
37.0549513117
 20
46.2797015684
 30
0.0
 10
37.2992425214
 20
46.2701277126
 30
0.0
  0
SPLINE
  5
28C
100
AcDbEntity
  8
0
100
AcDbSpline
 62
7
  6
BYLAYER
 70
0
 71
3
 72
33
 73
29
 74
0
 42
0.0000001
 43
0.0000001
 44
0.0000000001
 40
0.0
 40
0.0
 40
0.0
 40
0.0
 40
0.0229479561
 40
0.0452981457
 40
0.0673164772
 40
0.0892902709
 40
0.1115097526
 40
0.1342493464
 40
0.1577518255
 40
0.1822186897
 40
0.2078038583
 40
0.2346148266
 40
0.2627144638
 40
0.2921249216
 40
0.3228338177
 40
0.3547966679
 40
0.3879433388
 40
0.4221807058
 40
0.4934364546
 40
0.5675202894
 40
0.6431916672
 40
0.7191220996
 40
0.7939688115
 40
0.8664494156
 40
0.9014480401
 40
0.9354412663
 40
0.9683278391
 40
1.0
 40
1.0
 40
1.0
 40
1.0
 10
36.5299184532
 20
46.9795659328
 30
0.0
 10
36.3451641164
 20
46.9972942356
 30
0.0
 10
35.982130833
 20
47.0549031987
 30
0.0
 10
35.4590136103
 20
47.2116403788
 30
0.0
 10
34.9698391988
 20
47.4365097095
 30
0.0
 10
34.5183656469
 20
47.7278486706
 30
0.0
 10
34.1078991361
 20
48.0834723234
 30
0.0
 10
33.7413485069
 20
48.5006461196
 30
0.0
 10
33.4210510896
 20
48.9761883612
 30
0.0
 10
33.1490340718
 20
49.5067123469
 30
0.0
 10
32.9268280289
 20
50.0885099026
 30
0.0
 10
32.7557263923
 20
50.7176813091
 30
0.0
 10
32.6367160301
 20
51.390060733
 30
0.0
 10
32.5704149978
 20
52.1012255676
 30
0.0
 10
32.5572488521
 20
52.8465158736
 30
0.0
 10
32.5971987298
 20
53.6210327542
 30
0.0
 10
32.6899941789
 20
54.419704924
 30
0.0
 10
32.8859723292
 20
55.5243268366
 30
0.0
 10
33.2614425316
 20
56.9305675745
 30
0.0
 10
33.8967083303
 20
58.6043786665
 30
0.0
 10
34.7061751987
 20
60.2434833981
 30
0.0
 10
35.6686537123
 20
61.8048987824
 30
0.0
 10
36.7588796876
 20
63.247723215
 30
0.0
 10
37.7619536827
 20
64.3326483204
 30
0.0
 10
38.605158583
 20
65.1068779395
 30
0.0
 10
39.2433331193
 20
65.6289137698
 30
0.0
 10
39.8902409186
 20
66.0954298124
 30
0.0
 10
40.3331439698
 20
66.3728820482
 30
0.0
 10
40.554989078
 20
66.5009636166
 30
0.0
  0
SPLINE
  5
28D
100
AcDbEntity
  8
0
100
AcDbSpline
 62
7
  6
BYLAYER
 70
0
 71
3
 72
9
 73
5
 74
0
 42
0.0000001
 43
0.0000001
 44
0.0000000001
 40
0.0
 40
0.0
 40
0.0
 40
0.0
 40
0.254188329
 40
1.0
 40
1.0
 40
1.0
 40
1.0
 10
31.455873777
 20
47.6836746522
 30
0.0
 10
31.4909788856
 20
47.6251338946
 30
0.0
 10
31.633118626
 20
47.3972818156
 30
0.0
 10
31.7916858954
 20
47.1795990018
 30
0.0
 10
31.9189127431
 20
47.0249203209
 30
0.0
  0
SPLINE
  5
28E
100
AcDbEntity
  8
0
100
AcDbSpline
 62
7
  6
BYLAYER
 70
0
 71
3
 72
11
 73
7
 74
0
 42
0.0000001
 43
0.0000001
 44
0.0000000001
 40
0.0
 40
0.0
 40
0.0
 40
0.0
 40
0.2138609745
 40
0.4498736999
 40
0.7112735674
 40
1.0
 40
1.0
 40
1.0
 40
1.0
 10
47.9703979424
 20
68.2280900216
 30
0.0
 10
47.7456798908
 20
68.2000513258
 30
0.0
 10
47.2710509884
 20
68.1556372602
 30
0.0
 10
46.5179417266
 20
68.1293502229
 30
0.0
 10
45.6852794047
 20
68.1460001613
 30
0.0
 10
45.1039039806
 20
68.186297572
 30
0.0
 10
44.7993798609
 20
68.2134999151
 30
0.0
  0
SPLINE
  5
28F
100
AcDbEntity
  8
0
100
AcDbSpline
 62
7
  6
BYLAYER
 70
0
 71
3
 72
11
 73
7
 74
0
 42
0.0000001
 43
0.0000001
 44
0.0000000001
 40
0.0
 40
0.0
 40
0.0
 40
0.0
 40
0.2640505373
 40
0.518096522
 40
0.7629874112
 40
1.0
 40
1.0
 40
1.0
 40
1.0
 10
32.0662075123
 20
52.3731657293
 30
0.0
 10
32.0662075123
 20
51.9558135116
 30
0.0
 10
32.0400116505
 20
51.1366130562
 30
0.0
 10
31.9188864646
 20
49.9358389967
 30
0.0
 10
31.724938785
 20
48.7880836447
 30
0.0
 10
31.5513243669
 20
48.0459270842
 30
0.0
 10
31.455873777
 20
47.6836746522
 30
0.0
  0
SPLINE
  5
290
100
AcDbEntity
  8
0
100
AcDbSpline
 62
7
  6
BYLAYER
 70
0
 71
3
 72
20
 73
16
 74
0
 42
0.0000001
 43
0.0000001
 44
0.0000000001
 40
0.0
 40
0.0
 40
0.0
 40
0.0
 40
0.058221751
 40
0.1151345961
 40
0.1711532143
 40
0.2267270019
 40
0.2823242148
 40
0.3384123011
 40
0.3954373205
 40
0.4538097748
 40
0.5138900368
 40
0.5759829333
 40
0.7069976072
 40
0.848223086
 40
1.0
 40
1.0
 40
1.0
 40
1.0
 10
47.7979744685
 20
65.4299390028
 30
0.0
 10
47.7136385322
 20
65.5482536151
 30
0.0
 10
47.5351588731
 20
65.7741811244
 30
0.0
 10
47.2360080353
 20
66.0801537055
 30
0.0
 10
46.9102349589
 20
66.347442853
 30
0.0
 10
46.5592483218
 20
66.5746691252
 30
0.0
 10
46.1846957738
 20
66.7608963946
 30
0.0
 10
45.7882408821
 20
66.9051733023
 30
0.0
 10
45.3717392082
 20
67.0070237926
 30
0.0
 10
44.9370410544
 20
67.0659667269
 30
0.0
 10
44.4860470848
 20
67.0819187736
 30
0.0
 10
43.8544921759
 20
67.0451639968
 30
0.0
 10
43.0312623654
 20
66.8860362809
 30
0.0
 10
42.0310099772
 20
66.5313989696
 30
0.0
 10
41.3770292641
 20
66.1997070974
 30
0.0
 10
41.0490056681
 20
66.0103237164
 30
0.0
  0
SPLINE
  5
291
100
AcDbEntity
  8
0
100
AcDbSpline
 62
7
  6
BYLAYER
 70
0
 71
3
 72
11
 73
7
 74
0
 42
0.0000001
 43
0.0000001
 44
0.0000000001
 40
0.0
 40
0.0
 40
0.0
 40
0.0
 40
0.2477731512
 40
0.4973921748
 40
0.7482964972
 40
1.0
 40
1.0
 40
1.0
 40
1.0
 10
36.3105982952
 20
63.3125288479
 30
0.0
 10
35.9901301872
 20
62.9138597821
 30
0.0
 10
35.3216294149
 20
62.133455184
 30
0.0
 10
34.2482439685
 20
61.021420142
 30
0.0
 10
33.1117787672
 20
59.9622312095
 30
0.0
 10
32.321031013
 20
59.2899119184
 30
0.0
 10
31.9189127431
 20
58.9608160391
 30
0.0
  0
SPLINE
  5
292
100
AcDbEntity
  8
0
100
AcDbSpline
 62
7
  6
BYLAYER
 70
0
 71
3
 72
11
 73
7
 74
0
 42
0.0000001
 43
0.0000001
 44
0.0000000001
 40
0.0
 40
0.0
 40
0.0
 40
0.0
 40
0.2597151621
 40
0.513807829
 40
0.760959036
 40
1.0
 40
1.0
 40
1.0
 40
1.0
 10
31.455873777
 20
57.7673935558
 30
0.0
 10
31.549084248
 20
57.3060150382
 30
0.0
 10
31.7185909684
 20
56.3901192266
 30
0.0
 10
31.9136889807
 20
55.0243731472
 30
0.0
 10
32.0369570885
 20
53.6877538632
 30
0.0
 10
32.0662075123
 20
52.8063962723
 30
0.0
 10
32.0662075123
 20
52.3731657293
 30
0.0
  0
SPLINE
  5
293
100
AcDbEntity
  8
0
100
AcDbSpline
 62
7
  6
BYLAYER
 70
0
 71
3
 72
15
 73
11
 74
0
 42
0.0000001
 43
0.0000001
 44
0.0000000001
 40
0.0
 40
0.0
 40
0.0
 40
0.0
 40
0.1345001057
 40
0.2635778923
 40
0.3883590972
 40
0.5102109089
 40
0.6306769599
 40
0.751399022
 40
0.8740298712
 40
1.0
 40
1.0
 40
1.0
 40
1.0
 10
48.4265851585
 20
65.4880302363
 30
0.0
 10
48.3407099488
 20
65.6841026835
 30
0.0
 10
48.15152507
 20
66.0597088252
 30
0.0
 10
47.8084755118
 20
66.5756926013
 30
0.0
 10
47.4145564813
 20
67.0279318798
 30
0.0
 10
46.9724415156
 20
67.4127913849
 30
0.0
 10
46.4853775641
 20
67.7272745568
 30
0.0
 10
45.9569686496
 20
67.968874253
 30
0.0
 10
45.3914921099
 20
68.1357586323
 30
0.0
 10
44.9990631488
 20
68.1956627293
 30
0.0
 10
44.7993798609
 20
68.2134999151
 30
0.0
  0
SPLINE
  5
294
100
AcDbEntity
  8
0
100
AcDbSpline
 62
7
  6
BYLAYER
 70
0
 71
3
 72
9
 73
5
 74
0
 42
0.0000001
 43
0.0000001
 44
0.0000000001
 40
0.0
 40
0.0
 40
0.0
 40
0.0
 40
0.244496764
 40
1.0
 40
1.0
 40
1.0
 40
1.0
 10
36.3105982952
 20
46.3347736779
 30
0.0
 10
36.3848780071
 20
46.3281384655
 30
0.0
 10
36.6892927672
 20
46.3080486293
 30
0.0
 10
36.9953744121
 20
46.3156705782
 30
0.0
 10
37.2249899345
 20
46.3351550177
 30
0.0
  0
SPLINE
  5
295
100
AcDbEntity
  8
0
100
AcDbSpline
 62
7
  6
BYLAYER
 70
0
 71
3
 72
19
 73
15
 74
0
 42
0.0000001
 43
0.0000001
 44
0.0000000001
 40
0.0
 40
0.0
 40
0.0
 40
0.0
 40
0.151814537
 40
0.2930199882
 40
0.4239849096
 40
0.5459524373
 40
0.6042922699
 40
0.661293991
 40
0.7173721011
 40
0.7729769439
 40
0.8285792166
 40
0.8846596827
 40
0.9416738691
 40
1.0
 40
1.0
 40
1.0
 40
1.0
 10
32.0662075123
 20
52.3731657293
 30
0.0
 10
32.0662075123
 20
51.9599549549
 30
0.0
 10
32.1096733872
 20
51.1613535945
 30
0.0
 10
32.3212529983
 20
50.0231921864
 30
0.0
 10
32.67446487
 20
49.0054425365
 30
0.0
 10
33.0904423762
 20
48.2609645278
 30
0.0
 10
33.4881662972
 20
47.7507235383
 30
0.0
 10
33.8127674071
 20
47.4142871583
 30
0.0
 10
34.1666596027
 20
47.1202975095
 30
0.0
 10
34.5481948103
 20
46.8700192295
 30
0.0
 10
34.9556965611
 20
46.6647068067
 30
0.0
 10
35.3872955099
 20
46.5052152027
 30
0.0
 10
35.8409048228
 20
46.3923356536
 30
0.0
 10
36.1524750853
 20
46.3488984107
 30
0.0
 10
36.3105982952
 20
46.3347736779
 30
0.0
  0
SPLINE
  5
296
100
AcDbEntity
  8
0
100
AcDbSpline
 62
7
  6
BYLAYER
 70
0
 71
3
 72
15
 73
11
 74
0
 42
0.0000001
 43
0.0000001
 44
0.0000000001
 40
0.0
 40
0.0
 40
0.0
 40
0.0
 40
0.129847411
 40
0.2611866596
 40
0.3925260486
 40
0.5223738886
 40
0.6492905064
 40
0.7719421396
 40
0.8891589506
 40
1.0
 40
1.0
 40
1.0
 40
1.0
 10
36.3105982952
 20
63.3125288479
 30
0.0
 10
35.9868383308
 20
62.9097646434
 30
0.0
 10
35.3676143883
 20
62.073346863
 30
0.0
 10
34.5354896511
 20
60.7496148758
 30
0.0
 10
33.8051301285
 20
59.3670096689
 30
0.0
 10
33.1889690798
 20
57.9490112919
 30
0.0
 10
32.69739877
 20
56.5195656733
 30
0.0
 10
32.3387292104
 20
55.1026910254
 30
0.0
 10
32.1190435551
 20
53.7224097702
 30
0.0
 10
32.0662075123
 20
52.8142840572
 30
0.0
 10
32.0662075123
 20
52.3731657293
 30
0.0
  0
SPLINE
  5
297
100
AcDbEntity
  8
0
100
AcDbSpline
 62
7
  6
BYLAYER
 70
0
 71
3
 72
11
 73
7
 74
0
 42
0.0000001
 43
0.0000001
 44
0.0000000001
 40
0.0
 40
0.0
 40
0.0
 40
0.0
 40
0.232065918
 40
0.4774810713
 40
0.7342754496
 40
1.0
 40
1.0
 40
1.0
 40
1.0
 10
40.554989078
 20
67.0762483142
 30
0.0
 10
40.1729732493
 20
66.8556926891
 30
0.0
 10
39.4129418061
 20
66.3558808641
 30
0.0
 10
38.3274260034
 20
65.4754793888
 30
0.0
 10
37.279766852
 20
64.4564903168
 30
0.0
 10
36.6270487844
 20
63.7061999116
 30
0.0
 10
36.3105982952
 20
63.3125288479
 30
0.0
  0
SPLINE
  5
298
100
AcDbEntity
  8
0
100
AcDbSpline
 62
7
  6
BYLAYER
 70
0
 71
3
 72
11
 73
7
 74
0
 42
0.0000001
 43
0.0000001
 44
0.0000000001
 40
0.0
 40
0.0
 40
0.0
 40
0.0
 40
0.2234035249
 40
0.4632869182
 40
0.7219272534
 40
1.0
 40
1.0
 40
1.0
 40
1.0
 10
44.7993798609
 20
68.2134999151
 30
0.0
 10
44.468727694
 20
68.2430362084
 30
0.0
 10
43.7755065326
 20
68.2333051342
 30
0.0
 10
42.7176563957
 20
68.0303323534
 30
0.0
 10
41.6261591559
 20
67.6444994538
 30
0.0
 10
40.9128356678
 20
67.2828499058
 30
0.0
 10
40.554989078
 20
67.0762483142
 30
0.0
  0
SPLINE
  5
299
100
AcDbEntity
  8
0
100
AcDbSpline
 62
7
  6
BYLAYER
 70
0
 71
3
 72
19
 73
15
 74
0
 42
0.0000001
 43
0.0000001
 44
0.0000000001
 40
0.0
 40
0.0
 40
0.0
 40
0.0
 40
0.1517988795
 40
0.2930391422
 40
0.4240729861
 40
0.5461286381
 40
0.6045087121
 40
0.6615418545
 40
0.7176372731
 40
0.7732421572
 40
0.8288234739
 40
0.8848497175
 40
0.9417702099
 40
1.0
 40
1.0
 40
1.0
 40
1.0
 10
40.554989078
 20
66.5009636166
 30
0.0
 10
40.8904860894
 20
66.6946617502
 30
0.0
 10
41.5592931726
 20
67.0339134731
 30
0.0
 10
42.5825655276
 20
67.3965996078
 30
0.0
 10
43.574708225
 20
67.5886001547
 30
0.0
 10
44.3746567501
 20
67.6019756679
 30
0.0
 10
44.9761281994
 20
67.5203419748
 30
0.0
 10
45.4021433531
 20
67.4162119437
 30
0.0
 10
45.8076106515
 20
67.2686150744
 30
0.0
 10
46.1907082168
 20
67.0781764051
 30
0.0
 10
46.5496752002
 20
66.8457535219
 30
0.0
 10
46.8828778692
 20
66.5723919305
 30
0.0
 10
47.1888397452
 20
66.2594469281
 30
0.0
 10
47.3713755563
 20
66.0283684237
 30
0.0
 10
47.4576386167
 20
65.9073634952
 30
0.0
  0
SPLINE
  5
29A
100
AcDbEntity
  8
0
100
AcDbSpline
 62
7
  6
BYLAYER
 70
0
 71
3
 72
33
 73
29
 74
0
 42
0.0000001
 43
0.0000001
 44
0.0000000001
 40
0.0
 40
0.0
 40
0.0
 40
0.0
 40
0.0316710886
 40
0.0645585294
 40
0.0985522672
 40
0.1335502342
 40
0.2060307785
 40
0.2808774608
 40
0.3568081652
 40
0.4324797916
 40
0.506563854
 40
0.577819747
 40
0.6120570693
 40
0.6452037272
 40
0.6771667989
 40
0.707875316
 40
0.7372860958
 40
0.7653853623
 40
0.7921963855
 40
0.8177815367
 40
0.8422481995
 40
0.8657508626
 40
0.8884902861
 40
0.9107097993
 40
0.9326835754
 40
0.9547018596
 40
0.9770520228
 40
1.0
 40
1.0
 40
1.0
 40
1.0
 10
41.0490056681
 20
66.0103237164
 30
0.0
 10
40.8321070697
 20
65.8850979997
 30
0.0
 10
40.3990692749
 20
65.6138191485
 30
0.0
 10
39.7665566918
 20
65.1576960807
 30
0.0
 10
39.1425884086
 20
64.6472761132
 30
0.0
 10
38.3181559477
 20
63.8902873709
 30
0.0
 10
37.3374193408
 20
62.8295201788
 30
0.0
 10
36.271467884
 20
61.4188158425
 30
0.0
 10
35.3304163869
 20
59.8921605086
 30
0.0
 10
34.538963586
 20
58.2895461919
 30
0.0
 10
33.9178357899
 20
56.6529978683
 30
0.0
 10
33.5507213141
 20
55.278063434
 30
0.0
 10
33.3591203147
 20
54.1980314541
 30
0.0
 10
33.2683925926
 20
53.4171402227
 30
0.0
 10
33.2293140931
 20
52.6598684327
 30
0.0
 10
33.2422222168
 20
51.9311715163
 30
0.0
 10
33.3070061423
 20
51.2358393096
 30
0.0
 10
33.4234041955
 20
50.5784358218
 30
0.0
 10
33.5906745775
 20
49.96327052
 30
0.0
 10
33.8079353064
 20
49.3944260563
 30
0.0
 10
34.0739149442
 20
48.8757260479
 30
0.0
 10
34.3870497191
 20
48.4107500349
 30
0.0
 10
34.7454724758
 20
48.0028932039
 30
0.0
 10
35.1467735872
 20
47.6551597176
 30
0.0
 10
35.5882094675
 20
47.3703255025
 30
0.0
 10
36.0664899181
 20
47.1504628515
 30
0.0
 10
36.5779571803
 20
46.9972020051
 30
0.0
 10
36.9329101152
 20
46.9408885488
 30
0.0
 10
37.1135512868
 20
46.9235553955
 30
0.0
  0
SPLINE
  5
29B
100
AcDbEntity
  8
0
100
AcDbSpline
 62
7
  6
BYLAYER
 70
0
 71
3
 72
11
 73
7
 74
0
 42
0.0000001
 43
0.0000001
 44
0.0000000001
 40
0.0
 40
0.0
 40
0.0
 40
0.0
 40
0.2458891186
 40
0.4944449149
 40
0.7458370139
 40
1.0
 40
1.0
 40
1.0
 40
1.0
 10
39.4816163767
 20
68.3689784062
 30
0.0
 10
39.2661304364
 20
67.9287214172
 30
0.0
 10
38.8136221602
 20
67.0526272833
 30
0.0
 10
38.0651222911
 20
65.7671825022
 30
0.0
 10
37.2352794411
 20
64.5126827526
 30
0.0
 10
36.6280293945
 20
63.7074198112
 30
0.0
 10
36.3105982952
 20
63.3125288479
 30
0.0
  0
SPLINE
  5
29C
100
AcDbEntity
  8
0
100
AcDbSpline
 62
7
  6
BYLAYER
 70
0
 71
3
 72
11
 73
7
 74
0
 42
0.0000001
 43
0.0000001
 44
0.0000000001
 40
0.0
 40
0.0
 40
0.0
 40
0.0
 40
0.2256492086
 40
0.4692584096
 40
0.7283047998
 40
1.0
 40
1.0
 40
1.0
 40
1.0
 10
44.7993798609
 20
68.2134999151
 30
0.0
 10
44.4661687851
 20
68.2432647891
 30
0.0
 10
43.7745337025
 20
68.3202530026
 30
0.0
 10
42.7059655367
 20
68.476300635
 30
0.0
 10
41.574744412
 20
68.6726071349
 30
0.0
 10
40.8024182467
 20
68.8233732822
 30
0.0
 10
40.4076943088
 20
68.9036465581
 30
0.0
  0
SPLINE
  5
29D
100
AcDbEntity
  8
0
100
AcDbSpline
 62
7
  6
BYLAYER
 70
0
 71
3
 72
11
 73
7
 74
0
 42
0.0000001
 43
0.0000001
 44
0.0000000001
 40
0.0
 40
0.0
 40
0.0
 40
0.0
 40
0.2256492086
 40
0.4692584096
 40
0.7283047998
 40
1.0
 40
1.0
 40
1.0
 40
1.0
 10
49.7491479369
 20
65.3558146335
 30
0.0
 10
50.0823590128
 20
65.3260497596
 30
0.0
 10
50.7739940953
 20
65.249061546
 30
0.0
 10
51.8425622612
 20
65.0930139136
 30
0.0
 10
52.9737833859
 20
64.8967074138
 30
0.0
 10
53.7461095512
 20
64.7459412665
 30
0.0
 10
54.140833489
 20
64.6656679906
 30
0.0
  0
SPLINE
  5
29E
100
AcDbEntity
  8
0
100
AcDbSpline
 62
7
  6
BYLAYER
 70
0
 71
3
 72
11
 73
7
 74
0
 42
0.0000001
 43
0.0000001
 44
0.0000000001
 40
0.0
 40
0.0
 40
0.0
 40
0.0
 40
0.2640505373
 40
0.518096522
 40
0.7629874112
 40
1.0
 40
1.0
 40
1.0
 40
1.0
 10
37.0159755883
 20
49.5154804477
 30
0.0
 10
37.0159755883
 20
49.9328326654
 30
0.0
 10
37.0421714501
 20
50.7520331207
 30
0.0
 10
37.163296636
 20
51.9528071802
 30
0.0
 10
37.3572443156
 20
53.1005625323
 30
0.0
 10
37.5308587337
 20
53.8427190927
 30
0.0
 10
37.6263093236
 20
54.2049715247
 30
0.0
  0
SPLINE
  5
29F
100
AcDbEntity
  8
0
100
AcDbSpline
 62
7
  6
BYLAYER
 70
0
 71
3
 72
11
 73
7
 74
0
 42
0.0000001
 43
0.0000001
 44
0.0000000001
 40
0.0
 40
0.0
 40
0.0
 40
0.0
 40
0.2458891186
 40
0.4944449149
 40
0.7458370139
 40
1.0
 40
1.0
 40
1.0
 40
1.0
 10
38.0893482897
 20
55.398394008
 30
0.0
 10
38.30483423
 20
55.838650997
 30
0.0
 10
38.7573425062
 20
56.7147451309
 30
0.0
 10
39.5058423752
 20
58.000189912
 30
0.0
 10
40.3356852253
 20
59.2546896616
 30
0.0
 10
40.9429352718
 20
60.059952603
 30
0.0
 10
41.2603663712
 20
60.4548435663
 30
0.0
  0
SPLINE
  5
2A0
100
AcDbEntity
  8
0
100
AcDbSpline
 62
7
  6
BYLAYER
 70
0
 71
3
 72
11
 73
7
 74
0
 42
0.0000001
 43
0.0000001
 44
0.0000000001
 40
0.0
 40
0.0
 40
0.0
 40
0.0
 40
0.2716847903
 40
0.5307386397
 40
0.7743479271
 40
1.0
 40
1.0
 40
1.0
 40
1.0
 10
38.9900099946
 20
42.9425127757
 30
0.0
 10
39.3847188086
 20
42.8622425754
 30
0.0
 10
40.157044853
 20
42.7114998469
 30
0.0
 10
41.2882546621
 20
42.5151527574
 30
0.0
 10
42.3568414884
 20
42.3591243552
 30
0.0
 10
43.0484802413
 20
42.2821313845
 30
0.0
 10
43.3816955466
 20
42.2523661327
 30
0.0
  0
SPLINE
  5
2A1
100
AcDbEntity
  8
0
100
AcDbSpline
 62
7
  6
BYLAYER
 70
0
 71
3
 72
9
 73
5
 74
0
 42
0.0000001
 43
0.0000001
 44
0.0000000001
 40
0.0
 40
0.0
 40
0.0
 40
0.0
 40
0.2461771807
 40
1.0
 40
1.0
 40
1.0
 40
1.0
 10
38.0893482897
 20
43.4624982898
 30
0.0
 10
38.0473528471
 20
43.5135551208
 30
0.0
 10
37.8807869709
 20
43.7242433397
 30
0.0
 10
37.7304184428
 20
43.9476418003
 30
0.0
 10
37.6263093236
 20
44.1212526211
 30
0.0
  0
SPLINE
  5
2A2
100
AcDbEntity
  8
0
100
AcDbSpline
 62
7
  6
BYLAYER
 70
0
 71
3
 72
11
 73
7
 74
0
 42
0.0000001
 43
0.0000001
 44
0.0000000001
 40
0.0
 40
0.0
 40
0.0
 40
0.0
 40
0.2597151621
 40
0.513807829
 40
0.760959036
 40
1.0
 40
1.0
 40
1.0
 40
1.0
 10
37.6263093236
 20
44.1212526211
 30
0.0
 10
37.5330988526
 20
44.5826311387
 30
0.0
 10
37.3635921322
 20
45.4985269504
 30
0.0
 10
37.1684941199
 20
46.8642730298
 30
0.0
 10
37.0452260121
 20
48.2008923137
 30
0.0
 10
37.0159755883
 20
49.0822499046
 30
0.0
 10
37.0159755883
 20
49.5154804477
 30
0.0
  0
SPLINE
  5
2A3
100
AcDbEntity
  8
0
100
AcDbSpline
 62
7
  6
BYLAYER
 70
0
 71
3
 72
9
 73
5
 74
0
 42
0.0000001
 43
0.0000001
 44
0.0000000001
 40
0.0
 40
0.0
 40
0.0
 40
0.0
 40
0.4885296119
 40
1.0
 40
1.0
 40
1.0
 40
1.0
 10
56.1042276817
 20
58.7456764532
 30
0.0
 10
56.0791249474
 20
59.5241794017
 30
0.0
 10
55.9380604366
 20
61.1153223349
 30
0.0
 10
55.6660206459
 20
62.6875931063
 30
0.0
 10
55.50453416
 20
63.4869281451
 30
0.0
  0
SPLINE
  5
2A4
100
AcDbEntity
  8
0
100
AcDbSpline
 62
7
  6
BYLAYER
 70
0
 71
3
 72
11
 73
7
 74
0
 42
0.0000001
 43
0.0000001
 44
0.0000000001
 40
0.0
 40
0.0
 40
0.0
 40
0.0
 40
0.2887226778
 40
0.5501130261
 40
0.7861436391
 40
1.0
 40
1.0
 40
1.0
 40
1.0
 10
43.3816955466
 20
42.2523661327
 30
0.0
 10
43.6862157422
 20
42.2251641401
 30
0.0
 10
44.2675773704
 20
42.1848585556
 30
0.0
 10
45.1002440175
 20
42.1682450124
 30
0.0
 10
45.8533602509
 20
42.1944661945
 30
0.0
 10
46.3280003977
 20
42.2389181449
 30
0.0
 10
46.5527136281
 20
42.2669562392
 30
0.0
  0
SPLINE
  5
2A5
100
AcDbEntity
  8
0
100
AcDbSpline
 62
7
  6
BYLAYER
 70
0
 71
3
 72
9
 73
5
 74
0
 42
0.0000001
 43
0.0000001
 44
0.0000000001
 40
0.0
 40
0.0
 40
0.0
 40
0.0
 40
0.254188329
 40
1.0
 40
1.0
 40
1.0
 40
1.0
 10
55.50453416
 20
63.4869281451
 30
0.0
 10
55.4694290514
 20
63.5454689027
 30
0.0
 10
55.327289311
 20
63.7733209817
 30
0.0
 10
55.1687220416
 20
63.9910037955
 30
0.0
 10
55.0414951939
 20
64.1456824764
 30
0.0
  0
SPLINE
  5
2A6
100
AcDbEntity
  8
0
100
AcDbSpline
 62
7
  6
BYLAYER
 70
0
 71
3
 72
11
 73
7
 74
0
 42
0.0000001
 43
0.0000001
 44
0.0000000001
 40
0.0
 40
0.0
 40
0.0
 40
0.0
 40
0.2477731512
 40
0.4973921748
 40
0.7482964972
 40
1.0
 40
1.0
 40
1.0
 40
1.0
 10
41.2603663712
 20
60.4548435663
 30
0.0
 10
41.5808344791
 20
60.8535126321
 30
0.0
 10
42.2493352514
 20
61.6339172302
 30
0.0
 10
43.3227206979
 20
62.7459522721
 30
0.0
 10
44.4591858991
 20
63.8051412047
 30
0.0
 10
45.2499336533
 20
64.4774604958
 30
0.0
 10
45.6520519233
 20
64.8065563751
 30
0.0
  0
SPLINE
  5
2A7
100
AcDbEntity
  8
0
100
AcDbSpline
 62
7
  6
BYLAYER
 70
0
 71
3
 72
11
 73
7
 74
0
 42
0.0000001
 43
0.0000001
 44
0.0000000001
 40
0.0
 40
0.0
 40
0.0
 40
0.0
 40
0.2138609745
 40
0.4498736999
 40
0.7112735674
 40
1.0
 40
1.0
 40
1.0
 40
1.0
 10
46.5781298555
 20
65.341224527
 30
0.0
 10
46.802847907
 20
65.3692632228
 30
0.0
 10
47.2774768095
 20
65.4136772885
 30
0.0
 10
48.0305860713
 20
65.4399643257
 30
0.0
 10
48.8632483931
 20
65.4233143874
 30
0.0
 10
49.4446238173
 20
65.3830169767
 30
0.0
 10
49.7491479369
 20
65.3558146335
 30
0.0
  0
SPLINE
  5
2A8
100
AcDbEntity
  8
0
100
AcDbSpline
 62
7
  6
BYLAYER
 70
0
 71
3
 72
11
 73
7
 74
0
 42
0.0000001
 43
0.0000001
 44
0.0000000001
 40
0.0
 40
0.0
 40
0.0
 40
0.0
 40
0.2256492086
 40
0.4692584096
 40
0.7283047998
 40
1.0
 40
1.0
 40
1.0
 40
1.0
 10
51.8704771124
 20
64.1310923699
 30
0.0
 10
51.5372660366
 20
64.1608572439
 30
0.0
 10
50.845630954
 20
64.2378454574
 30
0.0
 10
49.7770627881
 20
64.3938930898
 30
0.0
 10
48.6458416635
 20
64.5901995897
 30
0.0
 10
47.8735154981
 20
64.740965737
 30
0.0
 10
47.4787915603
 20
64.8212390129
 30
0.0
  0
SPLINE
  5
2A9
100
AcDbEntity
  8
0
100
AcDbSpline
 62
7
  6
BYLAYER
 70
0
 71
3
 72
11
 73
7
 74
0
 42
0.0000001
 43
0.0000001
 44
0.0000000001
 40
0.0
 40
0.0
 40
0.0
 40
0.0
 40
0.2477731512
 40
0.4973921748
 40
0.7482964972
 40
1.0
 40
1.0
 40
1.0
 40
1.0
 10
43.3816955466
 20
59.2301213027
 30
0.0
 10
43.0612274387
 20
58.8314522369
 30
0.0
 10
42.3927266664
 20
58.0510476388
 30
0.0
 10
41.31934122
 20
56.9390125968
 30
0.0
 10
40.1828760187
 20
55.8798236643
 30
0.0
 10
39.3921282645
 20
55.2075043732
 30
0.0
 10
38.9900099946
 20
54.8784084939
 30
0.0
  0
SPLINE
  5
2AA
100
AcDbEntity
  8
0
100
AcDbSpline
 62
7
  6
BYLAYER
 70
0
 71
3
 72
11
 73
7
 74
0
 42
0.0000001
 43
0.0000001
 44
0.0000000001
 40
0.0
 40
0.0
 40
0.0
 40
0.0
 40
0.2597151621
 40
0.513807829
 40
0.760959036
 40
1.0
 40
1.0
 40
1.0
 40
1.0
 10
38.5269710285
 20
53.6849860106
 30
0.0
 10
38.6201814995
 20
53.223607493
 30
0.0
 10
38.7896882198
 20
52.3077116814
 30
0.0
 10
38.9847862322
 20
50.941965602
 30
0.0
 10
39.10805434
 20
49.605346318
 30
0.0
 10
39.1373047638
 20
48.7239887271
 30
0.0
 10
39.1373047638
 20
48.2907581841
 30
0.0
  0
SPLINE
  5
2AB
100
AcDbEntity
  8
0
100
AcDbSpline
 62
7
  6
BYLAYER
 70
0
 71
3
 72
9
 73
5
 74
0
 42
0.0000001
 43
0.0000001
 44
0.0000000001
 40
0.0
 40
0.0
 40
0.0
 40
0.0
 40
0.254188329
 40
1.0
 40
1.0
 40
1.0
 40
1.0
 10
38.5269710285
 20
43.601267107
 30
0.0
 10
38.562076137
 20
43.5427263494
 30
0.0
 10
38.7042158775
 20
43.3148742704
 30
0.0
 10
38.8627831468
 20
43.0971914566
 30
0.0
 10
38.9900099946
 20
42.9425127757
 30
0.0
  0
SPLINE
  5
2AC
100
AcDbEntity
  8
0
100
AcDbSpline
 62
7
  6
BYLAYER
 70
0
 71
3
 72
11
 73
7
 74
0
 42
0.0000001
 43
0.0000001
 44
0.0000000001
 40
0.0
 40
0.0
 40
0.0
 40
0.0
 40
0.2640505373
 40
0.518096522
 40
0.7629874112
 40
1.0
 40
1.0
 40
1.0
 40
1.0
 10
39.1373047638
 20
48.2907581841
 30
0.0
 10
39.1373047638
 20
47.8734059664
 30
0.0
 10
39.111108902
 20
47.054205511
 30
0.0
 10
38.9899837161
 20
45.8534314515
 30
0.0
 10
38.7960360365
 20
44.7056760995
 30
0.0
 10
38.6224216184
 20
43.963519539
 30
0.0
 10
38.5269710285
 20
43.601267107
 30
0.0
  0
SPLINE
  5
2AD
100
AcDbEntity
  8
0
100
AcDbSpline
 62
7
  6
BYLAYER
 70
0
 71
3
 72
11
 73
7
 74
0
 42
0.0000001
 43
0.0000001
 44
0.0000000001
 40
0.0
 40
0.0
 40
0.0
 40
0.0
 40
0.2272914708
 40
0.4685941424
 40
0.7258252297
 40
1.0
 40
1.0
 40
1.0
 40
1.0
 10
43.3816955466
 20
42.2523661327
 30
0.0
 10
43.6627440408
 20
42.2272608058
 30
0.0
 10
44.2475213598
 20
42.2264302564
 30
0.0
 10
45.1411107659
 20
42.3629712496
 30
0.0
 10
46.0638116211
 20
42.6343143115
 30
0.0
 10
46.6717973131
 20
42.8943749878
 30
0.0
 10
46.9775811771
 20
43.0438676357
 30
0.0
  0
SPLINE
  5
2AE
100
AcDbEntity
  8
0
100
AcDbSpline
 62
7
  6
BYLAYER
 70
0
 71
3
 72
11
 73
7
 74
0
 42
0.0000001
 43
0.0000001
 44
0.0000000001
 40
0.0
 40
0.0
 40
0.0
 40
0.0
 40
0.2138609745
 40
0.4498736999
 40
0.7112735674
 40
1.0
 40
1.0
 40
1.0
 40
1.0
 10
55.0414951939
 20
64.1456824764
 30
0.0
 10
54.8167771423
 20
64.1176437806
 30
0.0
 10
54.3421482398
 20
64.073229715
 30
0.0
 10
53.589038978
 20
64.0469426777
 30
0.0
 10
52.7563766562
 20
64.0635926161
 30
0.0
 10
52.1750012321
 20
64.1038900268
 30
0.0
 10
51.8704771124
 20
64.1310923699
 30
0.0
  0
SPLINE
  5
2AF
100
AcDbEntity
  8
0
100
AcDbSpline
 62
7
  6
BYLAYER
 70
0
 71
3
 72
19
 73
15
 74
0
 42
0.0000001
 43
0.0000001
 44
0.0000000001
 40
0.0
 40
0.0
 40
0.0
 40
0.0
 40
0.151814537
 40
0.2930199882
 40
0.4239849096
 40
0.5459524373
 40
0.6042922699
 40
0.661293991
 40
0.7173721011
 40
0.7729769439
 40
0.8285792166
 40
0.8846596827
 40
0.9416738691
 40
1.0
 40
1.0
 40
1.0
 40
1.0
 10
39.1373047638
 20
48.2907581841
 30
0.0
 10
39.1373047638
 20
47.8775474097
 30
0.0
 10
39.1807706387
 20
47.0789460493
 30
0.0
 10
39.3923502498
 20
45.9407846412
 30
0.0
 10
39.7455621214
 20
44.9230349913
 30
0.0
 10
40.1615396277
 20
44.1785569826
 30
0.0
 10
40.5592635487
 20
43.6683159931
 30
0.0
 10
40.8838646585
 20
43.3318796131
 30
0.0
 10
41.2377568542
 20
43.0378899643
 30
0.0
 10
41.6192920618
 20
42.7876116843
 30
0.0
 10
42.0267938126
 20
42.5822992615
 30
0.0
 10
42.4583927614
 20
42.4228076575
 30
0.0
 10
42.9120020743
 20
42.3099281084
 30
0.0
 10
43.2235723367
 20
42.2664908655
 30
0.0
 10
43.3816955466
 20
42.2523661327
 30
0.0
  0
SPLINE
  5
2B0
100
AcDbEntity
  8
0
100
AcDbSpline
 62
7
  6
BYLAYER
 70
0
 71
3
 72
15
 73
11
 74
0
 42
0.0000001
 43
0.0000001
 44
0.0000000001
 40
0.0
 40
0.0
 40
0.0
 40
0.0
 40
0.129847411
 40
0.2611866596
 40
0.3925260486
 40
0.5223738886
 40
0.6492905064
 40
0.7719421396
 40
0.8891589506
 40
1.0
 40
1.0
 40
1.0
 40
1.0
 10
43.3816955466
 20
59.2301213027
 30
0.0
 10
43.0579355822
 20
58.8273570982
 30
0.0
 10
42.4387116398
 20
57.9909393178
 30
0.0
 10
41.6065869025
 20
56.6672073306
 30
0.0
 10
40.8762273799
 20
55.2846021237
 30
0.0
 10
40.2600663313
 20
53.8666037467
 30
0.0
 10
39.7684960215
 20
52.4371581281
 30
0.0
 10
39.4098264619
 20
51.0202834802
 30
0.0
 10
39.1901408066
 20
49.640002225
 30
0.0
 10
39.1373047638
 20
48.731876512
 30
0.0
 10
39.1373047638
 20
48.2907581841
 30
0.0
  0
SPLINE
  5
2B1
100
AcDbEntity
  8
0
100
AcDbSpline
 62
7
  6
BYLAYER
 70
0
 71
3
 72
11
 73
7
 74
0
 42
0.0000001
 43
0.0000001
 44
0.0000000001
 40
0.0
 40
0.0
 40
0.0
 40
0.0
 40
0.232065918
 40
0.4774810713
 40
0.7342754496
 40
1.0
 40
1.0
 40
1.0
 40
1.0
 10
47.6260863295
 20
62.993840769
 30
0.0
 10
47.2440705007
 20
62.7732851439
 30
0.0
 10
46.4840390576
 20
62.2734733189
 30
0.0
 10
45.3985232549
 20
61.3930718436
 30
0.0
 10
44.3508641034
 20
60.3740827716
 30
0.0
 10
43.6981460358
 20
59.6237923664
 30
0.0
 10
43.3816955466
 20
59.2301213027
 30
0.0
  0
SPLINE
  5
2B2
100
AcDbEntity
  8
0
100
AcDbSpline
 62
7
  6
BYLAYER
 70
0
 71
3
 72
11
 73
7
 74
0
 42
0.0000001
 43
0.0000001
 44
0.0000000001
 40
0.0
 40
0.0
 40
0.0
 40
0.0
 40
0.2234035249
 40
0.4632869182
 40
0.7219272534
 40
1.0
 40
1.0
 40
1.0
 40
1.0
 10
51.8704771124
 20
64.1310923699
 30
0.0
 10
51.5398249454
 20
64.1606286632
 30
0.0
 10
50.846603784
 20
64.150897589
 30
0.0
 10
49.7887536472
 20
63.9479248082
 30
0.0
 10
48.6972564074
 20
63.5620919086
 30
0.0
 10
47.9839329193
 20
63.2004423606
 30
0.0
 10
47.6260863295
 20
62.993840769
 30
0.0
  0
SPLINE
  5
2B3
100
AcDbEntity
  8
0
100
AcDbSpline
 62
7
  6
BYLAYER
 70
0
 71
3
 72
20
 73
16
 74
0
 42
0.0000001
 43
0.0000001
 44
0.0000000001
 40
0.0
 40
0.0
 40
0.0
 40
0.0
 40
0.1487286734
 40
0.2874915786
 40
0.4169948253
 40
0.478743844
 40
0.5387769353
 40
0.5973965356
 40
0.654947573
 40
0.7118099393
 40
0.7683856976
 40
0.8250916755
 40
0.8823473861
 40
0.9405424761
 40
1.0
 40
1.0
 40
1.0
 40
1.0
 10
56.0900277957
 20
58.8274618642
 30
0.0
 10
56.0646600432
 20
59.1950362503
 30
0.0
 10
55.9766222016
 20
59.9038572661
 30
0.0
 10
55.7171911276
 20
60.9069347844
 30
0.0
 10
55.3954655141
 20
61.6628112859
 30
0.0
 10
55.0789404633
 20
62.1996920438
 30
0.0
 10
54.8175767739
 20
62.5630308516
 30
0.0
 10
54.5294864113
 20
62.8919003551
 30
0.0
 10
54.2156916177
 20
63.1850170351
 30
0.0
 10
53.8773759013
 20
63.441192323
 30
0.0
 10
53.5158654729
 20
63.6594413728
 30
0.0
 10
53.1325269342
 20
63.8388606167
 30
0.0
 10
52.7288489146
 20
63.978809091
 30
0.0
 10
52.3065125003
 20
64.0787019722
 30
0.0
 10
52.0171883333
 20
64.1179870403
 30
0.0
 10
51.8704771124
 20
64.1310923699
 30
0.0
  0
SPLINE
  5
2B4
100
AcDbEntity
  8
0
100
AcDbSpline
 62
7
  6
BYLAYER
 70
0
 71
3
 72
11
 73
7
 74
0
 42
0.0000001
 43
0.0000001
 44
0.0000000001
 40
0.0
 40
0.0
 40
0.0
 40
0.0
 40
0.2458891186
 40
0.4944449149
 40
0.7458370139
 40
1.0
 40
1.0
 40
1.0
 40
1.0
 10
46.5527136281
 20
64.286570861
 30
0.0
 10
46.3372276879
 20
63.846313872
 30
0.0
 10
45.8847194116
 20
62.9702197381
 30
0.0
 10
45.1362195426
 20
61.684774957
 30
0.0
 10
44.3063766926
 20
60.4302752074
 30
0.0
 10
43.699126646
 20
59.625012266
 30
0.0
 10
43.3816955466
 20
59.2301213027
 30
0.0
  0
SPLINE
  5
2B5
100
AcDbEntity
  8
0
100
AcDbSpline
 62
7
  6
BYLAYER
 70
0
 71
3
 72
14
 73
10
 74
0
 42
0.0000001
 43
0.0000001
 44
0.0000000001
 40
0.0
 40
0.0
 40
0.0
 40
0.0
 40
0.1475123059
 40
0.2879838421
 40
0.5471731803
 40
0.667188032
 40
0.7818018891
 40
0.8922284546
 40
1.0
 40
1.0
 40
1.0
 40
1.0
 10
54.2171627746
 20
56.2002738293
 30
0.0
 10
54.3942698751
 20
56.302526051
 30
0.0
 10
54.7481403421
 20
56.4887867025
 30
0.0
 10
55.4480572041
 20
56.7824347303
 30
0.0
 10
56.1517409254
 20
56.9663818041
 30
0.0
 10
56.8362451323
 20
57.0152390894
 30
0.0
 10
57.3153110331
 20
56.9857441156
 30
0.0
 10
57.7684823445
 20
56.8906732209
 30
0.0
 10
58.0528377816
 20
56.7832041562
 30
0.0
 10
58.1878970631
 20
56.7193102623
 30
0.0
  0
SPLINE
  5
2B6
100
AcDbEntity
  8
0
100
AcDbSpline
 62
7
  6
BYLAYER
 70
0
 71
3
 72
11
 73
7
 74
0
 42
0.0000001
 43
0.0000001
 44
0.0000000001
 40
0.0
 40
0.0
 40
0.0
 40
0.0
 40
0.2177757074
 40
0.450911621
 40
0.7102761895
 40
1.0
 40
1.0
 40
1.0
 40
1.0
 10
65.4768172176
 20
41.3257186575
 30
0.0
 10
65.4322519469
 20
41.3514525001
 30
0.0
 10
65.3488751744
 20
41.4215636666
 30
0.0
 10
65.2600866418
 20
41.5666980086
 30
0.0
 10
65.2073599593
 20
41.7455811165
 30
0.0
 10
65.1969837852
 20
41.8757741051
 30
0.0
 10
65.1969837852
 20
41.9442374092
 30
0.0
  0
SPLINE
  5
2B7
100
AcDbEntity
  8
0
100
AcDbSpline
 62
7
  6
BYLAYER
 70
0
 71
3
 72
11
 73
7
 74
0
 42
0.0000001
 43
0.0000001
 44
0.0000000001
 40
0.0
 40
0.0
 40
0.0
 40
0.0
 40
0.2273214014
 40
0.4712069281
 40
0.7295652994
 40
1.0
 40
1.0
 40
1.0
 40
1.0
 10
69.5146625103
 20
39.5252345469
 30
0.0
 10
69.4828057179
 20
39.4775206335
 30
0.0
 10
69.4061855999
 20
39.3856241311
 30
0.0
 10
69.2693663493
 20
39.2618804365
 30
0.0
 10
69.1118048606
 20
39.1465101781
 30
0.0
 10
68.9981252745
 20
39.0763686387
 30
0.0
 10
68.9389604363
 20
39.0423407538
 30
0.0
  0
SPLINE
  5
2B8
100
AcDbEntity
  8
0
100
AcDbSpline
 62
7
  6
BYLAYER
 70
0
 71
3
 72
11
 73
7
 74
0
 42
0.0000001
 43
0.0000001
 44
0.0000000001
 40
0.0
 40
0.0
 40
0.0
 40
0.0
 40
0.2318931624
 40
0.4795186898
 40
0.7378615516
 40
1.0
 40
1.0
 40
1.0
 40
1.0
 10
71.6410501788
 20
45.9026683533
 30
0.0
 10
71.6410501788
 20
45.3763353866
 30
0.0
 10
71.5334843847
 20
44.2866796962
 30
0.0
 10
71.1085052299
 20
42.6610984822
 30
0.0
 10
70.4377036938
 20
41.0464756344
 30
0.0
 10
69.84510828
 20
40.0200169087
 30
0.0
 10
69.5146470985
 20
39.5252460361
 30
0.0
  0
SPLINE
  5
2B9
100
AcDbEntity
  8
0
100
AcDbSpline
 62
7
  6
BYLAYER
 70
0
 71
3
 72
14
 73
10
 74
0
 42
0.0000001
 43
0.0000001
 44
0.0000000001
 40
0.0
 40
0.0
 40
0.0
 40
0.0
 40
0.1168870909
 40
0.234502436
 40
0.3536116584
 40
0.47509513
 40
0.59978035
 40
0.7285347048
 40
1.0
 40
1.0
 40
1.0
 40
1.0
 10
69.6204447664
 20
50.1295224409
 30
0.0
 10
69.7859997606
 20
50.0340224602
 30
0.0
 10
70.1027594274
 20
49.8142409879
 30
0.0
 10
70.518909578
 20
49.4094033252
 30
0.0
 10
70.8714686809
 20
48.9388438425
 30
0.0
 10
71.1573376444
 20
48.4122642468
 30
0.0
 10
71.3769692088
 20
47.8381229795
 30
0.0
 10
71.5861672163
 20
47.0041690608
 30
0.0
 10
71.6410501788
 20
46.3465476496
 30
0.0
 10
71.6410501788
 20
45.9026683533
 30
0.0
  0
SPLINE
  5
2BA
100
AcDbEntity
  8
0
100
AcDbSpline
 62
7
  6
BYLAYER
 70
0
 71
3
 72
13
 73
9
 74
0
 42
0.0000001
 43
0.0000001
 44
0.0000000001
 40
0.0
 40
0.0
 40
0.0
 40
0.0
 40
0.2853248586
 40
0.544748559
 40
0.6655130069
 40
0.7810117619
 40
0.8921260731
 40
1.0
 40
1.0
 40
1.0
 40
1.0
 10
34.5030076301
 20
68.1559316948
 30
0.0
 10
34.8477507032
 20
68.3549680128
 30
0.0
 10
35.5336825463
 20
68.6901398029
 30
0.0
 10
36.4320330058
 20
68.9489608062
 30
0.0
 10
37.1201653134
 20
69.0301901351
 30
0.0
 10
37.6060561907
 20
69.0304970451
 30
0.0
 10
38.0702350826
 20
68.9712127639
 30
0.0
 10
38.3663344584
 20
68.8912123488
 30
0.0
 10
38.5084021531
 20
68.8415383633
 30
0.0
  0
SPLINE
  5
2BB
100
AcDbEntity
  8
0
100
AcDbSpline
 62
7
  6
BYLAYER
 70
0
 71
3
 72
15
 73
11
 74
0
 42
0.0000001
 43
0.0000001
 44
0.0000000001
 40
0.0
 40
0.0
 40
0.0
 40
0.0
 40
0.114606038
 40
0.2379623094
 40
0.3676241188
 40
0.5005441475
 40
0.6333876514
 40
0.7628265597
 40
0.8858334735
 40
1.0
 40
1.0
 40
1.0
 40
1.0
 10
9.235152702
 20
70.3624583347
 30
0.0
 10
9.235152702
 20
70.6566534721
 30
0.0
 10
9.2891073799
 20
71.2680891915
 30
0.0
 10
9.5042986859
 20
72.1894779297
 30
0.0
 10
9.8485905552
 20
73.1210197861
 30
0.0
 10
10.3090269756
 20
74.0280848362
 30
0.0
 10
10.8683832008
 20
74.8770444657
 30
0.0
 10
11.5060106888
 20
75.6362934362
 30
0.0
 10
12.1983033761
 20
76.2774834963
 30
0.0
 10
12.7016381671
 20
76.6253100681
 30
0.0
 10
12.9565665028
 20
76.7698775434
 30
0.0
  0
SPLINE
  5
2BC
100
AcDbEntity
  8
0
100
AcDbSpline
 62
7
  6
BYLAYER
 70
0
 71
3
 72
9
 73
5
 74
0
 42
0.0000001
 43
0.0000001
 44
0.0000000001
 40
0.0
 40
0.0
 40
0.0
 40
0.0
 40
0.2604676524
 40
1.0
 40
1.0
 40
1.0
 40
1.0
 10
12.9656883447
 20
76.7750374881
 30
0.0
 10
13.0307600492
 20
76.811754047
 30
0.0
 10
13.2837575508
 20
76.9469117412
 30
0.0
 10
13.5500298356
 20
77.0580897905
 30
0.0
 10
13.7524167395
 20
77.1216616179
 30
0.0
  0
SPLINE
  5
2BD
100
AcDbEntity
  8
0
100
AcDbSpline
 62
7
  6
BYLAYER
 70
0
 71
3
 72
9
 73
5
 74
0
 42
0.0000001
 43
0.0000001
 44
0.0000000001
 40
0.0
 40
0.0
 40
0.0
 40
0.0
 40
0.5167927521
 40
1.0
 40
1.0
 40
1.0
 40
1.0
 10
13.7524167395
 20
77.1216616179
 30
0.0
 10
13.9083878134
 20
77.1706537512
 30
0.0
 10
14.2174666054
 20
77.2443851809
 30
0.0
 10
14.5352458247
 20
77.2645243608
 30
0.0
 10
14.6879986552
 20
77.2588019256
 30
0.0
  0
SPLINE
  5
2BE
100
AcDbEntity
  8
0
100
AcDbSpline
 62
7
  6
BYLAYER
 70
0
 71
3
 72
14
 73
10
 74
0
 42
0.0000001
 43
0.0000001
 44
0.0000000001
 40
0.0
 40
0.0
 40
0.0
 40
0.0
 40
0.147445716
 40
0.2878815507
 40
0.5470864803
 40
0.6671346044
 40
0.7817852251
 40
0.892235655
 40
1.0
 40
1.0
 40
1.0
 40
1.0
 10
29.7377173264
 20
70.2946723713
 30
0.0
 10
29.9131917732
 20
70.3959819857
 30
0.0
 10
30.2638035327
 20
70.5805897951
 30
0.0
 10
30.9573269949
 20
70.8719541939
 30
0.0
 10
31.6545910179
 20
71.0550451099
 30
0.0
 10
32.3330894327
 20
71.1048853552
 30
0.0
 10
32.8081452849
 20
71.0769677393
 30
0.0
 10
33.2577315666
 20
70.9843272341
 30
0.0
 10
33.5400617699
 20
70.8790230715
 30
0.0
 10
33.6742231309
 20
70.8163225331
 30
0.0
  0
SPLINE
  5
2BF
100
AcDbEntity
  8
0
100
AcDbSpline
 62
7
  6
BYLAYER
 70
0
 71
3
 72
9
 73
5
 74
0
 42
0.0000001
 43
0.0000001
 44
0.0000000001
 40
0.0
 40
0.0
 40
0.0
 40
0.0
 40
0.4832770798
 40
1.0
 40
1.0
 40
1.0
 40
1.0
 10
9.6745366751
 20
68.5853475337
 30
0.0
 10
9.5939814338
 20
68.7142680175
 30
0.0
 10
9.45381396
 20
68.9981331303
 30
0.0
 10
9.3638021325
 20
69.3009818633
 30
0.0
 10
9.3284809512
 20
69.4596368455
 30
0.0
  0
SPLINE
  5
2C0
100
AcDbEntity
  8
0
100
AcDbSpline
 62
7
  6
BYLAYER
 70
0
 71
3
 72
9
 73
5
 74
0
 42
0.0000001
 43
0.0000001
 44
0.0000000001
 40
0.0
 40
0.0
 40
0.0
 40
0.0
 40
0.24000931
 40
1.0
 40
1.0
 40
1.0
 40
1.0
 10
9.3284809512
 20
69.4596368455
 30
0.0
 10
9.3135685633
 20
69.5266200135
 30
0.0
 10
9.2597673487
 20
69.8075430442
 30
0.0
 10
9.2376900697
 20
70.0941447398
 30
0.0
 10
9.2354187157
 20
70.3114281278
 30
0.0
  0
SPLINE
  5
2C1
100
AcDbEntity
  8
0
100
AcDbSpline
 62
7
  6
BYLAYER
 70
0
 71
3
 72
14
 73
10
 74
0
 42
0.0000001
 43
0.0000001
 44
0.0000000001
 40
0.0
 40
0.0
 40
0.0
 40
0.0
 40
0.1080477172
 40
0.2181310799
 40
0.3321075094
 40
0.4515016648
 40
0.5774650106
 40
0.7107278227
 40
1.0
 40
1.0
 40
1.0
 40
1.0
 10
10.7892391446
 20
66.8002442992
 30
0.0
 10
10.6909272556
 20
66.8570047235
 30
0.0
 10
10.5019372605
 20
66.9889340365
 30
0.0
 10
10.2521347784
 20
67.2346797337
 30
0.0
 10
10.0373870297
 20
67.5264442223
 30
0.0
 10
9.8594830456
 20
67.8607869528
 30
0.0
 10
9.7200037628
 20
68.2344650114
 30
0.0
 10
9.5827923242
 20
68.7951833255
 30
0.0
 10
9.5473295011
 20
69.2413108923
 30
0.0
 10
9.5473273023
 20
69.5452359674
 30
0.0
  0
SPLINE
  5
2C2
100
AcDbEntity
  8
0
100
AcDbSpline
 62
7
  6
BYLAYER
 70
0
 71
3
 72
9
 73
5
 74
0
 42
0.0000001
 43
0.0000001
 44
0.0000000001
 40
0.0
 40
0.0
 40
0.0
 40
0.0
 40
0.2593051026
 40
1.0
 40
1.0
 40
1.0
 40
1.0
 10
19.7260241848
 20
73.4606311949
 30
0.0
 10
19.7911927271
 20
73.4982560457
 30
0.0
 10
20.0453746721
 20
73.6382698445
 30
0.0
 10
20.3113246565
 20
73.7574718506
 30
0.0
 10
20.5136193058
 20
73.8301344943
 30
0.0
  0
SPLINE
  5
2C3
100
AcDbEntity
  8
0
100
AcDbSpline
 62
7
  6
BYLAYER
 70
0
 71
3
 72
14
 73
10
 74
0
 42
0.0000001
 43
0.0000001
 44
0.0000000001
 40
0.0
 40
0.0
 40
0.0
 40
0.0
 40
0.2892710494
 40
0.4225536085
 40
0.5484974385
 40
0.6678867473
 40
0.7818678462
 40
0.8919525122
 40
1.0
 40
1.0
 40
1.0
 40
1.0
 10
13.7873484962
 20
76.8892496366
 30
0.0
 10
14.0505477879
 20
77.0412069114
 30
0.0
 10
14.4546486369
 20
77.2335439238
 30
0.0
 10
15.0088221234
 20
77.3951201275
 30
0.0
 10
15.4021686462
 20
77.4611283517
 30
0.0
 10
15.7806373071
 20
77.4742228046
 30
0.0
 10
16.1406804714
 20
77.4341497692
 30
0.0
 10
16.4784041435
 20
77.3406975016
 30
0.0
 10
16.6871487489
 20
77.242993517
 30
0.0
 10
16.7854578478
 20
77.1862347036
 30
0.0
  0
SPLINE
  5
2C4
100
AcDbEntity
  8
0
100
AcDbSpline
 62
7
  6
BYLAYER
 70
0
 71
3
 72
17
 73
13
 74
0
 42
0.0000001
 43
0.0000001
 44
0.0000000001
 40
0.0
 40
0.0
 40
0.0
 40
0.0
 40
0.0448834967
 40
0.0913989279
 40
0.1400812277
 40
0.1913234712
 40
0.3022593401
 40
0.4249937756
 40
0.5585588282
 40
0.7008748915
 40
0.8491134417
 40
1.0
 40
1.0
 40
1.0
 40
1.0
 10
16.0212223568
 20
63.4820761958
 30
0.0
 10
15.9264219244
 20
63.5680515812
 30
0.0
 10
15.7471066397
 20
63.7588307816
 30
0.0
 10
15.5187313053
 20
64.0880698801
 30
0.0
 10
15.3290266956
 20
64.4613993629
 30
0.0
 10
15.1241020211
 20
65.027995697
 30
0.0
 10
14.9796422679
 20
65.8336311458
 30
0.0
 10
14.9793995309
 20
66.8849125891
 30
0.0
 10
15.1457296995
 20
68.0128793884
 30
0.0
 10
15.4727592408
 20
69.1801532983
 30
0.0
 10
15.9492638722
 20
70.3478384317
 30
0.0
 10
16.3556780108
 20
71.0999040126
 30
0.0
 10
16.5801524744
 20
71.4669376188
 30
0.0
  0
SPLINE
  5
2C5
100
AcDbEntity
  8
0
100
AcDbSpline
 62
7
  6
BYLAYER
 70
0
 71
3
 72
12
 73
8
 74
0
 42
0.0000001
 43
0.0000001
 44
0.0000000001
 40
0.0
 40
0.0
 40
0.0
 40
0.0
 40
0.2286941304
 40
0.4765397561
 40
0.7419777249
 40
0.8756214767
 40
1.0
 40
1.0
 40
1.0
 40
1.0
 10
63.3657618232
 20
35.8246722412
 30
0.0
 10
63.2409379252
 20
35.7523286559
 30
0.0
 10
62.9704011032
 20
35.618616055
 30
0.0
 10
62.523019372
 20
35.4753606918
 30
0.0
 10
62.1137799403
 20
35.424487229
 30
0.0
 10
61.7836275322
 20
35.4525669037
 30
0.0
 10
61.6252743434
 20
35.4980871912
 30
0.0
 10
61.5540288057
 20
35.5309624876
 30
0.0
  0
SPLINE
  5
2C6
100
AcDbEntity
  8
0
100
AcDbSpline
 62
7
  6
BYLAYER
 70
0
 71
3
 72
10
 73
6
 74
0
 42
0.0000001
 43
0.0000001
 44
0.0000000001
 40
0.0
 40
0.0
 40
0.0
 40
0.0
 40
0.5232645414
 40
0.7650317855
 40
1.0
 40
1.0
 40
1.0
 40
1.0
 10
66.4350748319
 20
43.7128243633
 30
0.0
 10
66.5038415368
 20
43.7279272261
 30
0.0
 10
66.6090935294
 20
43.736337519
 30
0.0
 10
66.741360751
 20
43.7079601601
 30
0.0
 10
66.8005265927
 20
43.681733763
 30
0.0
 10
66.8279050391
 20
43.6659243083
 30
0.0
  0
SPLINE
  5
2C7
100
AcDbEntity
  8
0
100
AcDbSpline
 62
7
  6
BYLAYER
 70
0
 71
3
 72
11
 73
7
 74
0
 42
0.0000001
 43
0.0000001
 44
0.0000000001
 40
0.0
 40
0.0
 40
0.0
 40
0.0
 40
0.2303440666
 40
0.4844551604
 40
0.7467698068
 40
1.0
 40
1.0
 40
1.0
 40
1.0
 10
65.1969837852
 20
41.9442374092
 30
0.0
 10
65.1969837852
 20
42.0692975522
 30
0.0
 10
65.2347928449
 20
42.332607421
 30
0.0
 10
65.3737513226
 20
42.7158016091
 30
0.0
 10
65.5853878082
 20
43.0785845063
 30
0.0
 10
65.7692248012
 20
43.2924745634
 30
0.0
 10
65.8696474248
 20
43.3863766462
 30
0.0
  0
SPLINE
  5
2C8
100
AcDbEntity
  8
0
100
AcDbSpline
 62
7
  6
BYLAYER
 70
0
 71
3
 72
24
 73
20
 74
0
 42
0.0000001
 43
0.0000001
 44
0.0000000001
 40
0.0
 40
0.0
 40
0.0
 40
0.0
 40
0.021312798
 40
0.0429823508
 40
0.0880756561
 40
0.1365937619
 40
0.1892802452
 40
0.2464122475
 40
0.3078802752
 40
0.3732726476
 40
0.4419484666
 40
0.5130991792
 40
0.585803348
 40
0.6590710083
 40
0.7318880282
 40
0.8032635634
 40
0.8722571344
 40
0.9380697747
 40
1.0
 40
1.0
 40
1.0
 40
1.0
 10
25.3957711565
 20
56.4554188706
 30
0.0
 10
25.3004418709
 20
56.5214869141
 30
0.0
 10
25.1163249158
 20
56.6669315656
 30
0.0
 10
24.7784876789
 20
57.0083170722
 30
0.0
 10
24.419810474
 20
57.5299655346
 30
0.0
 10
24.1108611095
 20
58.2686965241
 30
0.0
 10
23.9202409599
 20
59.1128236537
 30
0.0
 10
23.8503278379
 20
60.0451999979
 30
0.0
 10
23.901522439
 20
61.0474853196
 30
0.0
 10
24.0724449588
 20
62.0997203364
 30
0.0
 10
24.3594894951
 20
63.1807234596
 30
0.0
 10
24.7567361714
 20
64.2685519479
 30
0.0
 10
25.2560574932
 20
65.3409989896
 30
0.0
 10
25.8472186706
 20
66.3761088031
 30
0.0
 10
26.5181340045
 20
67.3526765111
 30
0.0
 10
27.2550626716
 20
68.2506325303
 30
0.0
 10
28.0429812039
 20
69.0518426917
 30
0.0
 10
28.8657763245
 20
69.7395974952
 30
0.0
 10
29.4458418961
 20
70.126159019
 30
0.0
 10
29.7377173264
 20
70.2946723713
 30
0.0
  0
SPLINE
  5
2C9
100
AcDbEntity
  8
0
100
AcDbSpline
 62
7
  6
BYLAYER
 70
0
 71
3
 72
9
 73
5
 74
0
 42
0.0000001
 43
0.0000001
 44
0.0000000001
 40
0.0
 40
0.0
 40
0.0
 40
0.0
 40
0.4957359485
 40
1.0
 40
1.0
 40
1.0
 40
1.0
 10
49.8922490017
 20
42.2540382559
 30
0.0
 10
49.7883454066
 20
42.3233135681
 30
0.0
 10
49.5879219407
 20
42.4773013989
 30
0.0
 10
49.4094535901
 20
42.656176723
 30
0.0
 10
49.3254534466
 20
42.7514666848
 30
0.0
  0
SPLINE
  5
2CA
100
AcDbEntity
  8
0
100
AcDbSpline
 62
7
  6
BYLAYER
 70
0
 71
3
 72
23
 73
19
 74
0
 42
0.0000001
 43
0.0000001
 44
0.0000000001
 40
0.0
 40
0.0
 40
0.0
 40
0.0
 40
0.044059686
 40
0.0911809627
 40
0.1420377893
 40
0.1969290442
 40
0.2558345443
 40
0.3184760453
 40
0.3843745886
 40
0.4529019133
 40
0.5233204635
 40
0.5948183653
 40
0.6665424
 40
0.7376342927
 40
0.807259215
 40
0.8746271903
 40
0.9390718737
 40
1.0
 40
1.0
 40
1.0
 40
1.0
 10
49.3254534466
 20
42.7514666848
 30
0.0
 10
49.1738169048
 20
42.923483537
 30
0.0
 10
48.8992690825
 20
43.3154757756
 30
0.0
 10
48.5983686014
 20
43.9947636689
 30
0.0
 10
48.3999420513
 20
44.7685230186
 30
0.0
 10
48.3064490479
 20
45.6228133302
 30
0.0
 10
48.3186912552
 20
46.5430098133
 30
0.0
 10
48.4361387347
 20
47.5131516933
 30
0.0
 10
48.6565110835
 20
48.516302862
 30
0.0
 10
48.9758618772
 20
49.53480303
 30
0.0
 10
49.3885482846
 20
50.5506110117
 30
0.0
 10
49.8872235366
 20
51.5456704841
 30
0.0
 10
50.4629660502
 20
52.5022933814
 30
0.0
 10
51.1055610406
 20
53.4034499153
 30
0.0
 10
51.8035936985
 20
54.2330388217
 30
0.0
 10
52.5446960185
 20
54.9765179525
 30
0.0
 10
53.3157142063
 20
55.6204398135
 30
0.0
 10
53.8572946562
 20
55.9870778635
 30
0.0
 10
54.1298666782
 20
56.149124359
 30
0.0
  0
SPLINE
  5
2CB
100
AcDbEntity
  8
0
100
AcDbSpline
 62
7
  6
BYLAYER
 70
0
 71
3
 72
15
 73
11
 74
0
 42
0.0000001
 43
0.0000001
 44
0.0000000001
 40
0.0
 40
0.0
 40
0.0
 40
0.0
 40
0.1080125456
 40
0.2180624346
 40
0.3319994014
 40
0.4513582406
 40
0.5772781909
 40
0.7105004906
 40
0.8513961986
 40
1.0
 40
1.0
 40
1.0
 40
1.0
 10
29.9790672271
 20
52.9322989735
 30
0.0
 10
29.8307205291
 20
53.0179448025
 30
0.0
 10
29.5454781051
 20
53.2169325342
 30
0.0
 10
29.1686497412
 20
53.5878565428
 30
0.0
 10
28.8445074
 20
54.0280298687
 30
0.0
 10
28.5761491269
 20
54.5325947776
 30
0.0
 10
28.3656300046
 20
55.0963702447
 30
0.0
 10
28.2145395953
 20
55.7138746137
 30
0.0
 10
28.1241034075
 20
56.3791974695
 30
0.0
 10
28.1050931508
 20
56.8386249903
 30
0.0
 10
28.105091447
 20
57.07429277
 30
0.0
  0
SPLINE
  5
2CC
100
AcDbEntity
  8
0
100
AcDbSpline
 62
7
  6
BYLAYER
 70
0
 71
3
 72
11
 73
7
 74
0
 42
0.0000001
 43
0.0000001
 44
0.0000000001
 40
0.0
 40
0.0
 40
0.0
 40
0.0
 40
0.2432572615
 40
0.4893015016
 40
0.7407644746
 40
1.0
 40
1.0
 40
1.0
 40
1.0
 10
48.4202961886
 20
42.2854913313
 30
0.0
 10
48.5353450577
 20
42.2190695241
 30
0.0
 10
48.7759060096
 20
42.1006448407
 30
0.0
 10
49.1601560587
 20
41.9707139352
 30
0.0
 10
49.5662133715
 20
41.888534337
 30
0.0
 10
49.8449598985
 20
41.8663061058
 30
0.0
 10
49.9864892184
 20
41.8628261177
 30
0.0
  0
SPLINE
  5
2CD
100
AcDbEntity
  8
0
100
AcDbSpline
 62
7
  6
BYLAYER
 70
0
 71
3
 72
11
 73
7
 74
0
 42
0.0000001
 43
0.0000001
 44
0.0000000001
 40
0.0
 40
0.0
 40
0.0
 40
0.0
 40
0.259923482
 40
0.5115091166
 40
0.7572600043
 40
1.0
 40
1.0
 40
1.0
 40
1.0
 10
58.6536787318
 20
56.7514860985
 30
0.0
 10
58.5788128648
 20
56.8792346975
 30
0.0
 10
58.4170954934
 20
57.1226044265
 30
0.0
 10
58.1349555483
 20
57.4504442658
 30
0.0
 10
57.8196422797
 20
57.7321314224
 30
0.0
 10
57.5879323875
 20
57.8880960715
 30
0.0
 10
57.4681769947
 20
57.9572351224
 30
0.0
  0
SPLINE
  5
2CE
100
AcDbEntity
  8
0
100
AcDbSpline
 62
7
  6
BYLAYER
 70
0
 71
3
 72
9
 73
5
 74
0
 42
0.0000001
 43
0.0000001
 44
0.0000000001
 40
0.0
 40
0.0
 40
0.0
 40
0.0
 40
0.5139840721
 40
1.0
 40
1.0
 40
1.0
 40
1.0
 10
18.2518334429
 20
72.4685503427
 30
0.0
 10
18.4019884204
 20
72.6008594731
 30
0.0
 10
18.7055536962
 20
72.8456703895
 30
0.0
 10
19.0317509242
 20
73.0597841505
 30
0.0
 10
19.1956382752
 20
73.154403992
 30
0.0
  0
SPLINE
  5
2CF
100
AcDbEntity
  8
0
100
AcDbSpline
 62
7
  6
BYLAYER
 70
0
 71
3
 72
15
 73
11
 74
0
 42
0.0000001
 43
0.0000001
 44
0.0000000001
 40
0.0
 40
0.0
 40
0.0
 40
0.0
 40
0.1141503488
 40
0.2373278355
 40
0.3669748484
 40
0.500000497
 40
0.633024523
 40
0.7626744025
 40
0.8858457074
 40
1.0
 40
1.0
 40
1.0
 40
1.0
 10
13.2569625867
 20
76.5830224337
 30
0.0
 10
13.003016166
 20
76.4364072745
 30
0.0
 10
12.501409979
 20
76.0847740768
 30
0.0
 10
11.8112094725
 20
75.4390671688
 30
0.0
 10
11.1751753632
 20
74.6757464511
 30
0.0
 10
10.6172250486
 20
73.8235225727
 30
0.0
 10
10.1581570084
 20
72.9141997334
 30
0.0
 10
9.81515457
 20
71.9817189533
 30
0.0
 10
9.6010451806
 20
71.061135595
 30
0.0
 10
9.5473395235
 20
70.4509192438
 30
0.0
 10
9.5473416343
 20
70.1576774818
 30
0.0
  0
SPLINE
  5
2D0
100
AcDbEntity
  8
0
100
AcDbSpline
 62
7
  6
BYLAYER
 70
0
 71
3
 72
9
 73
5
 74
0
 42
0.0000001
 43
0.0000001
 44
0.0000000001
 40
0.0
 40
0.0
 40
0.0
 40
0.0
 40
0.2607667449
 40
1.0
 40
1.0
 40
1.0
 40
1.0
 10
9.2654606596
 20
70.320431877
 30
0.0
 10
9.2654606596
 20
70.2455063561
 30
0.0
 10
9.2720343123
 20
69.9582699247
 30
0.0
 10
9.3056343343
 20
69.6712404635
 30
0.0
 10
9.3492788858
 20
69.4633706529
 30
0.0
  0
SPLINE
  5
2D1
100
AcDbEntity
  8
0
100
AcDbSpline
 62
7
  6
BYLAYER
 70
0
 71
3
 72
9
 73
5
 74
0
 42
0.0000001
 43
0.0000001
 44
0.0000000001
 40
0.0
 40
0.0
 40
0.0
 40
0.0
 40
0.5184857843
 40
1.0
 40
1.0
 40
1.0
 40
1.0
 10
9.3492788858
 20
69.4633706529
 30
0.0
 10
9.3822699934
 20
69.3062409531
 30
0.0
 10
9.4668070516
 20
69.0069800728
 30
0.0
 10
9.6000480613
 20
68.7253097801
 30
0.0
 10
9.6767919378
 20
68.5974689021
 30
0.0
  0
SPLINE
  5
2D2
100
AcDbEntity
  8
0
100
AcDbSpline
 62
7
  6
BYLAYER
 70
0
 71
3
 72
15
 73
11
 74
0
 42
0.0000001
 43
0.0000001
 44
0.0000000001
 40
0.0
 40
0.0
 40
0.0
 40
0.0
 40
0.1144609498
 40
0.2378051439
 40
0.367509218
 40
0.5004878324
 40
0.6333993215
 40
0.7629060845
 40
0.8859423604
 40
1.0
 40
1.0
 40
1.0
 40
1.0
 10
9.2655723676
 20
70.3536399736
 30
0.0
 10
9.2675377461
 20
70.6463988254
 30
0.0
 10
9.3244703628
 20
71.2548478051
 30
0.0
 10
9.5417852559
 20
72.1718706639
 30
0.0
 10
9.8864195826
 20
73.0996547209
 30
0.0
 10
10.3456493309
 20
74.0036586687
 30
0.0
 10
10.9024174486
 20
74.8504794341
 30
0.0
 10
11.5362002342
 20
75.6087693971
 30
0.0
 10
12.223354947
 20
76.2503517337
 30
0.0
 10
12.7224510392
 20
76.5998857015
 30
0.0
 10
12.9751003604
 20
76.7457519844
 30
0.0
  0
SPLINE
  5
2D3
100
AcDbEntity
  8
0
100
AcDbSpline
 62
7
  6
BYLAYER
 70
0
 71
3
 72
9
 73
5
 74
0
 42
0.0000001
 43
0.0000001
 44
0.0000000001
 40
0.0
 40
0.0
 40
0.0
 40
0.0
 40
0.2607668177
 40
1.0
 40
1.0
 40
1.0
 40
1.0
 10
12.9751003604
 20
76.7457519844
 30
0.0
 10
13.0399862834
 20
76.7832136659
 30
0.0
 10
13.2920213549
 20
76.921134806
 30
0.0
 10
13.5573901824
 20
77.0355471229
 30
0.0
 10
13.7592283868
 20
77.1016819506
 30
0.0
  0
SPLINE
  5
2D4
100
AcDbEntity
  8
0
100
AcDbSpline
 62
7
  6
BYLAYER
 70
0
 71
3
 72
9
 73
5
 74
0
 42
0.0000001
 43
0.0000001
 44
0.0000000001
 40
0.0
 40
0.0
 40
0.0
 40
0.0
 40
0.5184848345
 40
1.0
 40
1.0
 40
1.0
 40
1.0
 10
13.7592283868
 20
77.1016819506
 30
0.0
 10
13.9117941941
 20
77.1516720574
 30
0.0
 10
14.213214638
 20
77.2280857598
 30
0.0
 10
14.5237522764
 20
77.2535291418
 30
0.0
 10
14.6728300822
 20
77.2509878866
 30
0.0
  0
SPLINE
  5
2D5
100
AcDbEntity
  8
0
100
AcDbSpline
 62
7
  6
BYLAYER
 70
0
 71
3
 72
15
 73
11
 74
0
 42
0.0000001
 43
0.0000001
 44
0.0000000001
 40
0.0
 40
0.0
 40
0.0
 40
0.0
 40
0.114156122
 40
0.2373242383
 40
0.3669753506
 40
0.4999993656
 40
0.633023982
 40
0.7626739018
 40
0.8858454906
 40
1.0
 40
1.0
 40
1.0
 40
1.0
 10
33.9726217206
 20
67.8497044919
 30
0.0
 10
33.5709340847
 20
67.6177914115
 30
0.0
 10
32.7775400876
 20
67.0616391929
 30
0.0
 10
31.685886514
 20
66.0402823602
 30
0.0
 10
30.6798494819
 20
64.8329928561
 30
0.0
 10
29.7973547054
 20
63.4850023285
 30
0.0
 10
29.0712333377
 20
62.0467378883
 30
0.0
 10
28.5287089312
 20
60.5718262521
 30
0.0
 10
28.1900477129
 20
59.1157376313
 30
0.0
 10
28.105101677
 20
58.1505555297
 30
0.0
 10
28.1051050169
 20
57.6867338446
 30
0.0
  0
SPLINE
  5
2D6
100
AcDbEntity
  8
0
100
AcDbSpline
 62
7
  6
BYLAYER
 70
0
 71
3
 72
24
 73
20
 74
0
 42
0.0000001
 43
0.0000001
 44
0.0000000001
 40
0.0
 40
0.0
 40
0.0
 40
0.0
 40
0.062329972
 40
0.1286230125
 40
0.1981480635
 40
0.2700623856
 40
0.3433806115
 40
0.4170664781
 40
0.490061854
 40
0.5613402409
 40
0.6299539543
 40
0.6950833391
 40
0.7560960832
 40
0.8126171503
 40
0.8646104701
 40
0.9124710747
 40
0.9571025566
 40
0.9786729757
 40
1.0
 40
1.0
 40
1.0
 40
1.0
 10
54.0747162732
 20
56.2825134947
 30
0.0
 10
53.7756361119
 20
56.1098405138
 30
0.0
 10
53.1814104647
 20
55.7128226063
 30
0.0
 10
52.3397189469
 20
55.0050987736
 30
0.0
 10
51.5350189104
 20
54.1797226629
 30
0.0
 10
50.7843657755
 20
53.2545007398
 30
0.0
 10
50.1036186676
 20
52.2488163189
 30
0.0
 10
49.5072339326
 20
51.1840814565
 30
0.0
 10
49.0078608751
 20
50.0828978904
 30
0.0
 10
48.61609883
 20
48.9686339809
 30
0.0
 10
48.3402506536
 20
47.8648462612
 30
0.0
 10
48.1862110398
 20
46.7947226861
 30
0.0
 10
48.1574307093
 20
45.7805289064
 30
0.0
 10
48.2549670021
 20
44.8431297555
 30
0.0
 10
48.4780548103
 20
44.001613727
 30
0.0
 10
48.8238779991
 20
43.2738795043
 30
0.0
 10
49.2162144163
 20
42.770359257
 30
0.0
 10
49.580694174
 20
42.4488339468
 30
0.0
 10
49.7779088768
 20
42.3147958492
 30
0.0
 10
49.8796790044
 20
42.2547470379
 30
0.0
  0
SPLINE
  5
2D7
100
AcDbEntity
  8
0
100
AcDbSpline
 62
7
  6
BYLAYER
 70
0
 71
3
 72
10
 73
6
 74
0
 42
0.0000001
 43
0.0000001
 44
0.0000000001
 40
0.0
 40
0.0
 40
0.0
 40
0.0
 40
0.2698333423
 40
0.5265188745
 40
1.0
 40
1.0
 40
1.0
 40
1.0
 10
54.2009894596
 20
56.2721803461
 30
0.0
 10
54.375734904
 20
56.3686804404
 30
0.0
 10
54.7245334758
 20
56.5435727783
 30
0.0
 10
55.4131056246
 20
56.8150235598
 30
0.0
 10
55.9446839763
 20
56.9396540798
 30
0.0
 10
56.2931482593
 20
56.9752436966
 30
0.0
  0
SPLINE
  5
2D8
100
AcDbEntity
  8
0
100
AcDbSpline
 62
7
  6
BYLAYER
 70
0
 71
3
 72
23
 73
19
 74
0
 42
0.0000001
 43
0.0000001
 44
0.0000000001
 40
0.0
 40
0.0
 40
0.0
 40
0.0
 40
0.0609686106
 40
0.12562696
 40
0.193344248
 40
0.2634175141
 40
0.3350090239
 40
0.4072312301
 40
0.479171135
 40
0.5499240659
 40
0.618632887
 40
0.6845253239
 40
0.74695515
 40
0.8054481532
 40
0.8597587783
 40
0.9099389014
 40
0.9564067539
 40
1.0
 40
1.0
 40
1.0
 40
1.0
 10
29.5255629626
 20
70.4171569794
 30
0.0
 10
29.2467269222
 20
70.2561718774
 30
0.0
 10
28.6922402201
 20
69.8889109797
 30
0.0
 10
27.9031370362
 20
69.2385480956
 30
0.0
 10
27.1446365635
 20
68.4829896555
 30
0.0
 10
26.4309661305
 20
67.6367088368
 30
0.0
 10
25.7754491303
 20
66.7153470583
 30
0.0
 10
25.1903766758
 20
65.7362628904
 30
0.0
 10
24.6867032549
 20
64.7178420427
 30
0.0
 10
24.27391743
 20
63.6791904752
 30
0.0
 10
23.9597885809
 20
62.6397715538
 30
0.0
 10
23.7501792056
 20
61.6189931518
 30
0.0
 10
23.6490555631
 20
60.635781508
 30
0.0
 10
23.6585251319
 20
59.708190959
 30
0.0
 10
23.7788988967
 20
58.8531367423
 30
0.0
 10
24.0090461776
 20
58.0860668592
 30
0.0
 10
24.3460291692
 20
57.4217586119
 30
0.0
 10
24.6468891258
 20
57.0475299015
 30
0.0
 10
24.8112231309
 20
56.8863079132
 30
0.0
  0
SPLINE
  5
2D9
100
AcDbEntity
  8
0
100
AcDbSpline
 62
7
  6
BYLAYER
 70
0
 71
3
 72
9
 73
5
 74
0
 42
0.0000001
 43
0.0000001
 44
0.0000000001
 40
0.0
 40
0.0
 40
0.0
 40
0.0
 40
0.5026753358
 40
1.0
 40
1.0
 40
1.0
 40
1.0
 10
24.8112231309
 20
56.8863079132
 30
0.0
 10
24.8964132759
 20
56.8027310263
 30
0.0
 10
25.0762344951
 20
56.6466564588
 30
0.0
 10
25.2744064146
 20
56.5145958245
 30
0.0
 10
25.3766543098
 20
56.4555514853
 30
0.0
  0
SPLINE
  5
2DA
100
AcDbEntity
  8
0
100
AcDbSpline
 62
7
  6
BYLAYER
 70
0
 71
3
 72
24
 73
20
 74
0
 42
0.0000001
 43
0.0000001
 44
0.0000000001
 40
0.0
 40
0.0
 40
0.0
 40
0.0
 40
0.0213701527
 40
0.0432047461
 40
0.0888670312
 40
0.1381116607
 40
0.1915280579
 40
0.2492833398
 40
0.3112006414
 40
0.3768363949
 40
0.445545007
 40
0.5165324923
 40
0.5889053156
 40
0.6617128196
 40
0.7339872141
 40
0.8047822392
 40
0.8732047397
 40
0.9385001761
 40
1.0
 40
1.0
 40
1.0
 40
1.0
 10
24.3605089013
 20
57.0831045251
 30
0.0
 10
24.2714630575
 20
57.1555110459
 30
0.0
 10
24.1001936966
 20
57.3130368742
 30
0.0
 10
23.7883699658
 20
57.6755131194
 30
0.0
 10
23.4625910274
 20
58.2171262959
 30
0.0
 10
23.1896034207
 20
58.969728349
 30
0.0
 10
23.0310295046
 20
59.8198771685
 30
0.0
 10
22.9888039073
 20
60.7510423971
 30
0.0
 10
23.0629501587
 20
61.7455625931
 30
0.0
 10
23.2517622402
 20
62.7843143697
 30
0.0
 10
23.5514628197
 20
63.8471314524
 30
0.0
 10
23.9561339065
 20
64.9132168304
 30
0.0
 10
24.4577860176
 20
65.961621261
 30
0.0
 10
25.0465277411
 20
66.9716938218
 30
0.0
 10
25.7107744784
 20
67.9235222721
 30
0.0
 10
26.4374438699
 20
68.7982728847
 30
0.0
 10
27.2122758633
 20
69.5789572112
 30
0.0
 10
28.020024633
 20
70.2499015876
 30
0.0
 10
28.5886402756
 20
70.6277957325
 30
0.0
 10
28.8746765993
 20
70.7929378952
 30
0.0
  0
SPLINE
  5
2DB
100
AcDbEntity
  8
0
100
AcDbSpline
 62
7
  6
BYLAYER
 70
0
 71
3
 72
15
 73
11
 74
0
 42
0.0000001
 43
0.0000001
 44
0.0000000001
 40
0.0
 40
0.0
 40
0.0
 40
0.0
 40
0.1516882141
 40
0.2932886372
 40
0.4249703803
 40
0.5478585158
 40
0.6638364829
 40
0.7756258858
 40
0.8865560727
 40
1.0
 40
1.0
 40
1.0
 40
1.0
 10
60.9576532466
 20
39.4966733915
 30
0.0
 10
60.9578952759
 20
39.2537891764
 30
0.0
 10
60.9823747507
 20
38.7836266095
 30
0.0
 10
61.101433971
 20
38.111682274
 30
0.0
 10
61.300881538
 20
37.506878629
 30
0.0
 10
61.5779507682
 20
36.9787265086
 30
0.0
 10
61.9299696745
 20
36.5365463959
 30
0.0
 10
62.3516337364
 20
36.1887492708
 30
0.0
 10
62.8355787058
 20
35.9435859206
 30
0.0
 10
63.1863510532
 20
35.853103764
 30
0.0
 10
63.3657592519
 20
35.8246707567
 30
0.0
  0
SPLINE
  5
2DC
100
AcDbEntity
  8
0
100
AcDbSpline
 62
7
  6
BYLAYER
 70
0
 71
3
 72
30
 73
26
 74
0
 42
0.0000001
 43
0.0000001
 44
0.0000000001
 40
0.0
 40
0.0
 40
0.0
 40
0.0
 40
0.0309838449
 40
0.0603972469
 40
0.0881927147
 40
0.1144590824
 40
0.1393599315
 40
0.1631306877
 40
0.186089188
 40
0.2086229291
 40
0.2311571535
 40
0.2541161313
 40
0.2778863232
 40
0.3027875113
 40
0.3290570856
 40
0.3568508071
 40
0.4171797158
 40
0.4837104279
 40
0.5554964149
 40
0.6310583535
 40
0.708587471
 40
0.7861156764
 40
0.8616788382
 40
0.9334666953
 40
1.0
 40
1.0
 40
1.0
 40
1.0
 10
71.3470690101
 20
45.4949695743
 30
0.0
 10
71.3468511222
 20
45.6862018945
 30
0.0
 10
71.3313192795
 20
46.0592034272
 30
0.0
 10
71.258328696
 20
46.5994814097
 30
0.0
 10
71.1356066251
 20
47.1009691377
 30
0.0
 10
70.9645970853
 20
47.5586718449
 30
0.0
 10
70.7466920768
 20
47.968314241
 30
0.0
 10
70.4836122189
 20
48.3257526123
 30
0.0
 10
70.1775288231
 20
48.6269293674
 30
0.0
 10
69.8315578209
 20
48.8683803481
 30
0.0
 10
69.449470902
 20
49.0472935749
 30
0.0
 10
69.0355966209
 20
49.161752869
 30
0.0
 10
68.5945144608
 20
49.2109696488
 30
0.0
 10
68.1307844806
 20
49.1948079663
 30
0.0
 10
67.6488723526
 20
49.1140098884
 30
0.0
 10
66.969787827
 20
48.9159181004
 30
0.0
 10
66.1020990999
 20
48.5030707692
 30
0.0
 10
65.0946411345
 20
47.7966711144
 30
0.0
 10
64.1277735196
 20
46.8922413561
 30
0.0
 10
63.2372173872
 20
45.8234604603
 30
0.0
 10
62.4559016664
 20
44.6300512085
 30
0.0
 10
61.812998204
 20
43.3567403883
 30
0.0
 10
61.3328234757
 20
42.0509513941
 30
0.0
 10
61.0325427174
 20
40.7618398381
 30
0.0
 10
60.9582086861
 20
39.9073169029
 30
0.0
 10
60.9576532466
 20
39.4966733915
 30
0.0
  0
SPLINE
  5
2DD
100
AcDbEntity
  8
0
100
AcDbSpline
 62
7
  6
BYLAYER
 70
0
 71
3
 72
12
 73
8
 74
0
 42
0.0000001
 43
0.0000001
 44
0.0000000001
 40
0.0
 40
0.0
 40
0.0
 40
0.0
 40
0.2644046259
 40
0.5246268484
 40
0.6505448535
 40
0.7723085837
 40
1.0
 40
1.0
 40
1.0
 40
1.0
 10
69.3507815144
 20
39.616070891
 30
0.0
 10
69.6613039508
 20
40.0753492759
 30
0.0
 10
70.2178510364
 20
41.028350931
 30
0.0
 10
70.7487625341
 20
42.2894915394
 30
0.0
 10
71.0563174964
 20
43.3100969721
 30
0.0
 10
71.2724382557
 20
44.2836076194
 30
0.0
 10
71.3465938162
 20
45.0175484334
 30
0.0
 10
71.3470690101
 20
45.4949695743
 30
0.0
  0
SPLINE
  5
2DE
100
AcDbEntity
  8
0
100
AcDbSpline
 62
7
  6
BYLAYER
 70
0
 71
3
 72
11
 73
7
 74
0
 42
0.0000001
 43
0.0000001
 44
0.0000000001
 40
0.0
 40
0.0
 40
0.0
 40
0.0
 40
0.2303440666
 40
0.4844551604
 40
0.7467698068
 40
1.0
 40
1.0
 40
1.0
 40
1.0
 10
67.1077384715
 20
43.0474055566
 30
0.0
 10
67.1077384715
 20
42.9223454136
 30
0.0
 10
67.0699294118
 20
42.6590355448
 30
0.0
 10
66.9309709341
 20
42.2758413567
 30
0.0
 10
66.7193344485
 20
41.9130584595
 30
0.0
 10
66.5354974556
 20
41.6991684024
 30
0.0
 10
66.4350748319
 20
41.6052663196
 30
0.0
  0
SPLINE
  5
2DF
100
AcDbEntity
  8
0
100
AcDbSpline
 62
7
  6
BYLAYER
 70
0
 71
3
 72
10
 73
6
 74
0
 42
0.0000001
 43
0.0000001
 44
0.0000000001
 40
0.0
 40
0.0
 40
0.0
 40
0.0
 40
0.5232645414
 40
0.7650317855
 40
1.0
 40
1.0
 40
1.0
 40
1.0
 10
65.8696474248
 20
41.2788186025
 30
0.0
 10
65.80088072
 20
41.2637157397
 30
0.0
 10
65.6956287273
 20
41.2553054468
 30
0.0
 10
65.5633615058
 20
41.2836828057
 30
0.0
 10
65.504195664
 20
41.3099092028
 30
0.0
 10
65.4768172176
 20
41.3257186575
 30
0.0
  0
SPLINE
  5
2E0
100
AcDbEntity
  8
0
100
AcDbSpline
 62
7
  6
BYLAYER
 70
0
 71
3
 72
16
 73
12
 74
0
 42
0.0000001
 43
0.0000001
 44
0.0000000001
 40
0.0
 40
0.0
 40
0.0
 40
0.0
 40
0.1141530946
 40
0.237315391
 40
0.3669620078
 40
0.4999812301
 40
0.6330007376
 40
0.7626471375
 40
0.8858144025
 40
0.9441770305
 40
1.0
 40
1.0
 40
1.0
 40
1.0
 10
65.4487054066
 20
49.7158863637
 30
0.0
 10
65.044733668
 20
49.4826545639
 30
0.0
 10
64.2468357777
 20
48.9233470723
 30
0.0
 10
63.1489892143
 20
47.8961887179
 30
0.0
 10
62.13725016
 20
46.6820435907
 30
0.0
 10
61.2497087419
 20
45.3264382741
 30
0.0
 10
60.5195660998
 20
43.8798919244
 30
0.0
 10
59.9736406803
 20
42.3969887132
 30
0.0
 10
59.6854725316
 20
41.1542335642
 30
0.0
 10
59.5675181347
 20
40.190829517
 30
0.0
 10
59.546574835
 20
39.7240542563
 30
0.0
 10
59.546574835
 20
39.4959439281
 30
0.0
  0
SPLINE
  5
2E1
100
AcDbEntity
  8
0
100
AcDbSpline
 62
7
  6
BYLAYER
 70
0
 71
3
 72
15
 73
11
 74
0
 42
0.0000001
 43
0.0000001
 44
0.0000000001
 40
0.0
 40
0.0
 40
0.0
 40
0.0
 40
0.1141546646
 40
0.2373264208
 40
0.3669765195
 40
0.500001082
 40
0.6330254939
 40
0.7626751532
 40
0.8858462166
 40
1.0
 40
1.0
 40
1.0
 40
1.0
 10
9.5473273023
 20
69.5452359674
 30
0.0
 10
9.5473248775
 20
69.8804056085
 30
0.0
 10
9.6087095206
 20
70.5778713231
 30
0.0
 10
9.8534355185
 20
71.6300788813
 30
0.0
 10
10.2454799364
 20
72.6958868224
 30
0.0
 10
10.7701932524
 20
73.7352149228
 30
0.0
 10
11.4079109997
 20
74.7092991349
 30
0.0
 10
12.1348951527
 20
75.581727323
 30
0.0
 10
12.9237603795
 20
76.3197723991
 30
0.0
 10
13.4970848798
 20
76.7216668598
 30
0.0
 10
13.7873484962
 20
76.8892496366
 30
0.0
  0
SPLINE
  5
2E2
100
AcDbEntity
  8
0
100
AcDbSpline
 62
7
  6
BYLAYER
 70
0
 71
3
 72
18
 73
14
 74
0
 42
0.0000001
 43
0.0000001
 44
0.0000000001
 40
0.0
 40
0.0
 40
0.0
 40
0.0
 40
0.1504339633
 40
0.2992132176
 40
0.4425245145
 40
0.5770017139
 40
0.6401504235
 40
0.7002458629
 40
0.8108196622
 40
0.8616210225
 40
0.9097379627
 40
0.9556508043
 40
1.0
 40
1.0
 40
1.0
 40
1.0
 10
18.4948983764
 20
70.9417846704
 30
0.0
 10
18.2382322649
 20
70.5592908748
 30
0.0
 10
17.7713595384
 20
69.7682285364
 30
0.0
 10
17.2191644087
 20
68.527599531
 30
0.0
 10
16.8335688552
 20
67.2762213677
 30
0.0
 10
16.659861102
 20
66.2428179551
 30
0.0
 10
16.6219595005
 20
65.4536385247
 30
0.0
 10
16.6489012959
 20
64.7377555878
 30
0.0
 10
16.768191034
 20
64.0638714066
 30
0.0
 10
16.9933680739
 20
63.4615810394
 30
0.0
 10
17.2034382299
 20
63.0692918365
 30
0.0
 10
17.4573884103
 20
62.7281082432
 30
0.0
 10
17.6571113718
 20
62.534869323
 30
0.0
 10
17.762469959
 20
62.4491927962
 30
0.0
  0
SPLINE
  5
2E3
100
AcDbEntity
  8
0
100
AcDbSpline
 62
7
  6
BYLAYER
 70
0
 71
3
 72
14
 73
10
 74
0
 42
0.0000001
 43
0.0000001
 44
0.0000000001
 40
0.0
 40
0.0
 40
0.0
 40
0.0
 40
0.2891101665
 40
0.4224004037
 40
0.5483987065
 40
0.6678095978
 40
0.7817901269
 40
0.8919097569
 40
1.0
 40
1.0
 40
1.0
 40
1.0
 10
59.546574835
 20
39.4959439281
 30
0.0
 10
59.546574835
 20
39.0733372972
 30
0.0
 10
59.5943476086
 20
38.4527246461
 30
0.0
 10
59.7854181667
 20
37.6727385704
 30
0.0
 10
59.9796755398
 20
37.1528274783
 30
0.0
 10
60.2269978135
 20
36.6874694101
 30
0.0
 10
60.5258211029
 20
36.2814778039
 30
0.0
 10
60.8733155678
 20
35.939349923
 30
0.0
 10
61.1363697384
 20
35.7557644361
 30
0.0
 10
61.2731756316
 20
35.6767175024
 30
0.0
  0
SPLINE
  5
2E4
100
AcDbEntity
  8
0
100
AcDbSpline
 62
7
  6
BYLAYER
 70
0
 71
3
 72
15
 73
11
 74
0
 42
0.0000001
 43
0.0000001
 44
0.0000000001
 40
0.0
 40
0.0
 40
0.0
 40
0.0
 40
0.1080108307
 40
0.2180577897
 40
0.3319987959
 40
0.4513557253
 40
0.5772612549
 40
0.7104926678
 40
0.8514584314
 40
1.0
 40
1.0
 40
1.0
 40
1.0
 10
33.6744716154
 20
70.8281182681
 30
0.0
 10
33.5384362334
 20
70.9066736186
 30
0.0
 10
33.2495843451
 20
71.0419124833
 30
0.0
 10
32.7822247744
 20
71.1711823876
 30
0.0
 10
32.2839919702
 20
71.2266979594
 30
0.0
 10
31.7602299008
 20
71.2085247233
 30
0.0
 10
31.2159506275
 20
71.1172122594
 30
0.0
 10
30.6561458574
 20
70.9540472195
 30
0.0
 10
30.0862833895
 20
70.7207028717
 30
0.0
 10
29.7126545934
 20
70.525173738
 30
0.0
 10
29.5255629626
 20
70.4171569794
 30
0.0
  0
SPLINE
  5
2E5
100
AcDbEntity
  8
0
100
AcDbSpline
 62
7
  6
BYLAYER
 70
0
 71
3
 72
13
 73
9
 74
0
 42
0.0000001
 43
0.0000001
 44
0.0000000001
 40
0.0
 40
0.0
 40
0.0
 40
0.0
 40
0.2860122134
 40
0.5454342084
 40
0.6660112841
 40
0.7812764137
 40
0.8921933775
 40
1.0
 40
1.0
 40
1.0
 40
1.0
 10
28.8746765993
 20
70.7929378952
 30
0.0
 10
29.1981580488
 20
70.9796988823
 30
0.0
 10
29.8416808911
 20
71.2929117741
 30
0.0
 10
30.6851789832
 20
71.5299516939
 30
0.0
 10
31.329741639
 20
71.5980898391
 30
0.0
 10
31.7837870208
 20
71.5909299999
 30
0.0
 10
32.2164803318
 20
71.5264481793
 30
0.0
 10
32.4913606358
 20
71.4444970002
 30
0.0
 10
32.6229124851
 20
71.3943313945
 30
0.0
  0
SPLINE
  5
2E6
100
AcDbEntity
  8
0
100
AcDbSpline
 62
7
  6
BYLAYER
 70
0
 71
3
 72
24
 73
20
 74
0
 42
0.0000001
 43
0.0000001
 44
0.0000000001
 40
0.0
 40
0.0
 40
0.0
 40
0.0
 40
0.0623629721
 40
0.1286957692
 40
0.1982646803
 40
0.2702233267
 40
0.34358256
 40
0.417302296
 40
0.4903207036
 40
0.5616082778
 40
0.6302152398
 40
0.695321149
 40
0.7562946223
 40
0.8127639609
 40
0.8646996541
 40
0.9125071178
 40
0.9571038372
 40
0.9786686878
 40
1.0
 40
1.0
 40
1.0
 40
1.0
 10
53.3685453193
 20
56.774203858
 30
0.0
 10
53.065310781
 20
56.5991323607
 30
0.0
 10
52.4628444206
 20
56.1965221893
 30
0.0
 10
51.6095812066
 20
55.4787160208
 30
0.0
 10
50.7939304495
 20
54.6415068953
 30
0.0
 10
50.0332307243
 20
53.7030077418
 30
0.0
 10
49.3436005339
 20
52.6829392184
 30
0.0
 10
48.7397280954
 20
51.6030834219
 30
0.0
 10
48.2344604305
 20
50.4864301892
 30
0.0
 10
47.8385529384
 20
49.3567459554
 30
0.0
 10
47.5604206952
 20
48.237981629
 30
0.0
 10
47.4060242793
 20
47.1537058245
 30
0.0
 10
47.3788404501
 20
46.1265397372
 30
0.0
 10
47.479912215
 20
45.1776718309
 30
0.0
 10
47.7084339882
 20
44.3264808547
 30
0.0
 10
48.0615199547
 20
43.5911452107
 30
0.0
 10
48.4613722527
 20
43.0832916935
 30
0.0
 10
48.8324214277
 20
42.7597121303
 30
0.0
 10
49.0330761419
 20
42.6250855208
 30
0.0
 10
49.1365945657
 20
42.5648515179
 30
0.0
  0
SPLINE
  5
2E7
100
AcDbEntity
  8
0
100
AcDbSpline
 62
7
  6
BYLAYER
 70
0
 71
3
 72
9
 73
5
 74
0
 42
0.0000001
 43
0.0000001
 44
0.0000000001
 40
0.0
 40
0.0
 40
0.0
 40
0.0
 40
0.2690545034
 40
1.0
 40
1.0
 40
1.0
 40
1.0
 10
66.0470738838
 20
43.6597666884
 30
0.0
 10
66.0470738838
 20
43.6917237981
 30
0.0
 10
66.042582021
 20
43.8103286219
 30
0.0
 10
66.0190511658
 20
43.9291647057
 30
0.0
 10
65.9870857356
 20
44.009884352
 30
0.0
  0
SPLINE
  5
2E8
100
AcDbEntity
  8
0
100
AcDbSpline
 62
7
  6
BYLAYER
 70
0
 71
3
 72
11
 73
7
 74
0
 42
0.0000001
 43
0.0000001
 44
0.0000000001
 40
0.0
 40
0.0
 40
0.0
 40
0.0
 40
0.2461860562
 40
0.5021748367
 40
0.7570381905
 40
1.0
 40
1.0
 40
1.0
 40
1.0
 10
65.3744102442
 20
42.2176274513
 30
0.0
 10
65.454718952
 20
42.2927216349
 30
0.0
 10
65.6052296231
 20
42.4605278979
 30
0.0
 10
65.7914790366
 20
42.7440660238
 30
0.0
 10
65.9342701679
 20
43.0502032203
 30
0.0
 10
65.9969166679
 20
43.2647757961
 30
0.0
 10
66.0176823837
 20
43.3712785621
 30
0.0
  0
SPLINE
  5
2E9
100
AcDbEntity
  8
0
100
AcDbSpline
 62
7
  6
BYLAYER
 70
0
 71
3
 72
9
 73
5
 74
0
 42
0.0000001
 43
0.0000001
 44
0.0000000001
 40
0.0
 40
0.0
 40
0.0
 40
0.0
 40
0.2601939703
 40
1.0
 40
1.0
 40
1.0
 40
1.0
 10
66.0176823837
 20
43.3712785621
 30
0.0
 10
66.0224995707
 20
43.3959848498
 30
0.0
 10
66.0389506038
 20
43.4913134461
 30
0.0
 10
66.0470738838
 20
43.5881968133
 30
0.0
 10
66.0470738838
 20
43.6597666884
 30
0.0
  0
SPLINE
  5
2EA
100
AcDbEntity
  8
0
100
AcDbSpline
 62
7
  6
BYLAYER
 70
0
 71
3
 72
15
 73
11
 74
0
 42
0.0000001
 43
0.0000001
 44
0.0000000001
 40
0.0
 40
0.0
 40
0.0
 40
0.0
 40
0.1141547525
 40
0.2373266147
 40
0.3669766522
 40
0.5000011484
 40
0.6330249448
 40
0.7626762052
 40
0.8858428754
 40
1.0
 40
1.0
 40
1.0
 40
1.0
 10
28.105091447
 20
57.07429277
 30
0.0
 10
28.1050877905
 20
57.5800421079
 30
0.0
 10
28.1977158768
 20
58.6324728624
 30
0.0
 10
28.5669970506
 20
60.2201839769
 30
0.0
 10
29.1585688494
 20
61.8284172224
 30
0.0
 10
29.9503301536
 20
63.3966888446
 30
0.0
 10
30.9125966014
 20
64.8665286344
 30
0.0
 10
32.0095710927
 20
66.1829419432
 30
0.0
 10
33.1998944087
 20
67.2966305418
 30
0.0
 10
34.0650061007
 20
67.9030529033
 30
0.0
 10
34.5030076301
 20
68.1559316948
 30
0.0
  0
SPLINE
  5
2EB
100
AcDbEntity
  8
0
100
AcDbSpline
 62
7
  6
BYLAYER
 70
0
 71
3
 72
15
 73
11
 74
0
 42
0.0000001
 43
0.0000001
 44
0.0000000001
 40
0.0
 40
0.0
 40
0.0
 40
0.0
 40
0.1485413998
 40
0.2895050151
 40
0.4227350847
 40
0.5486406571
 40
0.6679982253
 40
0.7819396738
 40
0.8919876865
 40
1.0
 40
1.0
 40
1.0
 40
1.0
 10
53.3685453193
 20
56.6902122616
 30
0.0
 10
53.5566997809
 20
56.7988426422
 30
0.0
 10
53.9324476676
 20
56.9954829077
 30
0.0
 10
54.5055436426
 20
57.230149627
 30
0.0
 10
55.0685236892
 20
57.3942427535
 30
0.0
 10
55.6158944153
 20
57.486073495
 30
0.0
 10
56.1426340725
 20
57.5043567003
 30
0.0
 10
56.6437005714
 20
57.4485226805
 30
0.0
 10
57.1137213612
 20
57.3185224378
 30
0.0
 10
57.4042169344
 20
57.1825110922
 30
0.0
 10
57.5410271179
 20
57.1035082712
 30
0.0
  0
SPLINE
  5
2EC
100
AcDbEntity
  8
0
100
AcDbSpline
 62
7
  6
BYLAYER
 70
0
 71
3
 72
15
 73
11
 74
0
 42
0.0000001
 43
0.0000001
 44
0.0000000001
 40
0.0
 40
0.0
 40
0.0
 40
0.0
 40
0.1080107381
 40
0.2180611436
 40
0.3320026677
 40
0.451365616
 40
0.5772741407
 40
0.7104970466
 40
0.8514491778
 40
1.0
 40
1.0
 40
1.0
 40
1.0
 10
69.6205931548
 20
50.1295268814
 30
0.0
 10
69.4837793142
 20
50.2084698646
 30
0.0
 10
69.1933197971
 20
50.3444434728
 30
0.0
 10
68.7233266192
 20
50.4742663309
 30
0.0
 10
68.2223284859
 20
50.5300862503
 30
0.0
 10
67.6956599558
 20
50.5116819937
 30
0.0
 10
67.1483783134
 20
50.4198516271
 30
0.0
 10
66.5855189795
 20
50.2557482975
 30
0.0
 10
66.0125217134
 20
50.0211317782
 30
0.0
 10
65.6368426898
 20
49.8245068264
 30
0.0
 10
65.4487054066
 20
49.7158863637
 30
0.0
  0
SPLINE
  5
2ED
100
AcDbEntity
  8
0
100
AcDbSpline
 62
7
  6
BYLAYER
 70
0
 71
3
 72
11
 73
7
 74
0
 42
0.0000001
 43
0.0000001
 44
0.0000000001
 40
0.0
 40
0.0
 40
0.0
 40
0.0
 40
0.2177757074
 40
0.450911621
 40
0.7102761895
 40
1.0
 40
1.0
 40
1.0
 40
1.0
 10
66.8279050391
 20
43.6659243083
 30
0.0
 10
66.8724703098
 20
43.6401904657
 30
0.0
 10
66.9558470823
 20
43.5700792992
 30
0.0
 10
67.044635615
 20
43.4249449572
 30
0.0
 10
67.0973622974
 20
43.2460618493
 30
0.0
 10
67.1077384715
 20
43.1158688607
 30
0.0
 10
67.1077384715
 20
43.0474055566
 30
0.0
  0
SPLINE
  5
2EE
100
AcDbEntity
  8
0
100
AcDbSpline
 62
7
  6
BYLAYER
 70
0
 71
3
 72
15
 73
11
 74
0
 42
0.0000001
 43
0.0000001
 44
0.0000000001
 40
0.0
 40
0.0
 40
0.0
 40
0.0
 40
0.1080127374
 40
0.2180623886
 40
0.3320018128
 40
0.4513627816
 40
0.5772700077
 40
0.7104927397
 40
0.8514462087
 40
1.0
 40
1.0
 40
1.0
 40
1.0
 10
57.4681769947
 20
57.9572351224
 30
0.0
 10
57.3198340227
 20
58.0428788003
 30
0.0
 10
57.0048905441
 20
58.190402014
 30
0.0
 10
56.4952566625
 20
58.3312802227
 30
0.0
 10
55.951989176
 20
58.3918925108
 30
0.0
 10
55.3808744493
 20
58.3719987011
 30
0.0
 10
54.7873983666
 20
58.2724646115
 30
0.0
 10
54.1770238354
 20
58.0945403954
 30
0.0
 10
53.5556517148
 20
57.8401353325
 30
0.0
 10
53.1482570089
 20
57.6269145923
 30
0.0
 10
52.9442365917
 20
57.5091240526
 30
0.0
  0
SPLINE
  5
2EF
100
AcDbEntity
  8
0
100
AcDbSpline
 62
7
  6
BYLAYER
 70
0
 71
3
 72
11
 73
7
 74
0
 42
0.0000001
 43
0.0000001
 44
0.0000000001
 40
0.0
 40
0.0
 40
0.0
 40
0.0
 40
0.2224762652
 40
0.4617767278
 40
0.7207662341
 40
1.0
 40
1.0
 40
1.0
 40
1.0
 10
21.4007751836
 20
74.325717131
 30
0.0
 10
21.2306645839
 20
74.3470894447
 30
0.0
 10
20.8719928925
 20
74.3525625633
 30
0.0
 10
20.322193944
 20
74.2571154403
 30
0.0
 10
19.7535263901
 20
74.0616666727
 30
0.0
 10
19.3819961582
 20
73.8744358468
 30
0.0
 10
19.1956382752
 20
73.7668427151
 30
0.0
  0
SPLINE
  5
2F0
100
AcDbEntity
  8
0
100
AcDbSpline
 62
7
  6
BYLAYER
 70
0
 71
3
 72
23
 73
19
 74
0
 42
0.0000001
 43
0.0000001
 44
0.0000000001
 40
0.0
 40
0.0
 40
0.0
 40
0.0
 40
0.0458508755
 40
0.0951185052
 40
0.1481325783
 40
0.2049393638
 40
0.2653498673
 40
0.3289931802
 40
0.3953569275
 40
0.4638195498
 40
0.5336853064
 40
0.6042103072
 40
0.6746258427
 40
0.7441729064
 40
0.8121169552
 40
0.8777733796
 40
0.9405782604
 40
1.0
 40
1.0
 40
1.0
 40
1.0
 10
48.892474941
 20
43.3923258251
 30
0.0
 10
48.7748347754
 20
43.5879284202
 30
0.0
 10
48.5697946932
 20
44.0179703876
 30
0.0
 10
48.363786482
 20
44.728723126
 30
0.0
 10
48.2511894311
 20
45.514955673
 30
0.0
 10
48.2333605722
 20
46.3639981769
 30
0.0
 10
48.310097605
 20
47.2625863152
 30
0.0
 10
48.4800292025
 20
48.1964672244
 30
0.0
 10
48.7404191708
 20
49.1507312034
 30
0.0
 10
49.0870191834
 20
50.1100661164
 30
0.0
 10
49.5142109651
 20
51.0590277122
 30
0.0
 10
50.0151352857
 20
51.9822671034
 30
0.0
 10
50.5816846987
 20
52.8648731429
 30
0.0
 10
51.2046971345
 20
53.6925937615
 30
0.0
 10
51.8740950123
 20
54.4520445944
 30
0.0
 10
52.5792215805
 20
55.1311048908
 30
0.0
 10
53.3086305986
 20
55.7185515733
 30
0.0
 10
53.8185357338
 20
56.0529582325
 30
0.0
 10
54.0747162732
 20
56.200863253
 30
0.0
  0
SPLINE
  5
2F1
100
AcDbEntity
  8
0
100
AcDbSpline
 62
7
  6
BYLAYER
 70
0
 71
3
 72
15
 73
11
 74
0
 42
0.0000001
 43
0.0000001
 44
0.0000000001
 40
0.0
 40
0.0
 40
0.0
 40
0.0
 40
0.1080108338
 40
0.2180577814
 40
0.33199877
 40
0.4513556832
 40
0.5772612075
 40
0.7104926321
 40
0.8514584191
 40
1.0
 40
1.0
 40
1.0
 40
1.0
 10
58.2471982641
 20
56.6958097829
 30
0.0
 10
58.1103899523
 20
56.7748114774
 30
0.0
 10
57.8198968839
 20
56.9108187702
 30
0.0
 10
57.3498818882
 20
57.0408231229
 30
0.0
 10
56.8488182866
 20
57.0966541383
 30
0.0
 10
56.3220803518
 20
57.0783776661
 30
0.0
 10
55.7747085948
 20
56.9865463988
 30
0.0
 10
55.211723066
 20
56.8224542975
 30
0.0
 10
54.6386226805
 20
56.5877840993
 30
0.0
 10
54.2628709403
 20
56.3911439939
 30
0.0
 10
54.0747162732
 20
56.2825134947
 30
0.0
  0
SPLINE
  5
2F2
100
AcDbEntity
  8
0
100
AcDbSpline
 62
7
  6
BYLAYER
 70
0
 71
3
 72
25
 73
21
 74
0
 42
0.0000001
 43
0.0000001
 44
0.0000000001
 40
0.0
 40
0.0
 40
0.0
 40
0.0
 40
0.0623787446
 40
0.1287240373
 40
0.1983128824
 40
0.270290269
 40
0.3436669005
 40
0.4173986337
 40
0.4904231847
 40
0.5617097966
 40
0.6303070788
 40
0.6953948417
 40
0.75634292
 40
0.812780939
 40
0.8646821354
 40
0.9124572753
 40
0.9351019417
 40
0.9571073388
 40
0.9786679162
 40
1.0
 40
1.0
 40
1.0
 40
1.0
 10
52.9442365917
 20
57.5091240526
 30
0.0
 10
52.6191778999
 20
57.3214524497
 30
0.0
 10
51.9733842172
 20
56.8898561797
 30
0.0
 10
51.0588335545
 20
56.1202566807
 30
0.0
 10
50.184645638
 20
55.2226396077
 30
0.0
 10
49.3694570673
 20
54.216367924
 30
0.0
 10
48.630559079
 20
53.1226879403
 30
0.0
 10
47.9836998822
 20
51.9649842964
 30
0.0
 10
47.4426940989
 20
50.7679279387
 30
0.0
 10
47.0190722223
 20
49.5570335062
 30
0.0
 10
46.7218498131
 20
48.3580162121
 30
0.0
 10
46.5573973509
 20
47.1961661438
 30
0.0
 10
46.5293742856
 20
46.0957833172
 30
0.0
 10
46.639032367
 20
45.0794907635
 30
0.0
 10
46.8851071371
 20
44.1684473935
 30
0.0
 10
47.2079463297
 20
43.5007038155
 30
0.0
 10
47.5304270615
 20
43.0462789495
 30
0.0
 10
47.7978919223
 20
42.7496792004
 30
0.0
 10
48.0936207084
 20
42.4931804319
 30
0.0
 10
48.3091331154
 20
42.3496697303
 30
0.0
 10
48.4202961886
 20
42.2854913313
 30
0.0
  0
SPLINE
  5
2F3
100
AcDbEntity
  8
0
100
AcDbSpline
 62
7
  6
BYLAYER
 70
0
 71
3
 72
24
 73
20
 74
0
 42
0.0000001
 43
0.0000001
 44
0.0000000001
 40
0.0
 40
0.0
 40
0.0
 40
0.0
 40
0.0213340364
 40
0.0428963016
 40
0.0874751168
 40
0.1352546755
 40
0.1871597994
 40
0.2436014435
 40
0.3045536059
 40
0.3696462929
 40
0.4382485964
 40
0.5095398685
 40
0.5825694406
 40
0.6563064437
 40
0.729687415
 40
0.8016701266
 40
0.8712630803
 40
0.937618541
 40
1.0
 40
1.0
 40
1.0
 40
1.0
 10
49.1960635208
 20
42.6492797501
 30
0.0
 10
49.0935406524
 20
42.7084829147
 30
0.0
 10
48.894786944
 20
42.8408993806
 30
0.0
 10
48.5271421767
 20
43.1595190437
 30
0.0
 10
48.1307198091
 20
43.6601889051
 30
0.0
 10
47.7803264879
 20
44.3858460054
 30
0.0
 10
47.5531514905
 20
45.2263050167
 30
0.0
 10
47.4520647977
 20
46.1635753392
 30
0.0
 10
47.4778777202
 20
47.1784824507
 30
0.0
 10
47.6295711544
 20
48.2500592717
 30
0.0
 10
47.9037163764
 20
49.3559180571
 30
0.0
 10
48.2944307727
 20
50.4727289172
 30
0.0
 10
48.7933974699
 20
51.5767809474
 30
0.0
 10
49.3899795426
 20
52.6445434654
 30
0.0
 10
50.0714674222
 20
53.6532502432
 30
0.0
 10
50.823326444
 20
54.5813251384
 30
0.0
 10
51.6296001269
 20
55.4092368852
 30
0.0
 10
52.4731224916
 20
56.1190372014
 30
0.0
 10
53.0687498286
 20
56.5171262875
 30
0.0
 10
53.3685453193
 20
56.6902122616
 30
0.0
  0
SPLINE
  5
2F4
100
AcDbEntity
  8
0
100
AcDbSpline
 62
7
  6
BYLAYER
 70
0
 71
3
 72
11
 73
7
 74
0
 42
0.0000001
 43
0.0000001
 44
0.0000000001
 40
0.0
 40
0.0
 40
0.0
 40
0.0
 40
0.2315437809
 40
0.4770244512
 40
0.7340358031
 40
1.0
 40
1.0
 40
1.0
 40
1.0
 10
19.1956382752
 20
73.7668427151
 30
0.0
 10
18.9962142749
 20
73.6517059021
 30
0.0
 10
18.5995736615
 20
73.3893281708
 30
0.0
 10
18.0346781665
 20
72.9252153633
 30
0.0
 10
17.4912786805
 20
72.3864000927
 30
0.0
 10
17.154388121
 20
71.9892172595
 30
0.0
 10
16.9915367522
 20
71.7807872413
 30
0.0
  0
SPLINE
  5
2F5
100
AcDbEntity
  8
0
100
AcDbSpline
 62
7
  6
BYLAYER
 70
0
 71
3
 72
9
 73
5
 74
0
 42
0.0000001
 43
0.0000001
 44
0.0000000001
 40
0.0
 40
0.0
 40
0.0
 40
0.0
 40
0.518052492
 40
1.0
 40
1.0
 40
1.0
 40
1.0
 10
14.9662743522
 20
66.7755785812
 30
0.0
 10
14.9530624074
 20
66.5530838252
 30
0.0
 10
14.9503543711
 20
66.1218057979
 30
0.0
 10
15.0017415605
 20
65.6930827934
 30
0.0
 10
15.0419742574
 20
65.4896705278
 30
0.0
  0
SPLINE
  5
2F6
100
AcDbEntity
  8
0
100
AcDbSpline
 62
7
  6
BYLAYER
 70
0
 71
3
 72
15
 73
11
 74
0
 42
0.0000001
 43
0.0000001
 44
0.0000000001
 40
0.0
 40
0.0
 40
0.0
 40
0.0
 40
0.1080287981
 40
0.2180656552
 40
0.3319820959
 40
0.451313337
 40
0.5772019146
 40
0.7104321982
 40
0.8514173052
 40
1.0
 40
1.0
 40
1.0
 40
1.0
 10
57.600496073
 20
57.1879365034
 30
0.0
 10
57.4619545441
 20
57.2685493117
 30
0.0
 10
57.1676784984
 20
57.407446194
 30
0.0
 10
56.6912283982
 20
57.5405502678
 30
0.0
 10
56.1831217781
 20
57.5982094984
 30
0.0
 10
55.6488396771
 20
57.5804692997
 30
0.0
 10
55.0935233441
 20
57.4878993989
 30
0.0
 10
54.5222914756
 20
57.3218105318
 30
0.0
 10
53.9407476935
 20
57.0839187061
 30
0.0
 10
53.5594692845
 20
56.8844332027
 30
0.0
 10
53.3685453193
 20
56.774203858
 30
0.0
  0
SPLINE
  5
2F7
100
AcDbEntity
  8
0
100
AcDbSpline
 62
7
  6
BYLAYER
 70
0
 71
3
 72
9
 73
5
 74
0
 42
0.0000001
 43
0.0000001
 44
0.0000000001
 40
0.0
 40
0.0
 40
0.0
 40
0.0
 40
0.2579824962
 40
1.0
 40
1.0
 40
1.0
 40
1.0
 10
18.9384290638
 20
72.9207034126
 30
0.0
 10
19.0027235966
 20
72.9718498117
 30
0.0
 10
19.2552821101
 20
73.1658357662
 30
0.0
 10
19.5213803119
 20
73.342480705
 30
0.0
 10
19.7260241848
 20
73.4606311949
 30
0.0
  0
ELLIPSE
  5
2F8
100
AcDbEntity
  8
0
100
AcDbEllipse
 62
7
  6
BYLAYER
 10
16.9759465879
 20
72.6479452257
 30
0.0
 11
12.3572033779
 21
-0.9525312444
 31
0.0
 40
0.2235026535
 41
-1.2036939019
 42
0.5728366102
  0
ELLIPSE
  5
2F9
100
AcDbEntity
  8
0
100
AcDbEllipse
 62
7
  6
BYLAYER
 10
57.7762048453
 20
57.6638838743
 30
0.0
 11
68.6301285381
 21
-28.3566906603
 31
0.0
 40
0.0442512089
 41
-2.1617819185
 42
-2.1142753312
  0
ELLIPSE
  5
2FA
100
AcDbEntity
  8
0
100
AcDbEllipse
 62
7
  6
BYLAYER
 10
-5.8486491034
 20
84.0646837088
 30
0.0
 11
35.217924512
 21
-14.1645566777
 31
0.0
 40
0.118055378
 41
-0.8338641396
 42
-0.7612419405
  0
ELLIPSE
  5
2FB
100
AcDbEntity
  8
0
100
AcDbEllipse
 62
7
  6
BYLAYER
 10
-5.8486491034
 20
84.0646837088
 30
0.0
 11
35.217924512
 21
-14.1645566777
 31
0.0
 40
0.118055378
 41
6.8598829335
 42
6.9325051326
  0
ELLIPSE
  5
2FC
100
AcDbEntity
  8
0
100
AcDbEllipse
 62
7
  6
BYLAYER
 10
57.7762048453
 20
57.6638838743
 30
0.0
 11
68.6301285381
 21
-28.3566906603
 31
0.0
 40
0.0442512089
 41
8.329452193
 42
8.3769587804
  0
ENDSEC
  0
SECTION
  2
OBJECTS
  0
DICTIONARY
  5
C
100
AcDbDictionary
280
0
281
1
  3
ACAD_GROUP
350
D
  3
ACAD_MLINESTYLE
350
17
  3
ACAD_LAYOUT
350
1A
  3
ACAD_PLOTSETTINGS
350
19
  3
ACAD_PLOTSTYLENAME
350
E
  0
DICTIONARY
  5
D
102
{ACAD_REACTORS
330
C
102
}
100
AcDbDictionary
280
0
281
1
  0
ACDBDICTIONARYWDFLT
  5
E
102
{ACAD_REACTORS
330
C
102
}
100
AcDbDictionary
281
1
  3
Normal
350
F
100
AcDbDictionaryWithDefault
340
F
  0
DICTIONARY
  5
17
102
{ACAD_REACTORS
330
C
102
}
100
AcDbDictionary
280
0
281
1
  3
Standard
350
18
  0
DICTIONARY
  5
19
102
{ACAD_REACTORS
330
C
102
}
100
AcDbDictionary
281
1
  0
DICTIONARY
  5
1A
102
{ACAD_REACTORS
330
C
102
}
100
AcDbDictionary
281
1
  3
Model
350
2FD
  3
Layout1
350
2FE
  0
ACDBPLACEHOLDER
  5
F
102
{ACAD_REACTORS
330
E
102
}
  0
MLINESTYLE
  5
18
102
{ACAD_REACTORS
330
17
102
}
100
AcDbMlineStyle
  2
STANDARD
 70
0
  3

 62
256
 51
90.0
 52
90.0
 71
2
 49
0.5
 62
256
  6
BYLAYER
 49
-0.5
 62
256
  6
BYLAYER
  0
LAYOUT
  5
2FD
102
{ACAD_REACTORS
330
1A
102
}
100
AcDbPlotSettings
  1

  2
none_device
  4

  6

 40
0.0
 41
0.0
 42
0.0
 43
0.0
 44
210.0
 45
297.0
 46
0.0
 47
0.0
 48
0.0
 49
0.0
140
0.0
141
0.0
142
1.0
143
1.0
 70
1024
 72
1
 73
0
 74
0
  7

 75
0
147
1.0
148
0.0
149
0.0
100
AcDbLayout
  1
Model
 70
0
 71
0
 10
0.0
 20
0.0
 11
210.0
 21
297.0
 12
0.0
 22
0.0
 32
0.0
 14
0.0
 24
0.0
 34
0.0
 15
0.0
 25
0.0
 35
0.0
146
0.0
 13
0.0
 23
0.0
 33
0.0
 16
1.0
 26
0.0
 36
0.0
 17
0.0
 27
1.0
 37
0.0
 76
0
330
210
345
0
346
0
  0
LAYOUT
  5
2FE
102
{ACAD_REACTORS
330
1A
102
}
100
AcDbPlotSettings
  1

  2
none_device
  4

  6

 40
0.0
 41
0.0
 42
0.0
 43
0.0
 44
210.0
 45
297.0
 46
0.0
 47
0.0
 48
0.0
 49
0.0
140
0.0
141
0.0
142
1.0
143
1.0
 70
0
 72
1
 73
0
 74
0
  7

 75
0
147
1.0
148
0.0
149
0.0
100
AcDbLayout
  1
Layout1
 70
0
 71
1
 10
0.0
 20
0.0
 11
210.0
 21
297.0
 12
0.0
 22
0.0
 32
0.0
 14
0.0
 24
0.0
 34
0.0
 15
0.0
 25
0.0
 35
0.0
146
0.0
 13
0.0
 23
0.0
 33
0.0
 16
1.0
 26
0.0
 36
0.0
 17
0.0
 27
1.0
 37
0.0
 76
0
330
211
345
0
346
0
  0
ENDSEC
  0
EOF
