999
DXF file: C:\Users\sesa63760\Dev\_Creo\CAD\MCADID0004078_3D-CAD\drw0001_1.dxf
999
Pro/ENGINEER 2019471 by Parametric Technology Corporation
  0
SECTION
  2
HEADER
  9
$ACADVER
  1
AC1024
  9
$DWGCODEPAGE
  3
ANSI_1252
  9
$EXTMAX
 10
47.4960708867
 20
67.1730145397
 30
0.0
  9
$EXTMIN
 10
0.0
 20
0.0
 30
0.0
  9
$LIMMIN
 10
0.0
 20
0.0
  9
$LIMMAX
 10
47.4960708867
 20
67.1730145397
  9
$VIEWCTR
 10
23.7480354433
 20
33.5865072699
  9
$VIEWSIZE
 40
67.1730145397
  9
$CLAYER
  8
0
  9
$LTSCALE
 40
4.3786853922
  9
$CELTYPE
  6
BYLAYER
  9
$DIMSCALE
 40
1.0
  9
$DIMASZ
 40
0.5654294153
  9
$DIMEXO
 40
1.0
  9
$DIMDLI
 40
3.0252735437
  9
$DIMEXE
 40
1.0
  9
$DIMCEN
 40
0.7165121551
  9
$DIMLFAC
 40
1.0
  9
$DIMBLK
  1
_FILLED
  9
$DIMALT
 70
0
  9
$DIMALTF
 40
0.0393700787
  9
$DIMTXT
 40
0.7916011814
  9
$DIMTOL
 70
1
  9
$DIMLIM
 70
0
  9
$DIMTFAC
 40
1.0
  9
$DIMTP
 40
0.01
  9
$DIMTM
 40
0.01
  9
$DIMGAP
 40
0.625
  9
$DIMDSEP
 70
46
  9
$AUNITS
 70
0
  9
$PDMODE
 70
3
  9
$PDSIZE
 40
0.3125
  9
$HANDSEED
  5
297
  9
$TILEMODE
 70
1
  9
$MEASUREMENT
 70
1
  9
$INSUNITS
 70
4
  0
ENDSEC
  0
SECTION
  2
CLASSES
  0
CLASS
  1
ACDBDICTIONARYWDFLT
  2
AcDbDictionaryWithDefault
  3
AutoCAD 2000
 90
0
 91
1
280
0
281
0
  0
CLASS
  1
ACDBPLACEHOLDER
  2
AcDbPlaceHolder
  3
AutoCAD 2000
 90
0
 91
1
280
0
281
0
  0
CLASS
  1
LAYOUT
  2
AcDbLayout
  3
AutoCAD 2000
 90
0
 91
0
280
0
281
0
  0
ENDSEC
  0
SECTION
  2
TABLES
  0
TABLE
  2
VPORT
  5
8
100
AcDbSymbolTable
 70
2
  0
VPORT
  5
1F4
100
AcDbSymbolTableRecord
100
AcDbViewportTableRecord
  2
*ACTIVE
 70
0
 10
0.0
 20
0.0
 11
1.0
 21
1.0
 12
23.7480354433
 22
33.5865072699
 13
0.0
 23
0.0
 14
1.0
 24
1.0
 15
0.0
 25
0.0
 16
0.0
 26
0.0
 36
1.0
 17
0.0
 27
0.0
 37
0.0
 40
67.1730145397
 41
0.7070707071
 42
50.0
 43
0.0
 44
0.0
 50
0.0
 51
0.0
 71
0
 72
100
 73
1
 74
1
 75
0
 76
0
 77
0
 78
0
  0
ENDTAB
  0
TABLE
  2
LTYPE
  5
5
100
AcDbSymbolTable
 70
6
  0
LTYPE
  5
14
100
AcDbSymbolTableRecord
100
AcDbLinetypeTableRecord
  2
BYBLOCK
 70
0
  3

 72
65
 73
0
 40
0.0
  0
LTYPE
  5
15
100
AcDbSymbolTableRecord
100
AcDbLinetypeTableRecord
  2
BYLAYER
 70
0
  3

 72
65
 73
0
 40
0.0
  0
LTYPE
  5
16
100
AcDbSymbolTableRecord
100
AcDbLinetypeTableRecord
  2
CONTINUOUS
 70
64
  3
Solid line
 72
65
 73
0
 40
0.0
  0
LTYPE
  5
1F5
100
AcDbSymbolTableRecord
100
AcDbLinetypeTableRecord
  2
CENTER
 70
64
  3
____ _ ____ _ ____ _ ____ _ ____ _ ____ _ ____
 72
65
 73
4
 40
0.6
 49
0.375
 74
0
 49
-0.075
 74
0
 49
0.075
 74
0
 49
-0.075
 74
0
  0
LTYPE
  5
1F6
100
AcDbSymbolTableRecord
100
AcDbLinetypeTableRecord
  2
HIDDEN
 70
64
  3
- - - - - - - - - - - - - - - - - - - -
 72
65
 73
2
 40
0.2
 49
0.1
 74
0
 49
-0.1
 74
0
  0
LTYPE
  5
1F7
100
AcDbSymbolTableRecord
100
AcDbLinetypeTableRecord
  2
PHANTOM
 70
64
  3
_____ _ _ _____ _ _ _____ _ _ _____
 72
65
 73
6
 40
0.8
 49
0.45
 74
0
 49
-0.05
 74
0
 49
0.1
 74
0
 49
-0.05
 74
0
 49
0.1
 74
0
 49
-0.05
 74
0
  0
LTYPE
  5
1F8
100
AcDbSymbolTableRecord
100
AcDbLinetypeTableRecord
  2
DOT
 70
64
  3
. . . . . . . . . . . . . . . . . . . .
 72
65
 73
2
 40
0.2
 49
0.1
 74
0
 49
-0.1
 74
0
  0
LTYPE
  5
1F9
100
AcDbSymbolTableRecord
100
AcDbLinetypeTableRecord
  2
DASHED
 70
64
  3
- - - - - - - - - - - - - - - - - - - -
 72
65
 73
2
 40
0.2
 49
0.1
 74
0
 49
-0.1
 74
0
  0
ENDTAB
  0
TABLE
  2
LAYER
  5
2
100
AcDbSymbolTable
 70
36
  0
LAYER
  5
10
100
AcDbSymbolTableRecord
100
AcDbLayerTableRecord
  2
0
 70
0
 62
7
  6
CONTINUOUS
370
-3
390
F
  0
LAYER
  5
1FA
100
AcDbSymbolTableRecord
100
AcDbLayerTableRecord
  2
DEFAULT_1
 70
0
 62
7
  6
CENTER
370
-3
390
F
  0
LAYER
  5
1FB
100
AcDbSymbolTableRecord
100
AcDbLayerTableRecord
  2
DEFAULT_2
 70
0
 62
7
  6
HIDDEN
370
-3
390
F
  0
LAYER
  5
1FC
100
AcDbSymbolTableRecord
100
AcDbLayerTableRecord
  2
DEFAULT_3
 70
0
 62
7
  6
PHANTOM
370
-3
390
F
  0
LAYER
  5
1FD
100
AcDbSymbolTableRecord
100
AcDbLayerTableRecord
  2
00_COMPONENTS
 70
0
 62
7
  6
CONTINUOUS
370
-3
390
F
  0
LAYER
  5
1FE
100
AcDbSymbolTableRecord
100
AcDbLayerTableRecord
  2
01_1_DEFAULT_DATUMS
 70
0
 62
7
  6
CONTINUOUS
370
-3
390
F
  0
LAYER
  5
1FF
100
AcDbSymbolTableRecord
100
AcDbLayerTableRecord
  2
01_PLANES
 70
0
 62
7
  6
CONTINUOUS
370
-3
390
F
  0
LAYER
  5
200
100
AcDbSymbolTableRecord
100
AcDbLayerTableRecord
  2
02_COORD_SYS
 70
0
 62
7
  6
CONTINUOUS
370
-3
390
F
  0
LAYER
  5
201
100
AcDbSymbolTableRecord
100
AcDbLayerTableRecord
  2
03_AXES
 70
0
 62
7
  6
CONTINUOUS
370
-3
390
F
  0
LAYER
  5
202
100
AcDbSymbolTableRecord
100
AcDbLayerTableRecord
  2
04_POINTS
 70
0
 62
7
  6
CONTINUOUS
370
-3
390
F
  0
LAYER
  5
203
100
AcDbSymbolTableRecord
100
AcDbLayerTableRecord
  2
05_CURVES
 70
0
 62
7
  6
CONTINUOUS
370
-3
390
F
  0
LAYER
  5
204
100
AcDbSymbolTableRecord
100
AcDbLayerTableRecord
  2
06_SURFS
 70
0
 62
7
  6
CONTINUOUS
370
-3
390
F
  0
LAYER
  5
205
100
AcDbSymbolTableRecord
100
AcDbLayerTableRecord
  2
07_COSMETICS
 70
0
 62
7
  6
CONTINUOUS
370
-3
390
F
  0
LAYER
  5
206
100
AcDbSymbolTableRecord
100
AcDbLayerTableRecord
  2
10_NOTES
 70
0
 62
7
  6
CONTINUOUS
370
-3
390
F
  0
LAYER
  5
207
100
AcDbSymbolTableRecord
100
AcDbLayerTableRecord
  2
11_NOTES_PUB
 70
0
 62
7
  6
CONTINUOUS
370
-3
390
F
  0
LAYER
  5
208
100
AcDbSymbolTableRecord
100
AcDbLayerTableRecord
  2
13_REF_GTOL
 70
0
 62
7
  6
CONTINUOUS
370
-3
390
F
  0
LAYER
  5
209
100
AcDbSymbolTableRecord
100
AcDbLayerTableRecord
  2
16_MISC
 70
0
 62
7
  6
CONTINUOUS
370
-3
390
F
  0
LAYER
  5
20A
100
AcDbSymbolTableRecord
100
AcDbLayerTableRecord
  2
17_NO_PRINT
 70
0
 62
7
  6
CONTINUOUS
370
-3
390
F
  0
LAYER
  5
20B
100
AcDbSymbolTableRecord
100
AcDbLayerTableRecord
  2
18_DATUM_CAMS_JOINTS
 70
0
 62
7
  6
CONTINUOUS
370
-3
390
F
  0
LAYER
  5
20C
100
AcDbSymbolTableRecord
100
AcDbLayerTableRecord
  2
19_DATUM_FUNCTIONAL
 70
0
 62
7
  6
CONTINUOUS
370
-3
390
F
  0
LAYER
  5
20D
100
AcDbSymbolTableRecord
100
AcDbLayerTableRecord
  2
20_DATUM_KINEMATIC_SCHEME
 70
0
 62
7
  6
CONTINUOUS
370
-3
390
F
  0
ENDTAB
  0
TABLE
  2
STYLE
  5
3
100
AcDbSymbolTable
 70
1
  0
STYLE
  5
11
100
AcDbSymbolTableRecord
100
AcDbTextStyleTableRecord
  2
STANDARD
 70
0
 40
0.0
 41
1.0
 50
0.0
 71
0
 42
0.2
  3
ARIAL.TTF
  4

  0
STYLE
  5
20E
100
AcDbSymbolTableRecord
100
AcDbTextStyleTableRecord
  2
TEXTSTYLE_1
 70
0
 40
0.0
 41
0.8
 50
0.0
 71
0
 42
0.2
  3
gdt
  4

  0
ENDTAB
  0
TABLE
  2
VIEW
  5
6
100
AcDbSymbolTable
 70
0
  0
ENDTAB
  0
TABLE
  2
UCS
  5
7
100
AcDbSymbolTable
 70
0
  0
ENDTAB
  0
TABLE
  2
APPID
  5
9
100
AcDbSymbolTable
 70
1
  0
APPID
  5
20F
100
AcDbSymbolTableRecord
100
AcDbRegAppTableRecord
  2
ACAD
 70
0
  0
ENDTAB
  0
TABLE
  2
BLOCK_RECORD
  5
1
100
AcDbSymbolTable
 70
0
  0
BLOCK_RECORD
  5
210
100
AcDbSymbolTableRecord
100
AcDbBlockTableRecord
  2
*Model_Space
  0
BLOCK_RECORD
  5
211
100
AcDbSymbolTableRecord
100
AcDbBlockTableRecord
  2
*Paper_Space
  0
BLOCK_RECORD
  5
212
100
AcDbSymbolTableRecord
100
AcDbBlockTableRecord
  2
_FILLED
  0
ENDTAB
  0
TABLE
  2
DIMSTYLE
  5
A
100
AcDbSymbolTable
 70
1
100
AcDbDimStyleTable
 71
0
  0
DIMSTYLE
105
213
100
AcDbSymbolTableRecord
100
AcDbDimStyleTableRecord
  2
STANDARD
 70
0
  3

  4

 40
1.0
 41
0.5654294153
 42
1.0
 43
0.38
 44
1.0
 45
0.0
 46
0.0
 47
0.01
 48
0.01
140
0.7916011814
141
0.09
142
0.0
143
25.4
144
1.0
145
0.0
146
1.0
147
0.625
 71
1
 72
0
 73
0
 74
0
 75
0
 76
0
 77
1
 78
8
 79
2
170
0
171
1
172
0
173
0
174
0
175
0
176
0
177
0
178
0
270
2
179
2
271
2
272
2
273
2
274
2
275
0
280
0
281
0
282
0
283
1
284
8
285
0
286
0
287
3
288
0
340
11
278
46
341
212
342
212
343
212
344
212
  0
ENDTAB
  0
ENDSEC
  0
SECTION
  2
BLOCKS
  0
BLOCK
  5
20
100
AcDbEntity
  8
0
100
AcDbBlockBegin
  2
*Model_Space
 70
0
 10
0.0
 20
0.0
 30
0.0
  3
*Model_Space
  1

  0
ENDBLK
  5
21
100
AcDbEntity
  8
0
100
AcDbBlockEnd
  0
BLOCK
  5
1C
100
AcDbEntity
  8
0
100
AcDbBlockBegin
  2
*Paper_Space
 70
0
 10
0.0
 20
0.0
 30
0.0
  3
*Paper_Space
  1

  0
ENDBLK
  5
1D
100
AcDbEntity
  8
0
100
AcDbBlockEnd
  0
BLOCK
  5
214
100
AcDbEntity
  8
0
100
AcDbBlockBegin
  2
_FILLED
 70
64
 10
0.0
 20
0.0
  3
_FILLED
  1

  0
SOLID
  5
215
100
AcDbEntity
  8
0
  6
BYBLOCK
 62
0
100
AcDbTrace
 10
0.0
 20
0.0
 11
-1.0
 21
0.25
 12
-1.0
 22
-0.25
 13
-1.0
 23
-0.25
  0
ENDBLK
  5
216
100
AcDbEntity
  8
0
  6
BYBLOCK
 62
0
100
AcDbBlockEnd
  0
ENDSEC
  0
SECTION
  2
ENTITIES
  0
LINE
  5
217
100
AcDbEntity
  8
0
100
AcDbLine
 62
7
  6
BYLAYER
 10
20.4045666962
 20
59.3489481606
 11
19.6660162962
 21
58.8130809753
  0
LINE
  5
218
100
AcDbEntity
  8
0
100
AcDbLine
 62
7
  6
BYLAYER
 10
19.6659513549
 20
6.6081189778
 11
19.0301025838
 21
7.1949899386
  0
LINE
  5
219
100
AcDbEntity
  8
0
100
AcDbLine
 62
7
  6
BYLAYER
 10
19.6659513549
 20
22.1216649032
 11
19.0301025838
 21
22.7085358641
  0
LINE
  5
21A
100
AcDbEntity
  8
0
100
AcDbLine
 62
7
  6
BYLAYER
 10
14.6363852205
 20
55.1191611597
 11
14.6363852205
 21
53.0929114165
  0
LINE
  5
21B
100
AcDbEntity
  8
0
100
AcDbLine
 62
7
  6
BYLAYER
 10
14.6363852205
 20
51.8531514912
 11
14.6363852205
 21
49.826901748
  0
LINE
  5
21C
100
AcDbEntity
  8
0
100
AcDbLine
 62
7
  6
BYLAYER
 10
18.1168927532
 20
9.0320415887
 11
18.1168927532
 21
13.9310560915
  0
LINE
  5
21D
100
AcDbEntity
  8
0
100
AcDbLine
 62
7
  6
BYLAYER
 10
18.1168927532
 20
24.5455875142
 11
18.1168927532
 21
47.2035895544
  0
LINE
  5
21E
100
AcDbEntity
  8
0
100
AcDbLine
 62
7
  6
BYLAYER
 10
18.8668927532
 20
14.7475585086
 11
18.8668927532
 21
16.6970531596
  0
LINE
  5
21F
100
AcDbEntity
  8
0
100
AcDbLine
 62
7
  6
BYLAYER
 10
18.8668927532
 20
17.6053169682
 11
18.8668927532
 21
22.9080718837
  0
LINE
  5
220
100
AcDbEntity
  8
0
100
AcDbLine
 62
7
  6
BYLAYER
 10
21.5766350532
 20
51.1122966979
 11
21.5766350532
 21
49.0860469547
  0
LINE
  5
221
100
AcDbEntity
  8
0
100
AcDbLine
 62
7
  6
BYLAYER
 10
21.5766350532
 20
47.8462870294
 11
21.5766350532
 21
45.8200372862
  0
LINE
  5
222
100
AcDbEntity
  8
0
100
AcDbLine
 62
7
  6
BYLAYER
 10
29.3668927532
 20
14.7475585086
 11
29.3668927532
 21
16.6970783605
  0
LINE
  5
223
100
AcDbEntity
  8
0
100
AcDbLine
 62
7
  6
BYLAYER
 10
29.3668927532
 20
17.6053169682
 11
29.3668927532
 21
22.886312706
  0
LINE
  5
224
100
AcDbEntity
  8
0
100
AcDbLine
 62
7
  6
BYLAYER
 10
30.1168927532
 20
9.0320415887
 11
30.1168927532
 21
13.9310560915
  0
LINE
  5
225
100
AcDbEntity
  8
0
100
AcDbLine
 62
7
  6
BYLAYER
 10
30.1168927532
 20
24.5455875142
 11
30.1168927532
 21
46.950863018
  0
LINE
  5
226
100
AcDbEntity
  8
0
100
AcDbLine
 62
7
  6
BYLAYER
 10
31.0571425859
 20
52.5789397749
 11
31.0571425859
 21
50.5526900317
  0
LINE
  5
227
100
AcDbEntity
  8
0
100
AcDbLine
 62
7
  6
BYLAYER
 10
31.0571425859
 20
49.3129301064
 11
31.0571425859
 21
47.2866803632
  0
LINE
  5
228
100
AcDbEntity
  8
0
100
AcDbLine
 62
7
  6
BYLAYER
 10
33.5974002859
 20
58.0524473137
 11
33.5974002859
 21
56.0261975705
  0
LINE
  5
229
100
AcDbEntity
  8
0
100
AcDbLine
 62
7
  6
BYLAYER
 10
33.5974002859
 20
54.7864376452
 11
33.5974002859
 21
52.760187902
  0
LINE
  5
22A
100
AcDbEntity
  8
0
100
AcDbLine
 62
7
  6
BYLAYER
 10
28.5678341514
 20
22.1216649032
 11
29.2036829226
 21
22.7085358641
  0
LINE
  5
22B
100
AcDbEntity
  8
0
100
AcDbLine
 62
7
  6
BYLAYER
 10
29.2036829226
 20
22.7085358641
 11
28.3595511041
 21
22.0961429871
  0
LINE
  5
22C
100
AcDbEntity
  8
0
100
AcDbLine
 62
7
  6
BYLAYER
 10
27.8292188102
 20
21.5858211358
 11
28.5678341514
 21
22.1216649032
  0
LINE
  5
22D
100
AcDbEntity
  8
0
100
AcDbLine
 62
7
  6
BYLAYER
 10
28.0284761794
 20
56.5663882927
 11
28.0315130968
 21
56.5648798353
  0
LINE
  5
22E
100
AcDbEntity
  8
0
100
AcDbLine
 62
7
  6
BYLAYER
 10
28.0284761794
 20
56.5663882927
 11
28.0313181931
 21
56.5647491302
  0
LINE
  5
22F
100
AcDbEntity
  8
0
100
AcDbLine
 62
7
  6
BYLAYER
 10
28.5678341514
 20
6.6081189778
 11
29.2036829226
 21
7.1949899386
  0
LINE
  5
230
100
AcDbEntity
  8
0
100
AcDbLine
 62
7
  6
BYLAYER
 10
29.2036829226
 20
7.1949899386
 11
28.3595511041
 21
6.5825970616
  0
LINE
  5
231
100
AcDbEntity
  8
0
100
AcDbLine
 62
7
  6
BYLAYER
 10
28.567774951
 20
6.6081403244
 11
27.8292188102
 21
6.0722752104
  0
ARC
  5
232
100
AcDbEntity
  8
0
100
AcDbCircle
 62
7
  6
BYLAYER
 10
62.693086853
 20
36.223728177
 40
50.5343986303
100
AcDbArc
 50
160.8180952831
 51
161.9839823981
  0
ARC
  5
233
100
AcDbEntity
  8
0
100
AcDbCircle
 62
7
  6
BYLAYER
 10
11.3530977345
 20
30.3632634411
 40
33.0348366758
100
AcDbArc
 50
47.6731583605
 51
48.4337673661
  0
ARC
  5
234
100
AcDbEntity
  8
0
100
AcDbCircle
 62
7
  6
BYLAYER
 10
24.1167482
 20
47.0281929337
 40
10.3755307109
100
AcDbArc
 50
86.2664451977
 51
90.5113608789
  0
ARC
  5
235
100
AcDbEntity
  8
0
100
AcDbCircle
 62
7
  6
BYLAYER
 10
24.1118132086
 20
47.1583199899
 40
10.2453654883
100
AcDbArc
 50
90.4902584674
 51
96.2019494567
  0
ARC
  5
236
100
AcDbEntity
  8
0
100
AcDbCircle
 62
7
  6
BYLAYER
 10
24.1371521977
 20
47.3386320678
 40
10.0644217957
100
AcDbArc
 50
81.0673258748
 51
86.2672758821
  0
ARC
  5
237
100
AcDbEntity
  8
0
100
AcDbCircle
 62
7
  6
BYLAYER
 10
24.2471293957
 20
48.0625135588
 40
9.3322440993
100
AcDbArc
 50
75.9178234622
 51
81.0442628502
  0
ARC
  5
238
100
AcDbEntity
  8
0
100
AcDbCircle
 62
7
  6
BYLAYER
 10
23.8083745894
 20
48.8156040626
 40
8.5584715589
100
AcDbArc
 50
102.8836879822
 51
106.9263141011
  0
ARC
  5
239
100
AcDbEntity
  8
0
100
AcDbCircle
 62
7
  6
BYLAYER
 10
25.2133727028
 20
50.8949189058
 40
6.33169587
100
AcDbArc
 50
63.6019321221
 51
63.9897183363
  0
ARC
  5
23A
100
AcDbEntity
  8
0
100
AcDbCircle
 62
7
  6
BYLAYER
 10
25.2435730632
 20
50.9557846405
 40
6.2637495587
100
AcDbArc
 50
63.3015533988
 51
63.5708238297
  0
ARC
  5
23B
100
AcDbEntity
  8
0
100
AcDbCircle
 62
7
  6
BYLAYER
 10
22.9508710458
 20
51.033921306
 40
6.1762628385
100
AcDbArc
 50
116.1636826875
 51
117.8276579431
  0
ARC
  5
23C
100
AcDbEntity
  8
0
100
AcDbCircle
 62
7
  6
BYLAYER
 10
25.3658077099
 20
51.1957459971
 40
5.9944527979
100
AcDbArc
 50
59.9724339668
 51
63.3148300355
  0
ARC
  5
23D
100
AcDbEntity
  8
0
100
AcDbCircle
 62
7
  6
BYLAYER
 10
28.8668927531
 20
17.1970771776
 40
0.5
100
AcDbArc
 50
332.6311263144
 51
4.3518867626
  0
ARC
  5
23E
100
AcDbEntity
  8
0
100
AcDbCircle
 62
7
  6
BYLAYER
 10
19.3668927532
 20
17.1970543424
 40
0.5
100
AcDbArc
 50
175.6433565318
 51
207.369232399
  0
ARC
  5
23F
100
AcDbEntity
  8
0
100
AcDbCircle
 62
7
  6
BYLAYER
 10
24.1169125293
 20
14.4546911866
 40
0.5
100
AcDbArc
 50
196.5182972524
 51
342.3181201789
  0
ARC
  5
240
100
AcDbEntity
  8
0
100
AcDbCircle
 62
7
  6
BYLAYER
 10
24.1997859411
 20
14.500965002
 40
0.4305576406
100
AcDbArc
 50
314.1961110091
 51
319.12743129
  0
ARC
  5
241
100
AcDbEntity
  8
0
100
AcDbCircle
 62
7
  6
BYLAYER
 10
24.0318169722
 20
14.4988675895
 40
0.4275061306
100
AcDbArc
 50
220.855369345
 51
225.8216239719
  0
ARC
  5
242
100
AcDbEntity
  8
0
100
AcDbCircle
 62
7
  6
BYLAYER
 10
24.0152776648
 20
14.13420303
 40
0.4130023743
100
AcDbArc
 50
132.261393541
 51
137.5354260841
  0
ARC
  5
243
100
AcDbEntity
  8
0
100
AcDbCircle
 62
7
  6
BYLAYER
 10
24.2212430627
 20
14.1368699693
 40
0.4092193731
100
AcDbArc
 50
42.4561982206
 51
47.6651921097
  0
SPLINE
  5
244
100
AcDbEntity
  8
0
100
AcDbSpline
 62
7
  6
BYLAYER
 70
0
 71
3
 72
11
 73
7
 74
0
 42
0.0000001
 43
0.0000001
 44
0.0000000001
 40
0.0
 40
0.0
 40
0.0
 40
0.0
 40
0.25169685
 40
0.5026626495
 40
0.7523296886
 40
1.0
 40
1.0
 40
1.0
 40
1.0
 10
31.0571425859
 20
47.2866803632
 30
0.0
 10
30.6721822179
 20
47.133189021
 30
0.0
 10
29.8974048124
 20
46.841260304
 30
0.0
 10
28.7180410769
 20
46.460454905
 30
0.0
 10
27.5250084004
 20
46.1495698864
 30
0.0
 10
26.719897185
 20
45.9958246201
 30
0.0
 10
26.3168888196
 20
45.933478862
 30
0.0
  0
SPLINE
  5
245
100
AcDbEntity
  8
0
100
AcDbSpline
 62
7
  6
BYLAYER
 70
0
 71
3
 72
11
 73
7
 74
0
 42
0.0000001
 43
0.0000001
 44
0.0000000001
 40
0.0
 40
0.0
 40
0.0
 40
0.0
 40
0.2936016986
 40
0.5559374547
 40
0.7899377057
 40
1.0
 40
1.0
 40
1.0
 40
1.0
 10
32.3272714359
 20
49.40355417
 30
0.0
 10
32.2253254189
 20
49.1838905144
 30
0.0
 10
32.0230056441
 20
48.7721260248
 30
0.0
 10
31.7029771441
 20
48.2041417576
 30
0.0
 10
31.3854195813
 20
47.7151624041
 30
0.0
 10
31.1656963777
 20
47.4217214274
 30
0.0
 10
31.0571425859
 20
47.2866803632
 30
0.0
  0
SPLINE
  5
246
100
AcDbEntity
  8
0
100
AcDbSpline
 62
7
  6
BYLAYER
 70
0
 71
3
 72
11
 73
7
 74
0
 42
0.0000001
 43
0.0000001
 44
0.0000000001
 40
0.0
 40
0.0
 40
0.0
 40
0.0
 40
0.2727720738
 40
0.5326331127
 40
0.7761317916
 40
1.0
 40
1.0
 40
1.0
 40
1.0
 10
33.5974002859
 20
52.760187902
 30
0.0
 10
33.49614393
 20
52.4497956681
 30
0.0
 10
33.2937464783
 20
51.8452070136
 30
0.0
 10
32.9800671529
 20
50.9706870149
 30
0.0
 10
32.663109466
 20
50.1598545901
 30
0.0
 10
32.440073672
 20
49.646609782
 30
0.0
 10
32.3272714359
 20
49.40355417
 30
0.0
  0
SPLINE
  5
247
100
AcDbEntity
  8
0
100
AcDbSpline
 62
7
  6
BYLAYER
 70
0
 71
3
 72
12
 73
8
 74
0
 42
0.0000001
 43
0.0000001
 44
0.0000000001
 40
0.0
 40
0.0
 40
0.0
 40
0.0
 40
0.2359053548
 40
0.480141844
 40
0.6059504969
 40
0.7344642466
 40
1.0
 40
1.0
 40
1.0
 40
1.0
 10
21.5766350532
 20
45.8200372862
 30
0.0
 10
21.2902929015
 20
45.8899055959
 30
0.0
 10
20.711457889
 20
46.0491242737
 30
0.0
 10
19.9960818907
 20
46.2990027094
 30
0.0
 10
19.42007059
 20
46.5364740219
 30
0.0
 10
18.8293271292
 20
46.8067534669
 30
0.0
 10
18.393827403
 20
47.0377106062
 30
0.0
 10
18.1065101369
 20
47.2035895544
 30
0.0
  0
SPLINE
  5
248
100
AcDbEntity
  8
0
100
AcDbSpline
 62
7
  6
BYLAYER
 70
0
 71
3
 72
13
 73
9
 74
0
 42
0.0000001
 43
0.0000001
 44
0.0000000001
 40
0.0
 40
0.0
 40
0.0
 40
0.0
 40
0.1277130851
 40
0.254682184
 40
0.3808516675
 40
0.5062128281
 40
0.7545510597
 40
1.0
 40
1.0
 40
1.0
 40
1.0
 10
26.3168888196
 20
45.933478862
 30
0.0
 10
26.116918759
 20
45.9025433131
 30
0.0
 10
25.717034539
 20
45.8477818355
 30
0.0
 10
25.1165785996
 20
45.78687218
 30
0.0
 10
24.5180959188
 20
45.7469192309
 30
0.0
 10
23.7264293366
 20
45.7203067788
 30
0.0
 10
22.7449275741
 20
45.7330532076
 30
0.0
 10
21.9639826938
 20
45.7854401506
 30
0.0
 10
21.5766350532
 20
45.8200372862
 30
0.0
  0
SPLINE
  5
249
100
AcDbEntity
  8
0
100
AcDbSpline
 62
7
  6
BYLAYER
 70
0
 71
3
 72
11
 73
7
 74
0
 42
0.0000001
 43
0.0000001
 44
0.0000000001
 40
0.0
 40
0.0
 40
0.0
 40
0.0
 40
0.2381644744
 40
0.4852570595
 40
0.7397461291
 40
1.0
 40
1.0
 40
1.0
 40
1.0
 10
18.1065101369
 20
47.2035895544
 30
0.0
 10
17.8068868483
 20
47.3765732273
 30
0.0
 10
17.2094409596
 20
47.7519818872
 30
0.0
 10
16.3382077812
 20
48.3820522245
 30
0.0
 10
15.4770439068
 20
49.077824363
 30
0.0
 10
14.9159082148
 20
49.5723481134
 30
0.0
 10
14.6363852205
 20
49.826901748
 30
0.0
  0
SPLINE
  5
24A
100
AcDbEntity
  8
0
100
AcDbSpline
 62
7
  6
BYLAYER
 70
0
 71
3
 72
11
 73
7
 74
0
 42
0.0000001
 43
0.0000001
 44
0.0000000001
 40
0.0
 40
0.0
 40
0.0
 40
0.0
 40
0.25169685
 40
0.5026626495
 40
0.7523296886
 40
1.0
 40
1.0
 40
1.0
 40
1.0
 10
21.5766350532
 20
47.8462870294
 30
0.0
 10
21.9615954212
 20
47.9997783716
 30
0.0
 10
22.7363728267
 20
48.2917070886
 30
0.0
 10
23.9157365622
 20
48.6725124876
 30
0.0
 10
25.1087692387
 20
48.9833975062
 30
0.0
 10
25.9138804541
 20
49.1371427725
 30
0.0
 10
26.3168888196
 20
49.1994885306
 30
0.0
  0
SPLINE
  5
24B
100
AcDbEntity
  8
0
100
AcDbSpline
 62
7
  6
BYLAYER
 70
0
 71
3
 72
11
 73
7
 74
0
 42
0.0000001
 43
0.0000001
 44
0.0000000001
 40
0.0
 40
0.0
 40
0.0
 40
0.0
 40
0.2381644744
 40
0.4852570595
 40
0.7397461291
 40
1.0
 40
1.0
 40
1.0
 40
1.0
 10
18.1065101369
 20
50.4695992229
 30
0.0
 10
18.4061334254
 20
50.2966155501
 30
0.0
 10
19.0035793141
 20
49.9212068902
 30
0.0
 10
19.8748124925
 20
49.2911365528
 30
0.0
 10
20.7359763669
 20
48.5953644144
 30
0.0
 10
21.297112059
 20
48.100840664
 30
0.0
 10
21.5766350532
 20
47.8462870294
 30
0.0
  0
SPLINE
  5
24C
100
AcDbEntity
  8
0
100
AcDbSpline
 62
7
  6
BYLAYER
 70
0
 71
3
 72
12
 73
8
 74
0
 42
0.0000001
 43
0.0000001
 44
0.0000000001
 40
0.0
 40
0.0
 40
0.0
 40
0.0
 40
0.2359053548
 40
0.480141844
 40
0.6059504969
 40
0.7344642466
 40
1.0
 40
1.0
 40
1.0
 40
1.0
 10
14.6363852205
 20
51.8531514912
 30
0.0
 10
14.9227273723
 20
51.7832831815
 30
0.0
 10
15.5015623847
 20
51.6240645037
 30
0.0
 10
16.216938383
 20
51.374186068
 30
0.0
 10
16.7929496837
 20
51.1367147554
 30
0.0
 10
17.3836931446
 20
50.8664353104
 30
0.0
 10
17.8191928708
 20
50.6354781712
 30
0.0
 10
18.1065101369
 20
50.4695992229
 30
0.0
  0
SPLINE
  5
24D
100
AcDbEntity
  8
0
100
AcDbSpline
 62
7
  6
BYLAYER
 70
0
 71
3
 72
9
 73
5
 74
0
 42
0.0000001
 43
0.0000001
 44
0.0000000001
 40
0.0
 40
0.0
 40
0.0
 40
0.0
 40
0.4893196917
 40
1.0
 40
1.0
 40
1.0
 40
1.0
 10
20.2275280476
 20
56.5773521538
 30
0.0
 10
20.3988529037
 20
56.6615583736
 30
0.0
 10
20.7568334912
 20
56.817974968
 30
0.0
 10
21.1260618778
 20
56.9452604526
 30
0.0
 10
21.3166475161
 20
57.0033224027
 30
0.0
  0
SPLINE
  5
24E
100
AcDbEntity
  8
0
100
AcDbSpline
 62
7
  6
BYLAYER
 70
0
 71
3
 72
9
 73
5
 74
0
 42
0.0000001
 43
0.0000001
 44
0.0000000001
 40
0.0
 40
0.0
 40
0.0
 40
0.0
 40
0.2464889376
 40
1.0
 40
1.0
 40
1.0
 40
1.0
 10
21.9000699852
 20
57.1586136492
 30
0.0
 10
21.9898126236
 20
57.1792163927
 30
0.0
 10
22.3551632619
 20
57.257212368
 30
0.0
 10
22.7251494507
 20
57.3132562106
 30
0.0
 10
23.0049737837
 20
57.3437223126
 30
0.0
  0
SPLINE
  5
24F
100
AcDbEntity
  8
0
100
AcDbSpline
 62
7
  6
BYLAYER
 70
0
 71
3
 72
9
 73
5
 74
0
 42
0.0000001
 43
0.0000001
 44
0.0000000001
 40
0.0
 40
0.0
 40
0.0
 40
0.0
 40
0.2543809522
 40
1.0
 40
1.0
 40
1.0
 40
1.0
 10
26.5177884485
 20
57.1143027408
 30
0.0
 10
26.5848651661
 20
57.097393655
 30
0.0
 10
26.8477494448
 20
57.0277998993
 30
0.0
 10
27.1073384057
 20
56.9456130311
 30
0.0
 10
27.298050774
 20
56.8767619592
 30
0.0
  0
SPLINE
  5
250
100
AcDbEntity
  8
0
100
AcDbSpline
 62
7
  6
BYLAYER
 70
0
 71
3
 72
9
 73
5
 74
0
 42
0.0000001
 43
0.0000001
 44
0.0000000001
 40
0.0
 40
0.0
 40
0.0
 40
0.0
 40
0.2555033052
 40
1.0
 40
1.0
 40
1.0
 40
1.0
 10
27.298050774
 20
56.8767619592
 30
0.0
 10
27.3582151898
 20
56.8550413725
 30
0.0
 10
27.5925999012
 20
56.7670607358
 30
0.0
 10
27.8225206455
 20
56.6670480578
 30
0.0
 10
27.9900266617
 20
56.585311281
 30
0.0
  0
SPLINE
  5
251
100
AcDbEntity
  8
0
100
AcDbSpline
 62
7
  6
BYLAYER
 70
0
 71
3
 72
13
 73
9
 74
0
 42
0.0000001
 43
0.0000001
 44
0.0000000001
 40
0.0
 40
0.0
 40
0.0
 40
0.0
 40
0.1277130851
 40
0.254682184
 40
0.3808516675
 40
0.5062128281
 40
0.7545510597
 40
1.0
 40
1.0
 40
1.0
 40
1.0
 10
26.3168888196
 20
49.1994885306
 30
0.0
 10
26.5168588802
 20
49.2304240795
 30
0.0
 10
26.9167431001
 20
49.2851855571
 30
0.0
 10
27.5171990395
 20
49.3460952126
 30
0.0
 10
28.1156817204
 20
49.3860481617
 30
0.0
 10
28.9073483025
 20
49.4126606138
 30
0.0
 10
29.8888500651
 20
49.399914185
 30
0.0
 10
30.6697949454
 20
49.347527242
 30
0.0
 10
31.0571425859
 20
49.3129301064
 30
0.0
  0
SPLINE
  5
252
100
AcDbEntity
  8
0
100
AcDbSpline
 62
7
  6
BYLAYER
 70
0
 71
3
 72
11
 73
7
 74
0
 42
0.0000001
 43
0.0000001
 44
0.0000000001
 40
0.0
 40
0.0
 40
0.0
 40
0.0
 40
0.2727720738
 40
0.5326331127
 40
0.7761317916
 40
1.0
 40
1.0
 40
1.0
 40
1.0
 10
31.0571425859
 20
49.3129301064
 30
0.0
 10
31.1583989418
 20
49.6233223403
 30
0.0
 10
31.3607963935
 20
50.2279109948
 30
0.0
 10
31.6744757188
 20
51.1024309935
 30
0.0
 10
31.9914334057
 20
51.9132634184
 30
0.0
 10
32.2144691997
 20
52.4265082264
 30
0.0
 10
32.3272714359
 20
52.6695638385
 30
0.0
  0
SPLINE
  5
253
100
AcDbEntity
  8
0
100
AcDbSpline
 62
7
  6
BYLAYER
 70
0
 71
3
 72
11
 73
7
 74
0
 42
0.0000001
 43
0.0000001
 44
0.0000000001
 40
0.0
 40
0.0
 40
0.0
 40
0.0
 40
0.2936016986
 40
0.5559374547
 40
0.7899377057
 40
1.0
 40
1.0
 40
1.0
 40
1.0
 10
32.3272714359
 20
52.6695638385
 30
0.0
 10
32.4292174528
 20
52.889227494
 30
0.0
 10
32.6315372277
 20
53.3009919836
 30
0.0
 10
32.9515657277
 20
53.8689762508
 30
0.0
 10
33.2691232905
 20
54.3579556043
 30
0.0
 10
33.4888464941
 20
54.651396581
 30
0.0
 10
33.5974002859
 20
54.7864376452
 30
0.0
  0
SPLINE
  5
254
100
AcDbEntity
  8
0
100
AcDbSpline
 62
7
  6
BYLAYER
 70
0
 71
3
 72
11
 73
7
 74
0
 42
0.0000001
 43
0.0000001
 44
0.0000000001
 40
0.0
 40
0.0
 40
0.0
 40
0.0
 40
0.2602539388
 40
0.5147430699
 40
0.7618356451
 40
1.0
 40
1.0
 40
1.0
 40
1.0
 10
33.5974002859
 20
58.0524473137
 30
0.0
 10
33.3178772192
 20
58.3070010142
 30
0.0
 10
32.7567412186
 20
58.8015246949
 30
0.0
 10
31.8955773367
 20
59.4972970886
 30
0.0
 10
31.0243442562
 20
60.1273673978
 30
0.0
 10
30.426898507
 20
60.5027759216
 30
0.0
 10
30.1272753695
 20
60.6757595073
 30
0.0
  0
SPLINE
  5
255
100
AcDbEntity
  8
0
100
AcDbSpline
 62
7
  6
BYLAYER
 70
0
 71
3
 72
11
 73
7
 74
0
 42
0.0000001
 43
0.0000001
 44
0.0000000001
 40
0.0
 40
0.0
 40
0.0
 40
0.0
 40
0.25169685
 40
0.5026626495
 40
0.7523296886
 40
1.0
 40
1.0
 40
1.0
 40
1.0
 10
31.0571425859
 20
50.5526900317
 30
0.0
 10
30.6721822179
 20
50.3991986895
 30
0.0
 10
29.8974048124
 20
50.1072699725
 30
0.0
 10
28.7180410769
 20
49.7264645735
 30
0.0
 10
27.5250084004
 20
49.4155795549
 30
0.0
 10
26.719897185
 20
49.2618342886
 30
0.0
 10
26.3168888196
 20
49.1994885306
 30
0.0
  0
SPLINE
  5
256
100
AcDbEntity
  8
0
100
AcDbSpline
 62
7
  6
BYLAYER
 70
0
 71
3
 72
11
 73
7
 74
0
 42
0.0000001
 43
0.0000001
 44
0.0000000001
 40
0.0
 40
0.0
 40
0.0
 40
0.0
 40
0.2936016986
 40
0.5559374547
 40
0.7899377057
 40
1.0
 40
1.0
 40
1.0
 40
1.0
 10
32.3272714359
 20
52.6695638385
 30
0.0
 10
32.2253254189
 20
52.4499001829
 30
0.0
 10
32.0230056441
 20
52.0381356933
 30
0.0
 10
31.7029771441
 20
51.4701514261
 30
0.0
 10
31.3854195813
 20
50.9811720727
 30
0.0
 10
31.1656963777
 20
50.6877310959
 30
0.0
 10
31.0571425859
 20
50.5526900317
 30
0.0
  0
SPLINE
  5
257
100
AcDbEntity
  8
0
100
AcDbSpline
 62
7
  6
BYLAYER
 70
0
 71
3
 72
11
 73
7
 74
0
 42
0.0000001
 43
0.0000001
 44
0.0000000001
 40
0.0
 40
0.0
 40
0.0
 40
0.0
 40
0.2727720738
 40
0.5326331127
 40
0.7761317916
 40
1.0
 40
1.0
 40
1.0
 40
1.0
 10
33.5974002859
 20
56.0261975705
 30
0.0
 10
33.49614393
 20
55.7158053366
 30
0.0
 10
33.2937464783
 20
55.1112166821
 30
0.0
 10
32.9800671529
 20
54.2366966834
 30
0.0
 10
32.663109466
 20
53.4258642586
 30
0.0
 10
32.440073672
 20
52.9126194505
 30
0.0
 10
32.3272714359
 20
52.6695638385
 30
0.0
  0
SPLINE
  5
258
100
AcDbEntity
  8
0
100
AcDbSpline
 62
7
  6
BYLAYER
 70
0
 71
3
 72
12
 73
8
 74
0
 42
0.0000001
 43
0.0000001
 44
0.0000000001
 40
0.0
 40
0.0
 40
0.0
 40
0.0
 40
0.2655358782
 40
0.3940496258
 40
0.5198583006
 40
0.7640947513
 40
1.0
 40
1.0
 40
1.0
 40
1.0
 10
30.1272753695
 20
60.6757595073
 30
0.0
 10
29.8399579677
 20
60.8416385339
 30
0.0
 10
29.4044581706
 20
61.0725958977
 30
0.0
 10
28.8137143368
 20
61.3428749555
 30
0.0
 10
28.2377032669
 20
61.5803467543
 30
0.0
 10
27.5223273822
 20
61.8302251295
 30
0.0
 10
26.9434924768
 20
61.9894434971
 30
0.0
 10
26.6571504531
 20
62.0593117755
 30
0.0
  0
SPLINE
  5
259
100
AcDbEntity
  8
0
100
AcDbSpline
 62
7
  6
BYLAYER
 70
0
 71
3
 72
13
 73
9
 74
0
 42
0.0000001
 43
0.0000001
 44
0.0000000001
 40
0.0
 40
0.0
 40
0.0
 40
0.0
 40
0.2454490317
 40
0.4937873104
 40
0.6191484726
 40
0.7453179387
 40
0.8722869506
 40
1.0
 40
1.0
 40
1.0
 40
1.0
 10
26.6571504531
 20
62.0593117755
 30
0.0
 10
26.2698026689
 20
62.093908924
 30
0.0
 10
25.488857546
 20
62.1462956135
 30
0.0
 10
24.5073555848
 20
62.1590419888
 30
0.0
 10
23.7156889262
 20
62.1324301481
 30
0.0
 10
23.1172064392
 20
62.092476732
 30
0.0
 10
22.5167507007
 20
62.0315673391
 30
0.0
 10
22.1168666913
 20
61.9768057399
 30
0.0
 10
21.9168966868
 20
61.9458701997
 30
0.0
  0
SPLINE
  5
25A
100
AcDbEntity
  8
0
100
AcDbSpline
 62
7
  6
BYLAYER
 70
0
 71
3
 72
11
 73
7
 74
0
 42
0.0000001
 43
0.0000001
 44
0.0000000001
 40
0.0
 40
0.0
 40
0.0
 40
0.0
 40
0.2238683258
 40
0.4673670085
 40
0.7272279746
 40
1.0
 40
1.0
 40
1.0
 40
1.0
 10
15.9065140705
 20
58.4757948918
 30
0.0
 10
15.7937117752
 20
58.2327391522
 30
0.0
 10
15.5706759415
 20
57.7194942026
 30
0.0
 10
15.2537182157
 20
56.9086617316
 30
0.0
 10
14.9400388616
 20
56.0341418906
 30
0.0
 10
14.7376415585
 20
55.4295533388
 30
0.0
 10
14.6363852205
 20
55.1191611597
 30
0.0
  0
SPLINE
  5
25B
100
AcDbEntity
  8
0
100
AcDbSpline
 62
7
  6
BYLAYER
 70
0
 71
3
 72
11
 73
7
 74
0
 42
0.0000001
 43
0.0000001
 44
0.0000000001
 40
0.0
 40
0.0
 40
0.0
 40
0.0
 40
0.2100624446
 40
0.4440627095
 40
0.7063984317
 40
1.0
 40
1.0
 40
1.0
 40
1.0
 10
17.1766429205
 20
60.5926686985
 30
0.0
 10
17.0680890515
 20
60.4576275382
 30
0.0
 10
16.8483659337
 20
60.1641863305
 30
0.0
 10
16.5308081771
 20
59.6752069857
 30
0.0
 10
16.2107797413
 20
59.1072228209
 30
0.0
 10
16.0084600418
 20
58.695458449
 30
0.0
 10
15.9065140705
 20
58.4757948918
 30
0.0
  0
SPLINE
  5
25C
100
AcDbEntity
  8
0
100
AcDbSpline
 62
7
  6
BYLAYER
 70
0
 71
3
 72
11
 73
7
 74
0
 42
0.0000001
 43
0.0000001
 44
0.0000000001
 40
0.0
 40
0.0
 40
0.0
 40
0.0
 40
0.2476704327
 40
0.4973374858
 40
0.7483032319
 40
1.0
 40
1.0
 40
1.0
 40
1.0
 10
21.9168966868
 20
61.9458701997
 30
0.0
 10
21.5138881228
 20
61.8835244109
 30
0.0
 10
20.7087766938
 20
61.7297790568
 30
0.0
 10
19.515743882
 20
61.4188940379
 30
0.0
 10
18.3363802516
 20
61.0380889302
 30
0.0
 10
17.5616031642
 20
60.7461599912
 30
0.0
 10
17.1766429205
 20
60.5926686985
 30
0.0
  0
SPLINE
  5
25D
100
AcDbEntity
  8
0
100
AcDbSpline
 62
7
  6
BYLAYER
 70
0
 71
3
 72
23
 73
19
 74
0
 42
0.0000001
 43
0.0000001
 44
0.0000000001
 40
0.0
 40
0.0
 40
0.0
 40
0.0
 40
0.0558295893
 40
0.1141828812
 40
0.1747835066
 40
0.2373534946
 40
0.3015497145
 40
0.3669933055
 40
0.433283751
 40
0.5000016161
 40
0.5667194913
 40
0.6330097023
 40
0.6984535153
 40
0.7626488055
 40
0.8252185807
 40
0.8858220331
 40
0.9441625324
 40
1.0
 40
1.0
 40
1.0
 40
1.0
 10
28.3595511041
 20
54.7562396722
 30
0.0
 10
28.2174269249
 20
54.6741847289
 30
0.0
 10
27.9193528368
 20
54.5189414886
 30
0.0
 10
27.4463553161
 20
54.3172329489
 30
0.0
 10
26.9414899081
 20
54.1432114952
 30
0.0
 10
26.4096775241
 20
53.9985350297
 30
0.0
 10
25.8559387506
 20
53.8845356562
 30
0.0
 10
25.2855652164
 20
53.8023240174
 30
0.0
 10
24.7040115036
 20
53.7526921637
 30
0.0
 10
24.1168389681
 20
53.7360903826
 30
0.0
 10
23.5296666068
 20
53.7526905491
 30
0.0
 10
22.9481148576
 20
53.802345412
 30
0.0
 10
22.3777443785
 20
53.884555289
 30
0.0
 10
21.8240070508
 20
53.9985505105
 30
0.0
 10
21.292196083
 20
54.1432523105
 30
0.0
 10
20.7873624789
 20
54.3172708829
 30
0.0
 10
20.3143608412
 20
54.5189560367
 30
0.0
 10
20.0163125174
 20
54.6742182495
 30
0.0
 10
19.8741694775
 20
54.7562868414
 30
0.0
  0
SPLINE
  5
25E
100
AcDbEntity
  8
0
100
AcDbSpline
 62
7
  6
BYLAYER
 70
0
 71
3
 72
12
 73
8
 74
0
 42
0.0000001
 43
0.0000001
 44
0.0000000001
 40
0.0
 40
0.0
 40
0.0
 40
0.0
 40
0.2359053548
 40
0.480141844
 40
0.6059504969
 40
0.7344642466
 40
1.0
 40
1.0
 40
1.0
 40
1.0
 10
21.5766350532
 20
49.0860469547
 30
0.0
 10
21.2902929015
 20
49.1559152644
 30
0.0
 10
20.711457889
 20
49.3151339422
 30
0.0
 10
19.9960818907
 20
49.5650123779
 30
0.0
 10
19.42007059
 20
49.8024836905
 30
0.0
 10
18.8293271292
 20
50.0727631354
 30
0.0
 10
18.393827403
 20
50.3037202747
 30
0.0
 10
18.1065101369
 20
50.4695992229
 30
0.0
  0
SPLINE
  5
25F
100
AcDbEntity
  8
0
100
AcDbSpline
 62
7
  6
BYLAYER
 70
0
 71
3
 72
13
 73
9
 74
0
 42
0.0000001
 43
0.0000001
 44
0.0000000001
 40
0.0
 40
0.0
 40
0.0
 40
0.0
 40
0.1277130851
 40
0.254682184
 40
0.3808516675
 40
0.5062128281
 40
0.7545510597
 40
1.0
 40
1.0
 40
1.0
 40
1.0
 10
26.3168888196
 20
49.1994885306
 30
0.0
 10
26.116918759
 20
49.1685529816
 30
0.0
 10
25.717034539
 20
49.113791504
 30
0.0
 10
25.1165785996
 20
49.0528818485
 30
0.0
 10
24.5180959188
 20
49.0129288994
 30
0.0
 10
23.7264293366
 20
48.9863164473
 30
0.0
 10
22.7449275741
 20
48.9990628762
 30
0.0
 10
21.9639826938
 20
49.0514498191
 30
0.0
 10
21.5766350532
 20
49.0860469547
 30
0.0
  0
SPLINE
  5
260
100
AcDbEntity
  8
0
100
AcDbSpline
 62
7
  6
BYLAYER
 70
0
 71
3
 72
11
 73
7
 74
0
 42
0.0000001
 43
0.0000001
 44
0.0000000001
 40
0.0
 40
0.0
 40
0.0
 40
0.0
 40
0.2381644744
 40
0.4852570595
 40
0.7397461291
 40
1.0
 40
1.0
 40
1.0
 40
1.0
 10
18.1065101369
 20
50.4695992229
 30
0.0
 10
17.8068868483
 20
50.6425828958
 30
0.0
 10
17.2094409596
 20
51.0179915557
 30
0.0
 10
16.3382077812
 20
51.648061893
 30
0.0
 10
15.4770439068
 20
52.3438340315
 30
0.0
 10
14.9159082148
 20
52.8383577819
 30
0.0
 10
14.6363852205
 20
53.0929114165
 30
0.0
  0
SPLINE
  5
261
100
AcDbEntity
  8
0
100
AcDbSpline
 62
7
  6
BYLAYER
 70
0
 71
3
 72
11
 73
7
 74
0
 42
0.0000001
 43
0.0000001
 44
0.0000000001
 40
0.0
 40
0.0
 40
0.0
 40
0.0
 40
0.25169685
 40
0.5026626495
 40
0.7523296886
 40
1.0
 40
1.0
 40
1.0
 40
1.0
 10
21.5766350532
 20
51.1122966979
 30
0.0
 10
21.9615954212
 20
51.2657880402
 30
0.0
 10
22.7363728267
 20
51.5577167572
 30
0.0
 10
23.9157365622
 20
51.9385221561
 30
0.0
 10
25.1087692387
 20
52.2494071747
 30
0.0
 10
25.9138804541
 20
52.403152441
 30
0.0
 10
26.3168888196
 20
52.4654981991
 30
0.0
  0
SPLINE
  5
262
100
AcDbEntity
  8
0
100
AcDbSpline
 62
7
  6
BYLAYER
 70
0
 71
3
 72
11
 73
7
 74
0
 42
0.0000001
 43
0.0000001
 44
0.0000000001
 40
0.0
 40
0.0
 40
0.0
 40
0.0
 40
0.2381644744
 40
0.4852570595
 40
0.7397461291
 40
1.0
 40
1.0
 40
1.0
 40
1.0
 10
18.1065101369
 20
53.7356088915
 30
0.0
 10
18.4061334254
 20
53.5626252186
 30
0.0
 10
19.0035793141
 20
53.1872165587
 30
0.0
 10
19.8748124925
 20
52.5571462214
 30
0.0
 10
20.7359763669
 20
51.8613740829
 30
0.0
 10
21.297112059
 20
51.3668503325
 30
0.0
 10
21.5766350532
 20
51.1122966979
 30
0.0
  0
SPLINE
  5
263
100
AcDbEntity
  8
0
100
AcDbSpline
 62
7
  6
BYLAYER
 70
0
 71
3
 72
12
 73
8
 74
0
 42
0.0000001
 43
0.0000001
 44
0.0000000001
 40
0.0
 40
0.0
 40
0.0
 40
0.0
 40
0.2359053548
 40
0.480141844
 40
0.6059504969
 40
0.7344642466
 40
1.0
 40
1.0
 40
1.0
 40
1.0
 10
14.6363852205
 20
55.1191611597
 30
0.0
 10
14.9227273723
 20
55.04929285
 30
0.0
 10
15.5015623847
 20
54.8900741722
 30
0.0
 10
16.216938383
 20
54.6401957365
 30
0.0
 10
16.7929496837
 20
54.4027244239
 30
0.0
 10
17.3836931446
 20
54.132444979
 30
0.0
 10
17.8191928708
 20
53.9014878397
 30
0.0
 10
18.1065101369
 20
53.7356088915
 30
0.0
  0
SPLINE
  5
264
100
AcDbEntity
  8
0
100
AcDbSpline
 62
7
  6
BYLAYER
 70
0
 71
3
 72
26
 73
22
 74
0
 42
0.0000001
 43
0.0000001
 44
0.0000000001
 40
0.0
 40
0.0
 40
0.0
 40
0.0
 40
0.0742946445
 40
0.1447337921
 40
0.2113371614
 40
0.2432662338
 40
0.2743206456
 40
0.3339927108
 40
0.3909547296
 40
0.4459730242
 40
0.4999732231
 40
0.5269328853
 40
0.5540219508
 40
0.6090400937
 40
0.6660026227
 40
0.7256765939
 40
0.7567316545
 40
0.7886591053
 40
0.8552601111
 40
0.9257177735
 40
1.0
 40
1.0
 40
1.0
 40
1.0
 10
19.8741694775
 20
54.7562868414
 30
0.0
 10
19.7388335896
 20
54.8344252136
 30
0.0
 10
19.4812871226
 20
54.9976515247
 30
0.0
 10
19.1292377787
 20
55.2701721215
 30
0.0
 10
18.8719018915
 20
55.5165108809
 30
0.0
 10
18.69249397
 20
55.7219318405
 30
0.0
 10
18.5351157644
 20
55.9265382558
 30
0.0
 10
18.3699701416
 20
56.1909067549
 30
0.0
 10
18.2246708974
 20
56.5229550456
 30
0.0
 10
18.1366078742
 20
56.8623815193
 30
0.0
 10
18.1120417267
 20
57.1488500495
 30
0.0
 10
18.1217480957
 20
57.3761534073
 30
0.0
 10
18.1509177314
 20
57.6039505589
 30
0.0
 10
18.2246672466
 20
57.8885065361
 30
0.0
 10
18.3699968078
 20
58.220498329
 30
0.0
 10
18.535154865
 20
58.4848782617
 30
0.0
 10
18.6925375916
 20
58.6894816137
 30
0.0
 10
18.871927275
 20
58.8949095208
 30
0.0
 10
19.1292967413
 20
59.1412599603
 30
0.0
 10
19.4813741008
 20
59.4137551483
 30
0.0
 10
19.7389199976
 20
59.5770053849
 30
0.0
 10
19.8742344023
 20
59.6551287265
 30
0.0
  0
SPLINE
  5
265
100
AcDbEntity
  8
0
100
AcDbSpline
 62
7
  6
BYLAYER
 70
0
 71
3
 72
12
 73
8
 74
0
 42
0.0000001
 43
0.0000001
 44
0.0000000001
 40
0.0
 40
0.0
 40
0.0
 40
0.0
 40
0.2657027941
 40
0.5224761699
 40
0.7678711974
 40
0.8857276627
 40
1.0
 40
1.0
 40
1.0
 40
1.0
 10
26.3168888196
 20
52.4654981991
 30
0.0
 10
26.6703095837
 20
52.5201727105
 30
0.0
 10
27.3614672748
 20
52.6547962615
 30
0.0
 10
28.3570973062
 20
52.9364287864
 30
0.0
 10
29.1377548632
 20
53.2353995247
 30
0.0
 10
29.7189931087
 20
53.5102821552
 30
0.0
 10
29.9941254961
 20
53.6587352349
 30
0.0
 10
30.1273254169
 20
53.7356377859
 30
0.0
  0
SPLINE
  5
266
100
AcDbEntity
  8
0
100
AcDbSpline
 62
7
  6
BYLAYER
 70
0
 71
3
 72
16
 73
12
 74
0
 42
0.0000001
 43
0.0000001
 44
0.0000000001
 40
0.0
 40
0.0
 40
0.0
 40
0.0
 40
0.0545818947
 40
0.1108753211
 40
0.2280871596
 40
0.350733794
 40
0.477645417
 40
0.6074882982
 40
0.7388227969
 40
0.870157254
 40
1.0
 40
1.0
 40
1.0
 40
1.0
 10
18.1065101369
 20
53.7356088915
 30
0.0
 10
18.239711579
 20
53.6587067427
 30
0.0
 10
18.5148460904
 20
53.5102558242
 30
0.0
 10
19.0960887337
 20
53.2353740725
 30
0.0
 10
19.8767380244
 20
52.9364097987
 30
0.0
 10
20.8724266452
 20
52.6547751117
 30
0.0
 10
21.9229807298
 20
52.4501455086
 30
0.0
 10
23.0105933037
 20
52.3259736339
 30
0.0
 10
24.1169407536
 20
52.2843516325
 30
0.0
 10
25.2232133476
 20
52.325971488
 30
0.0
 10
25.9553047511
 20
52.4095608171
 30
0.0
 10
26.3168888196
 20
52.4654981991
 30
0.0
  0
SPLINE
  5
267
100
AcDbEntity
  8
0
100
AcDbSpline
 62
7
  6
BYLAYER
 70
0
 71
3
 72
23
 73
19
 74
0
 42
0.0000001
 43
0.0000001
 44
0.0000000001
 40
0.0
 40
0.0
 40
0.0
 40
0.0
 40
0.0583030167
 40
0.1152944982
 40
0.1713525301
 40
0.2269324753
 40
0.2825149268
 40
0.3385704183
 40
0.3955491388
 40
0.4538654478
 40
0.5138862358
 40
0.5759184159
 40
0.6402096804
 40
0.706939583
 40
0.7762344392
 40
0.8481756931
 40
0.9227892487
 40
1.0
 40
1.0
 40
1.0
 40
1.0
 10
15.9065140705
 20
58.4757948918
 30
0.0
 10
15.8591959362
 20
58.373838242
 30
0.0
 10
15.7755278959
 20
58.1674156072
 30
0.0
 10
15.6841552257
 20
57.8493153246
 30
0.0
 10
15.6291561094
 20
57.5282100588
 30
0.0
 10
15.6107844719
 20
57.2056591375
 30
0.0
 10
15.6291767578
 20
56.8831128218
 30
0.0
 10
15.6841614236
 20
56.5620380579
 30
0.0
 10
15.7755305861
 20
56.2439126314
 30
0.0
 10
15.9027362594
 20
55.9301304215
 30
0.0
 10
16.0652137624
 20
55.622073781
 30
0.0
 10
16.262136723
 20
55.3210129426
 30
0.0
 10
16.4926617495
 20
55.0282500079
 30
0.0
 10
16.7556992186
 20
54.7449532356
 30
0.0
 10
17.0501587331
 20
54.4723263515
 30
0.0
 10
17.374774515
 20
54.2114484289
 30
0.0
 10
17.7281230774
 20
53.9634954308
 30
0.0
 10
17.9775982103
 20
53.8100345432
 30
0.0
 10
18.1065101369
 20
53.7356088915
 30
0.0
  0
SPLINE
  5
268
100
AcDbEntity
  8
0
100
AcDbSpline
 62
7
  6
BYLAYER
 70
0
 71
3
 72
15
 73
11
 74
0
 42
0.0000001
 43
0.0000001
 44
0.0000000001
 40
0.0
 40
0.0
 40
0.0
 40
0.0
 40
0.1413764765
 40
0.2779978829
 40
0.4097274173
 40
0.5366082042
 40
0.658787907
 40
0.7765148654
 40
0.8901230112
 40
1.0
 40
1.0
 40
1.0
 40
1.0
 10
18.1064600894
 20
60.6757306128
 30
0.0
 10
17.9775495419
 20
60.6013045177
 30
0.0
 10
17.7280763948
 20
60.4478430512
 30
0.0
 10
17.3747303762
 20
60.1998869464
 30
0.0
 10
17.050120779
 20
59.9390043012
 30
0.0
 10
16.7556687293
 20
59.6663811319
 30
0.0
 10
16.4926290009
 20
59.3830936348
 30
0.0
 10
16.2620922816
 20
59.0902981389
 30
0.0
 10
16.0651960266
 20
58.7892488096
 30
0.0
 10
15.9552154341
 20
58.5807319936
 30
0.0
 10
15.9065140705
 20
58.4757948918
 30
0.0
  0
SPLINE
  5
269
100
AcDbEntity
  8
0
100
AcDbSpline
 62
7
  6
BYLAYER
 70
0
 71
3
 72
12
 73
8
 74
0
 42
0.0000001
 43
0.0000001
 44
0.0000000001
 40
0.0
 40
0.0
 40
0.0
 40
0.0
 40
0.2657027941
 40
0.5224761699
 40
0.7678711974
 40
0.8857276627
 40
1.0
 40
1.0
 40
1.0
 40
1.0
 10
21.9168966868
 20
61.9458701997
 30
0.0
 10
21.5634759227
 20
61.8911956883
 30
0.0
 10
20.8723182316
 20
61.7565721372
 30
0.0
 10
19.8766882002
 20
61.4749396123
 30
0.0
 10
19.0960306431
 20
61.175968874
 30
0.0
 10
18.5147923977
 20
60.9010862436
 30
0.0
 10
18.2396600102
 20
60.7526331639
 30
0.0
 10
18.1064600894
 20
60.6757306128
 30
0.0
  0
SPLINE
  5
26A
100
AcDbEntity
  8
0
100
AcDbSpline
 62
7
  6
BYLAYER
 70
0
 71
3
 72
16
 73
12
 74
0
 42
0.0000001
 43
0.0000001
 44
0.0000000001
 40
0.0
 40
0.0
 40
0.0
 40
0.0
 40
0.0545818947
 40
0.1108753211
 40
0.2280871596
 40
0.350733794
 40
0.477645417
 40
0.6074882982
 40
0.7388227969
 40
0.870157254
 40
1.0
 40
1.0
 40
1.0
 40
1.0
 10
30.1272753695
 20
60.6757595073
 30
0.0
 10
29.9940739274
 20
60.752661656
 30
0.0
 10
29.718939416
 20
60.9011125746
 30
0.0
 10
29.1376967727
 20
61.1759943262
 30
0.0
 10
28.357047482
 20
61.4749586
 30
0.0
 10
27.3613588612
 20
61.7565932871
 30
0.0
 10
26.3108047766
 20
61.9612228902
 30
0.0
 10
25.2231922027
 20
62.0853947649
 30
0.0
 10
24.1168447528
 20
62.1270167662
 30
0.0
 10
23.0105721588
 20
62.0853969108
 30
0.0
 10
22.2784807553
 20
62.0018075816
 30
0.0
 10
21.9168966868
 20
61.9458701997
 30
0.0
  0
SPLINE
  5
26B
100
AcDbEntity
  8
0
100
AcDbSpline
 62
7
  6
BYLAYER
 70
0
 71
3
 72
23
 73
19
 74
0
 42
0.0000001
 43
0.0000001
 44
0.0000000001
 40
0.0
 40
0.0
 40
0.0
 40
0.0
 40
0.0583030167
 40
0.1152944982
 40
0.1713525301
 40
0.2269324753
 40
0.2825149268
 40
0.3385704183
 40
0.3955491388
 40
0.4538654478
 40
0.5138862358
 40
0.5759184159
 40
0.6402096804
 40
0.706939583
 40
0.7762344392
 40
0.8481756931
 40
0.9227892487
 40
1.0
 40
1.0
 40
1.0
 40
1.0
 10
32.3272714359
 20
55.935573507
 30
0.0
 10
32.3745895701
 20
56.0375301567
 30
0.0
 10
32.4582576104
 20
56.2439527915
 30
0.0
 10
32.5496302807
 20
56.5620530741
 30
0.0
 10
32.6046293969
 20
56.8831583399
 30
0.0
 10
32.6230010344
 20
57.2057092613
 30
0.0
 10
32.6046087486
 20
57.5282555769
 30
0.0
 10
32.5496240828
 20
57.8493303408
 30
0.0
 10
32.4582549202
 20
58.1674557673
 30
0.0
 10
32.331049247
 20
58.4812379772
 30
0.0
 10
32.168571744
 20
58.7892946178
 30
0.0
 10
31.9716487834
 20
59.0903554561
 30
0.0
 10
31.7411237569
 20
59.3831183908
 30
0.0
 10
31.4780862877
 20
59.6664151631
 30
0.0
 10
31.1836267733
 20
59.9390420473
 30
0.0
 10
30.8590109914
 20
60.1999199698
 30
0.0
 10
30.505662429
 20
60.4478729679
 30
0.0
 10
30.2561872961
 20
60.6013338555
 30
0.0
 10
30.1272753695
 20
60.6757595073
 30
0.0
  0
SPLINE
  5
26C
100
AcDbEntity
  8
0
100
AcDbSpline
 62
7
  6
BYLAYER
 70
0
 71
3
 72
15
 73
11
 74
0
 42
0.0000001
 43
0.0000001
 44
0.0000000001
 40
0.0
 40
0.0
 40
0.0
 40
0.0
 40
0.1413764765
 40
0.2779978829
 40
0.4097274173
 40
0.5366082042
 40
0.658787907
 40
0.7765148654
 40
0.8901230112
 40
1.0
 40
1.0
 40
1.0
 40
1.0
 10
30.1273254169
 20
53.7356377859
 30
0.0
 10
30.2562359645
 20
53.810063881
 30
0.0
 10
30.5057091115
 20
53.9635253475
 30
0.0
 10
30.8590551302
 20
54.2114814524
 30
0.0
 10
31.1836647274
 20
54.4723640976
 30
0.0
 10
31.4781167771
 20
54.7449872669
 30
0.0
 10
31.7411565054
 20
55.0282747639
 30
0.0
 10
31.9716932248
 20
55.3210702598
 30
0.0
 10
32.1685894797
 20
55.6221195891
 30
0.0
 10
32.2785700723
 20
55.8306364052
 30
0.0
 10
32.3272714359
 20
55.935573507
 30
0.0
  0
SPLINE
  5
26D
100
AcDbEntity
  8
0
100
AcDbSpline
 62
7
  6
BYLAYER
 70
0
 71
3
 72
42
 73
38
 74
0
 42
0.0000001
 43
0.0000001
 44
0.0000000001
 40
0.0
 40
0.0
 40
0.0
 40
0.0
 40
0.0325422097
 40
0.0665554253
 40
0.1018785607
 40
0.1383495975
 40
0.1757685388
 40
0.2139145607
 40
0.2525542173
 40
0.2914430354
 40
0.3303318932
 40
0.3689715139
 40
0.4071178309
 40
0.4445364575
 40
0.4810076546
 40
0.5163327725
 40
0.5503389085
 40
0.5828861207
 40
0.6138757507
 40
0.6432571838
 40
0.67103863
 40
0.6843568012
 40
0.6973101267
 40
0.7222003268
 40
0.7459600622
 40
0.7689089723
 40
0.7914331524
 40
0.8026783531
 40
0.8139775169
 40
0.8369261942
 40
0.8606858764
 40
0.8855765297
 40
0.8985299339
 40
0.9118472266
 40
0.9396272611
 40
0.9690159801
 40
1.0
 40
1.0
 40
1.0
 40
1.0
 10
19.8742344023
 20
59.6551287265
 30
0.0
 10
20.0163561237
 20
59.7371822508
 30
0.0
 10
20.3144248329
 20
59.8924229712
 30
0.0
 10
20.787413497
 20
60.0941288118
 30
0.0
 10
21.2922691405
 20
60.2681485584
 30
0.0
 10
21.8240711081
 20
60.4128243786
 30
0.0
 10
22.3777990802
 20
60.5268242275
 30
0.0
 10
22.9481617117
 20
60.6090374854
 30
0.0
 10
23.5297047073
 20
60.658672118
 30
0.0
 10
24.1168669955
 20
60.6752778335
 30
0.0
 10
24.7040298869
 20
60.6586827003
 30
0.0
 10
25.2855731475
 20
60.6090339727
 30
0.0
 10
25.8559366632
 20
60.5268310976
 30
0.0
 10
26.4096677925
 20
60.4128442192
 30
0.0
 10
26.9414771927
 20
60.2681499067
 30
0.0
 10
27.446301094
 20
60.09414535
 30
0.0
 10
27.9193309415
 20
59.8924539913
 30
0.0
 10
28.356066206
 20
59.6649630448
 30
0.0
 10
28.7523844907
 20
59.4137946169
 30
0.0
 10
29.1044745748
 20
59.1412607539
 30
0.0
 10
29.3618191384
 20
58.8949242459
 30
0.0
 10
29.5412383027
 20
58.6895015875
 30
0.0
 10
29.6986261613
 20
58.4848937711
 30
0.0
 10
29.8637833074
 20
58.2205228028
 30
0.0
 10
30.0090950907
 20
57.8884704542
 30
0.0
 10
30.097168986
 20
57.5490390486
 30
0.0
 10
30.1217426352
 20
57.2625656095
 30
0.0
 10
30.1120411777
 20
57.0352581632
 30
0.0
 10
30.0828758134
 20
56.80745703
 30
0.0
 10
30.0091303822
 20
56.5228957387
 30
0.0
 10
29.8638035321
 20
56.1908974194
 30
0.0
 10
29.6986460423
 20
55.9265122478
 30
0.0
 10
29.5412628627
 20
55.7219048927
 30
0.0
 10
29.361872011
 20
55.5164728989
 30
0.0
 10
29.1044998413
 20
55.2701176153
 30
0.0
 10
28.7524176571
 20
54.9976173296
 30
0.0
 10
28.494867737
 20
54.8343643003
 30
0.0
 10
28.3595511041
 20
54.7562396722
 30
0.0
  0
SPLINE
  5
26E
100
AcDbEntity
  8
0
100
AcDbSpline
 62
7
  6
BYLAYER
 70
0
 71
3
 72
13
 73
9
 74
0
 42
0.0000001
 43
0.0000001
 44
0.0000000001
 40
0.0
 40
0.0
 40
0.0
 40
0.0
 40
0.1277130851
 40
0.254682184
 40
0.3808516675
 40
0.5062128281
 40
0.7545510597
 40
1.0
 40
1.0
 40
1.0
 40
1.0
 10
26.3168888196
 20
52.4654981991
 30
0.0
 10
26.5168588802
 20
52.496433748
 30
0.0
 10
26.9167431001
 20
52.5511952256
 30
0.0
 10
27.5171990395
 20
52.6121048811
 30
0.0
 10
28.1156817204
 20
52.6520578302
 30
0.0
 10
28.9073483025
 20
52.6786702823
 30
0.0
 10
29.8888500651
 20
52.6659238535
 30
0.0
 10
30.6697949454
 20
52.6135369106
 30
0.0
 10
31.0571425859
 20
52.5789397749
 30
0.0
  0
SPLINE
  5
26F
100
AcDbEntity
  8
0
100
AcDbSpline
 62
7
  6
BYLAYER
 70
0
 71
3
 72
11
 73
7
 74
0
 42
0.0000001
 43
0.0000001
 44
0.0000000001
 40
0.0
 40
0.0
 40
0.0
 40
0.0
 40
0.2727720738
 40
0.5326331127
 40
0.7761317916
 40
1.0
 40
1.0
 40
1.0
 40
1.0
 10
31.0571425859
 20
52.5789397749
 30
0.0
 10
31.1583989418
 20
52.8893320089
 30
0.0
 10
31.3607963935
 20
53.4939206633
 30
0.0
 10
31.6744757188
 20
54.368440662
 30
0.0
 10
31.9914334057
 20
55.1792730869
 30
0.0
 10
32.2144691997
 20
55.6925178949
 30
0.0
 10
32.3272714359
 20
55.935573507
 30
0.0
  0
SPLINE
  5
270
100
AcDbEntity
  8
0
100
AcDbSpline
 62
7
  6
BYLAYER
 70
0
 71
3
 72
11
 73
7
 74
0
 42
0.0000001
 43
0.0000001
 44
0.0000000001
 40
0.0
 40
0.0
 40
0.0
 40
0.0
 40
0.2936016986
 40
0.5559374547
 40
0.7899377057
 40
1.0
 40
1.0
 40
1.0
 40
1.0
 10
32.3272714359
 20
55.935573507
 30
0.0
 10
32.4292174528
 20
56.1552371625
 30
0.0
 10
32.6315372277
 20
56.5670016521
 30
0.0
 10
32.9515657277
 20
57.1349859193
 30
0.0
 10
33.2691232905
 20
57.6239652728
 30
0.0
 10
33.4888464941
 20
57.9174062495
 30
0.0
 10
33.5974002859
 20
58.0524473137
 30
0.0
  0
SPLINE
  5
271
100
AcDbEntity
  8
0
100
AcDbSpline
 62
7
  6
BYLAYER
 70
0
 71
3
 72
20
 73
16
 74
0
 42
0.0000001
 43
0.0000001
 44
0.0000000001
 40
0.0
 40
0.0
 40
0.0
 40
0.0
 40
0.0572996838
 40
0.1175391399
 40
0.1803075139
 40
0.245204485
 40
0.3793634209
 40
0.5157778009
 40
0.6499017259
 40
0.714774146
 40
0.7775057031
 40
0.8376752129
 40
0.8949489946
 40
0.9490907042
 40
1.0
 40
1.0
 40
1.0
 40
1.0
 10
27.8292188102
 20
6.0722752104
 30
0.0
 10
27.6865087934
 20
5.9898820356
 30
0.0
 10
27.3851938812
 20
5.8354178243
 30
0.0
 10
26.9044750047
 20
5.6395474799
 30
0.0
 10
26.3888482343
 20
5.475975204
 30
0.0
 10
25.6557434415
 20
5.3017477171
 30
0.0
 10
24.6957340154
 20
5.1777974563
 30
0.0
 10
23.5289261459
 20
5.1783987647
 30
0.0
 10
22.569209634
 20
5.3032882933
 30
0.0
 10
21.8365730554
 20
5.4783095859
 30
0.0
 10
21.3215158443
 20
5.6423899627
 30
0.0
 10
20.8413516084
 20
5.8387105457
 30
0.0
 10
20.4019396333
 20
6.0648090727
 30
0.0
 10
20.0088598357
 20
6.3180327055
 30
0.0
 10
19.7735456753
 20
6.5088165919
 30
0.0
 10
19.6659644393
 20
6.6081236881
 30
0.0
  0
SPLINE
  5
272
100
AcDbEntity
  8
0
100
AcDbSpline
 62
7
  6
BYLAYER
 70
0
 71
3
 72
9
 73
5
 74
0
 42
0.0000001
 43
0.0000001
 44
0.0000000001
 40
0.0
 40
0.0
 40
0.0
 40
0.0
 40
0.4924541568
 40
1.0
 40
1.0
 40
1.0
 40
1.0
 10
24.6169145117
 20
14.1797989319
 30
0.0
 10
24.6169145117
 20
14.2218074052
 30
0.0
 10
24.6001358176
 20
14.3079468468
 30
0.0
 10
24.5523818252
 20
14.3811544671
 30
0.0
 10
24.5231624972
 20
14.4131038383
 30
0.0
  0
SPLINE
  5
273
100
AcDbEntity
  8
0
100
AcDbSpline
 62
7
  6
BYLAYER
 70
0
 71
3
 72
13
 73
9
 74
0
 42
0.0000001
 43
0.0000001
 44
0.0000000001
 40
0.0
 40
0.0
 40
0.0
 40
0.0
 40
0.2407519867
 40
0.3690806948
 40
0.4999281582
 40
0.6307822118
 40
0.7591343885
 40
1.0
 40
1.0
 40
1.0
 40
1.0
 10
24.4968366473
 20
14.4393739717
 30
0.0
 10
24.4481831995
 20
14.4837528262
 30
0.0
 10
24.3570355804
 20
14.5347480284
 30
0.0
 10
24.2241936968
 20
14.5683915901
 30
0.0
 10
24.1173344575
 20
14.5772054363
 30
0.0
 10
24.0104581563
 20
14.568526133
 30
0.0
 10
23.877533207
 20
14.5350519891
 30
0.0
 10
23.7862786282
 20
14.4841777133
 30
0.0
 10
23.7375277901
 20
14.4398596483
 30
0.0
  0
SPLINE
  5
274
100
AcDbEntity
  8
0
100
AcDbSpline
 62
7
  6
BYLAYER
 70
0
 71
3
 72
9
 73
5
 74
0
 42
0.0000001
 43
0.0000001
 44
0.0000000001
 40
0.0
 40
0.0
 40
0.0
 40
0.0
 40
0.5075913148
 40
1.0
 40
1.0
 40
1.0
 40
1.0
 10
23.7106079136
 20
14.4130350653
 30
0.0
 10
23.6814046515
 20
14.3810855588
 30
0.0
 10
23.6336732019
 20
14.3078991284
 30
0.0
 10
23.6169145117
 20
14.2217869399
 30
0.0
 10
23.6169145117
 20
14.1797965282
 30
0.0
  0
SPLINE
  5
275
100
AcDbEntity
  8
0
100
AcDbSpline
 62
7
  6
BYLAYER
 70
0
 71
3
 72
9
 73
5
 74
0
 42
0.0000001
 43
0.0000001
 44
0.0000000001
 40
0.0
 40
0.0
 40
0.0
 40
0.0
 40
0.2462823271
 40
1.0
 40
1.0
 40
1.0
 40
1.0
 10
23.6514555548
 20
14.3055721427
 30
0.0
 10
23.6551394834
 20
14.29790164
 30
0.0
 10
23.6711843106
 20
14.267285219
 30
0.0
 10
23.6914349506
 20
14.2389132976
 30
0.0
 10
23.7084670453
 20
14.2192136668
 30
0.0
  0
SPLINE
  5
276
100
AcDbEntity
  8
0
100
AcDbSpline
 62
7
  6
BYLAYER
 70
0
 71
3
 72
9
 73
5
 74
0
 42
0.0000001
 43
0.0000001
 44
0.0000000001
 40
0.0
 40
0.0
 40
0.0
 40
0.0
 40
0.2544916513
 40
1.0
 40
1.0
 40
1.0
 40
1.0
 10
24.5253593561
 20
14.2192171834
 30
0.0
 10
24.5311215256
 20
14.2258819071
 30
0.0
 10
24.5529342785
 20
14.2527707675
 30
0.0
 10
24.5713012596
 20
14.2824939994
 30
0.0
 10
24.5824611423
 20
14.3057653285
 30
0.0
  0
SPLINE
  5
277
100
AcDbEntity
  8
0
100
AcDbSpline
 62
7
  6
BYLAYER
 70
0
 71
3
 72
9
 73
5
 74
0
 42
0.0000001
 43
0.0000001
 44
0.0000000001
 40
0.0
 40
0.0
 40
0.0
 40
0.0
 40
0.2674251134
 40
1.0
 40
1.0
 40
1.0
 40
1.0
 10
18.880655341
 20
17.1509919147
 30
0.0
 10
18.8795887498
 20
17.1284318133
 30
0.0
 10
18.8754944736
 20
17.0440771576
 30
0.0
 10
18.871338277
 20
16.9597199686
 30
0.0
 10
18.869182178
 20
16.8978881772
 30
0.0
  0
SPLINE
  5
278
100
AcDbEntity
  8
0
100
AcDbSpline
 62
7
  6
BYLAYER
 70
0
 71
3
 72
9
 73
5
 74
0
 42
0.0000001
 43
0.0000001
 44
0.0000000001
 40
0.0
 40
0.0
 40
0.0
 40
0.0
 40
0.2795751672
 40
1.0
 40
1.0
 40
1.0
 40
1.0
 10
18.869182178
 20
16.8978881772
 30
0.0
 10
18.8688279194
 20
16.8877288843
 30
0.0
 10
18.8676577281
 20
16.8513879426
 30
0.0
 10
18.8669248685
 20
16.8150279391
 30
0.0
 10
18.8669245193
 20
16.7888329971
 30
0.0
  0
SPLINE
  5
279
100
AcDbEntity
  8
0
100
AcDbSpline
 62
7
  6
BYLAYER
 70
0
 71
3
 72
11
 73
7
 74
0
 42
0.0000001
 43
0.0000001
 44
0.0000000001
 40
0.0
 40
0.0
 40
0.0
 40
0.0
 40
0.2557948241
 40
0.535571739
 40
0.7969081047
 40
1.0
 40
1.0
 40
1.0
 40
1.0
 10
18.8907585948
 20
16.9083821902
 30
0.0
 10
18.8907585948
 20
16.9678434147
 30
0.0
 10
18.8877419582
 20
17.0923348787
 30
0.0
 10
18.8791218659
 20
17.2773830375
 30
0.0
 10
18.8705039607
 20
17.4501517614
 30
0.0
 10
18.8669251661
 20
17.5580884475
 30
0.0
 10
18.866924519
 20
17.6052985223
 30
0.0
  0
SPLINE
  5
27A
100
AcDbEntity
  8
0
100
AcDbSpline
 62
7
  6
BYLAYER
 70
0
 71
3
 72
16
 73
12
 74
0
 42
0.0000001
 43
0.0000001
 44
0.0000000001
 40
0.0
 40
0.0
 40
0.0
 40
0.0
 40
0.2179627138
 40
0.4143950086
 40
0.5859307024
 40
0.7295558606
 40
0.8435981015
 40
0.9267646413
 40
0.9782031604
 40
0.9923308961
 40
1.0
 40
1.0
 40
1.0
 40
1.0
 10
29.3430310749
 20
16.9084073144
 30
0.0
 10
29.3430310749
 20
16.892914796
 30
0.0
 10
29.3432380069
 20
16.8634590653
 30
0.0
 10
29.3442024447
 20
16.8218227002
 30
0.0
 10
29.3457376953
 20
16.7854839249
 30
0.0
 10
29.3477718786
 20
16.7550549601
 30
0.0
 10
29.3501797148
 20
16.7309051052
 30
0.0
 10
29.352692924
 20
16.7134925301
 30
0.0
 10
29.3551440467
 20
16.7030203249
 30
0.0
 10
29.3571117482
 20
16.6983402654
 30
0.0
 10
29.358403622
 20
16.6970968654
 30
0.0
 10
29.358948714
 20
16.6970923867
 30
0.0
  0
SPLINE
  5
27B
100
AcDbEntity
  8
0
100
AcDbSpline
 62
7
  6
BYLAYER
 70
0
 71
3
 72
16
 73
12
 74
0
 42
0.0000001
 43
0.0000001
 44
0.0000000001
 40
0.0
 40
0.0
 40
0.0
 40
0.0
 40
0.0076707075
 40
0.0217973015
 40
0.0732428733
 40
0.1564408176
 40
0.270513312
 40
0.4141378098
 40
0.5856462787
 40
0.7820543677
 40
1.0
 40
1.0
 40
1.0
 40
1.0
 10
18.874838649
 20
16.697069313
 30
0.0
 10
18.8753838522
 20
16.6970737984
 30
0.0
 10
18.8766763066
 20
16.6983162855
 30
0.0
 10
18.8786452007
 20
16.7029969763
 30
0.0
 10
18.8810963382
 20
16.7134715262
 30
0.0
 10
18.8836089173
 20
16.7308892128
 30
0.0
 10
18.8860164845
 20
16.7550432277
 30
0.0
 10
18.8880516253
 20
16.7854721699
 30
0.0
 10
18.88958771
 20
16.8218070162
 30
0.0
 10
18.8905518074
 20
16.8634383177
 30
0.0
 10
18.8907585948
 20
16.8928909637
 30
0.0
 10
18.8907585948
 20
16.9083821902
 30
0.0
  0
SPLINE
  5
27C
100
AcDbEntity
  8
0
100
AcDbSpline
 62
7
  6
BYLAYER
 70
0
 71
3
 72
20
 73
16
 74
0
 42
0.0000001
 43
0.0000001
 44
0.0000000001
 40
0.0
 40
0.0
 40
0.0
 40
0.0
 40
0.0509096655
 40
0.1050515175
 40
0.1623251663
 40
0.2224942338
 40
0.2852249979
 40
0.3500964171
 40
0.4842182959
 40
0.6206318298
 40
0.7547916396
 40
0.8196892413
 40
0.8824589019
 40
0.9426997754
 40
1.0
 40
1.0
 40
1.0
 40
1.0
 10
28.5678210012
 20
58.8130996735
 30
0.0
 10
28.4602390558
 20
58.9124075637
 30
0.0
 10
28.2249235423
 20
59.1031921482
 30
0.0
 10
27.8318426959
 20
59.3564161198
 30
0.0
 10
27.3924317129
 20
59.582513841
 30
0.0
 10
26.9122710602
 20
59.7788326945
 30
0.0
 10
26.3972202172
 20
59.9429117914
 30
0.0
 10
25.6645945073
 20
60.1179309151
 30
0.0
 10
24.7048896452
 20
60.2428218795
 30
0.0
 10
23.5380877023
 20
60.2434277086
 30
0.0
 10
22.5780756922
 20
60.1194820818
 30
0.0
 10
21.844962671
 20
59.9452546998
 30
0.0
 10
21.329325868
 20
59.7816821549
 30
0.0
 10
20.848598682
 20
59.5858074931
 30
0.0
 10
20.5472780566
 20
59.4313421112
 30
0.0
 10
20.4045666962
 20
59.3489481606
 30
0.0
  0
SPLINE
  5
27D
100
AcDbEntity
  8
0
100
AcDbSpline
 62
7
  6
BYLAYER
 70
0
 71
3
 72
13
 73
9
 74
0
 42
0.0000001
 43
0.0000001
 44
0.0000000001
 40
0.0
 40
0.0
 40
0.0
 40
0.0
 40
0.1148287544
 40
0.2307674294
 40
0.3488703615
 40
0.4701025214
 40
0.7247859544
 40
1.0
 40
1.0
 40
1.0
 40
1.0
 10
30.1168815468
 20
24.5455875139
 30
0.0
 10
30.116888722
 20
24.4648248706
 30
0.0
 10
30.1070163917
 20
24.3023478491
 30
0.0
 10
30.062694901
 20
24.0604576094
 30
0.0
 10
29.9892057662
 20
23.8210452364
 30
0.0
 10
29.8505615332
 20
23.5017609421
 30
0.0
 10
29.6017731719
 20
23.1134613724
 30
0.0
 10
29.3459259761
 20
22.8398207621
 30
0.0
 10
29.2036870057
 20
22.7085343896
 30
0.0
  0
SPLINE
  5
27E
100
AcDbEntity
  8
0
100
AcDbSpline
 62
7
  6
BYLAYER
 70
0
 71
3
 72
13
 73
9
 74
0
 42
0.0000001
 43
0.0000001
 44
0.0000000001
 40
0.0
 40
0.0
 40
0.0
 40
0.0
 40
0.2752250429
 40
0.5299091748
 40
0.651133896
 40
0.7692364676
 40
0.8851717884
 40
1.0
 40
1.0
 40
1.0
 40
1.0
 10
19.0301124554
 20
22.7085394295
 30
0.0
 10
18.8878588805
 20
22.8398216724
 30
0.0
 10
18.6320399157
 20
23.1134947831
 30
0.0
 10
18.3831840106
 20
23.5017618879
 30
0.0
 10
18.2446085759
 20
23.8210686737
 30
0.0
 10
18.1710523857
 20
24.0604528805
 30
0.0
 10
18.1267968803
 20
24.3023550431
 30
0.0
 10
18.1169111347
 20
24.4648251711
 30
0.0
 10
18.1169039595
 20
24.5455875145
 30
0.0
  0
SPLINE
  5
27F
100
AcDbEntity
  8
0
100
AcDbSpline
 62
7
  6
BYLAYER
 70
0
 71
3
 72
9
 73
5
 74
0
 42
0.0000001
 43
0.0000001
 44
0.0000000001
 40
0.0
 40
0.0
 40
0.0
 40
0.0
 40
0.2189973223
 40
1.0
 40
1.0
 40
1.0
 40
1.0
 10
29.3668609871
 20
16.7888330009
 30
0.0
 10
29.3668610929
 20
16.7967711909
 30
0.0
 10
29.3666229701
 20
16.8330191535
 30
0.0
 10
29.3656002541
 20
16.8692576143
 30
0.0
 10
29.3646156869
 20
16.8975501846
 30
0.0
  0
SPLINE
  5
280
100
AcDbEntity
  8
0
100
AcDbSpline
 62
7
  6
BYLAYER
 70
0
 71
3
 72
9
 73
5
 74
0
 42
0.0000001
 43
0.0000001
 44
0.0000000001
 40
0.0
 40
0.0
 40
0.0
 40
0.0
 40
0.2277141875
 40
1.0
 40
1.0
 40
1.0
 40
1.0
 10
29.3646156869
 20
16.8975501846
 30
0.0
 10
29.3639480465
 20
16.9167355309
 30
0.0
 10
29.3606066792
 20
17.0009732648
 30
0.0
 10
29.356242428
 20
17.0851648014
 30
0.0
 10
29.3531660264
 20
17.1501979881
 30
0.0
  0
SPLINE
  5
281
100
AcDbEntity
  8
0
100
AcDbSpline
 62
7
  6
BYLAYER
 70
0
 71
3
 72
11
 73
7
 74
0
 42
0.0000001
 43
0.0000001
 44
0.0000000001
 40
0.0
 40
0.0
 40
0.0
 40
0.0
 40
0.2030852547
 40
0.4644351328
 40
0.7442446228
 40
1.0
 40
1.0
 40
1.0
 40
1.0
 10
29.3668609874
 20
17.6052985207
 30
0.0
 10
29.3668616344
 20
17.5580916996
 30
0.0
 10
29.3632847481
 20
17.450157226
 30
0.0
 10
29.3546643065
 20
17.2773857169
 30
0.0
 10
29.3460492812
 20
17.0923425127
 30
0.0
 10
29.3430310749
 20
16.9678572157
 30
0.0
 10
29.3430310749
 20
16.9084073144
 30
0.0
  0
SPLINE
  5
282
100
AcDbEntity
  8
0
100
AcDbSpline
 62
7
  6
BYLAYER
 70
0
 71
3
 72
13
 73
9
 74
0
 42
0.0000001
 43
0.0000001
 44
0.0000000001
 40
0.0
 40
0.0
 40
0.0
 40
0.0
 40
0.2752250429
 40
0.5299091748
 40
0.651133896
 40
0.7692364676
 40
0.8851717884
 40
1.0
 40
1.0
 40
1.0
 40
1.0
 10
19.0301124554
 20
7.1949935041
 30
0.0
 10
18.8878588805
 20
7.326275747
 30
0.0
 10
18.6320399157
 20
7.5999488576
 30
0.0
 10
18.3831840106
 20
7.9882159624
 30
0.0
 10
18.2446085759
 20
8.3075227483
 30
0.0
 10
18.1710523857
 20
8.546906955
 30
0.0
 10
18.1267968803
 20
8.7888091176
 30
0.0
 10
18.1169111347
 20
8.9512792456
 30
0.0
 10
18.1169039595
 20
9.0320415891
 30
0.0
  0
SPLINE
  5
283
100
AcDbEntity
  8
0
100
AcDbSpline
 62
7
  6
BYLAYER
 70
0
 71
3
 72
13
 73
9
 74
0
 42
0.0000001
 43
0.0000001
 44
0.0000000001
 40
0.0
 40
0.0
 40
0.0
 40
0.0
 40
0.2713301954
 40
0.5251201685
 40
0.6468918059
 40
0.766080226
 40
0.8834932344
 40
1.0
 40
1.0
 40
1.0
 40
1.0
 10
18.8538887089
 20
15.5944408202
 30
0.0
 10
18.7379518607
 20
15.4721671812
 30
0.0
 10
18.5299944103
 20
15.2189881297
 30
0.0
 10
18.3303943322
 20
14.8675690019
 30
0.0
 10
18.2193182289
 20
14.5806095624
 30
0.0
 10
18.1603381111
 20
14.3655861322
 30
0.0
 10
18.124801313
 20
14.1487995876
 30
0.0
 10
18.1168975316
 20
14.0034084191
 30
0.0
 10
18.1169039595
 20
13.9310560918
 30
0.0
  0
SPLINE
  5
284
100
AcDbEntity
  8
0
100
AcDbSpline
 62
7
  6
BYLAYER
 70
0
 71
3
 72
13
 73
9
 74
0
 42
0.0000001
 43
0.0000001
 44
0.0000000001
 40
0.0
 40
0.0
 40
0.0
 40
0.0
 40
0.1148287544
 40
0.2307674294
 40
0.3488703615
 40
0.4701025214
 40
0.7247859544
 40
1.0
 40
1.0
 40
1.0
 40
1.0
 10
30.1168815468
 20
9.0320415884
 30
0.0
 10
30.116888722
 20
8.9512789452
 30
0.0
 10
30.1070163917
 20
8.7888019237
 30
0.0
 10
30.062694901
 20
8.546911684
 30
0.0
 10
29.9892057662
 20
8.307499311
 30
0.0
 10
29.8505615332
 20
7.9882150166
 30
0.0
 10
29.6017731719
 20
7.599915447
 30
0.0
 10
29.3459259761
 20
7.3262748366
 30
0.0
 10
29.2036870057
 20
7.1949884641
 30
0.0
  0
SPLINE
  5
285
100
AcDbEntity
  8
0
100
AcDbSpline
 62
7
  6
BYLAYER
 70
0
 71
3
 72
11
 73
7
 74
0
 42
0.0000001
 43
0.0000001
 44
0.0000000001
 40
0.0
 40
0.0
 40
0.0
 40
0.0
 40
0.2340287973
 40
0.4749887095
 40
0.7288433706
 40
1.0
 40
1.0
 40
1.0
 40
1.0
 10
30.1168815468
 20
13.9310560912
 30
0.0
 10
30.1168688032
 20
14.0744967293
 30
0.0
 10
30.0850968243
 20
14.3665330442
 30
0.0
 10
29.9439746621
 20
14.7934570791
 30
0.0
 10
29.7129770395
 20
15.205069512
 30
0.0
 10
29.509329116
 20
15.4562236344
 30
0.0
 10
29.3957775666
 20
15.5775804754
 30
0.0
  0
SPLINE
  5
286
100
AcDbEntity
  8
0
100
AcDbSpline
 62
7
  6
BYLAYER
 70
0
 71
3
 72
18
 73
14
 74
0
 42
0.0000001
 43
0.0000001
 44
0.0000000001
 40
0.0
 40
0.0
 40
0.0
 40
0.0
 40
0.1518324838
 40
0.2924591003
 40
0.4222326703
 40
0.5428075916
 40
0.6005417777
 40
0.6570896993
 40
0.7129497072
 40
0.7686499016
 40
0.8247269976
 40
0.881696179
 40
1.0
 40
1.0
 40
1.0
 40
1.0
 10
27.8292188102
 20
55.0624202381
 30
0.0
 10
27.9950121967
 20
55.1581405231
 30
0.0
 10
28.3041796884
 20
55.3612667218
 30
0.0
 10
28.706024839
 20
55.7134489631
 30
0.0
 10
29.0207938478
 20
56.0960428624
 30
0.0
 10
29.207398711
 20
56.4402153119
 30
0.0
 10
29.3036021981
 20
56.7208741955
 30
0.0
 10
29.3495244123
 20
56.9309412007
 30
0.0
 10
29.3700080508
 20
57.1424229507
 30
0.0
 10
29.3648274951
 20
57.3542397651
 30
0.0
 10
29.3340499169
 20
57.5653029453
 30
0.0
 10
29.2583993921
 20
57.84754964
 30
0.0
 10
29.1645052892
 20
58.0500827506
 30
0.0
 10
29.0889903144
 20
58.1787217801
 30
0.0
  0
SPLINE
  5
287
100
AcDbEntity
  8
0
100
AcDbSpline
 62
7
  6
BYLAYER
 70
0
 71
3
 72
9
 73
5
 74
0
 42
0.0000001
 43
0.0000001
 44
0.0000000001
 40
0.0
 40
0.0
 40
0.0
 40
0.0
 40
0.4836324836
 40
1.0
 40
1.0
 40
1.0
 40
1.0
 10
29.0889903144
 20
58.1787217801
 30
0.0
 10
29.0218043196
 20
58.2931724727
 30
0.0
 10
28.8623493903
 20
58.5181098006
 30
0.0
 10
28.6719393631
 20
58.716988985
 30
0.0
 10
28.5678210012
 20
58.8130996735
 30
0.0
  0
SPLINE
  5
288
100
AcDbEntity
  8
0
100
AcDbSpline
 62
7
  6
BYLAYER
 70
0
 71
3
 72
9
 73
5
 74
0
 42
0.0000001
 43
0.0000001
 44
0.0000000001
 40
0.0
 40
0.0
 40
0.0
 40
0.0
 40
0.5163908731
 40
1.0
 40
1.0
 40
1.0
 40
1.0
 10
19.6659470332
 20
58.8131059891
 30
0.0
 10
19.56181622
 20
58.7169962896
 30
0.0
 10
19.3714049938
 20
58.5181093918
 30
0.0
 10
19.2119698171
 20
58.2931540467
 30
0.0
 10
19.144789216
 20
58.1787053727
 30
0.0
  0
SPLINE
  5
289
100
AcDbEntity
  8
0
100
AcDbSpline
 62
7
  6
BYLAYER
 70
0
 71
3
 72
27
 73
23
 74
0
 42
0.0000001
 43
0.0000001
 44
0.0000000001
 40
0.0
 40
0.0
 40
0.0
 40
0.0
 40
0.0237824561
 40
0.0467471853
 40
0.0691467731
 40
0.0912708259
 40
0.1134271924
 40
0.1359202263
 40
0.159032911
 40
0.1830089069
 40
0.2342101575
 40
0.2905781421
 40
0.3523332624
 40
0.4191145277
 40
0.4901321518
 40
0.5642936686
 40
0.6403079356
 40
0.7167723607
 40
0.7922655065
 40
0.8654109173
 40
0.9349967706
 40
1.0
 40
1.0
 40
1.0
 40
1.0
 10
19.144789216
 20
58.1787053727
 30
0.0
 10
19.0986551071
 20
58.1001114407
 30
0.0
 10
19.0169587608
 20
57.9400749916
 30
0.0
 10
18.927973438
 20
57.6896711674
 30
0.0
 10
18.8758045959
 20
57.4354799578
 30
0.0
 10
18.8608667697
 20
57.1794948779
 30
0.0
 10
18.8834697159
 20
56.9237156842
 30
0.0
 10
18.9431874818
 20
56.6701355761
 30
0.0
 10
19.039642053
 20
56.42069768
 30
0.0
 10
19.2197433712
 20
56.0888917941
 30
0.0
 10
19.538923509
 20
55.6930333173
 30
0.0
 10
20.0388470447
 20
55.2744864675
 30
0.0
 10
20.6499645249
 20
54.9108319588
 30
0.0
 10
21.3556729988
 20
54.6112179758
 30
0.0
 10
22.1370037638
 20
54.3832674677
 30
0.0
 10
22.9727002185
 20
54.2330990997
 30
0.0
 10
23.8398644927
 20
54.1647954108
 30
0.0
 10
24.7146630372
 20
54.1802040609
 30
0.0
 10
25.5729777986
 20
54.2789464465
 30
0.0
 10
26.3913711536
 20
54.4582588026
 30
0.0
 10
27.1471594144
 20
54.7133108383
 30
0.0
 10
27.613499612
 20
54.9378754444
 30
0.0
 10
27.8292188102
 20
55.0624202381
 30
0.0
  0
SPLINE
  5
28A
100
AcDbEntity
  8
0
100
AcDbSpline
 62
7
  6
BYLAYER
 70
0
 71
3
 72
19
 73
15
 74
0
 42
0.0000001
 43
0.0000001
 44
0.0000000001
 40
0.0
 40
0.0
 40
0.0
 40
0.0
 40
0.0559674035
 40
0.1137047665
 40
0.1735082193
 40
0.2355790605
 40
0.3652957497
 40
0.4999909603
 40
0.6346818564
 40
0.7644104966
 40
0.8264931787
 40
0.8863048183
 40
0.9440374279
 40
1.0
 40
1.0
 40
1.0
 40
1.0
 10
23.6169145117
 20
14.1797965282
 30
0.0
 10
23.6169145117
 20
14.1528947833
 30
0.0
 10
23.6237123551
 20
14.0980576631
 30
0.0
 10
23.6526924577
 20
14.0191565578
 30
0.0
 10
23.6996382191
 20
13.9459183187
 30
0.0
 10
23.7843194346
 20
13.8586512457
 30
0.0
 10
23.9241750642
 20
13.7794802558
 30
0.0
 10
24.1169001885
 20
13.7467674586
 30
0.0
 10
24.3096329639
 20
13.779469792
 30
0.0
 10
24.4495000963
 20
13.8586422136
 30
0.0
 10
24.5341907524
 20
13.9459221435
 30
0.0
 10
24.5811388616
 20
14.0191669738
 30
0.0
 10
24.6101244229
 20
14.0980659823
 30
0.0
 10
24.6169145117
 20
14.1528995093
 30
0.0
 10
24.6169145117
 20
14.1797989319
 30
0.0
  0
SPLINE
  5
28B
100
AcDbEntity
  8
0
100
AcDbSpline
 62
7
  6
BYLAYER
 70
0
 71
3
 72
22
 73
18
 74
0
 42
0.0000001
 43
0.0000001
 44
0.0000000001
 40
0.0
 40
0.0
 40
0.0
 40
0.0
 40
0.0572959731
 40
0.1175221468
 40
0.1802781189
 40
0.2451676575
 40
0.3793072287
 40
0.4475425155
 40
0.5157742005
 40
0.5834293648
 40
0.6499522767
 40
0.7148150342
 40
0.7775364979
 40
0.837698676
 40
0.8949627771
 40
0.9490984262
 40
1.0
 40
1.0
 40
1.0
 40
1.0
 10
28.3595511041
 20
22.0961429871
 30
0.0
 10
28.1964402591
 20
22.001971459
 30
0.0
 10
27.8520848199
 20
21.8254269988
 30
0.0
 10
27.3026922774
 20
21.6016011731
 30
0.0
 10
26.7134171845
 20
21.4146545161
 30
0.0
 10
25.875623106
 20
21.2155489454
 30
0.0
 10
25.0011513519
 20
21.1026174117
 30
0.0
 10
24.1116415957
 20
21.0742905971
 30
0.0
 10
23.440499449
 20
21.0963171178
 30
0.0
 10
22.7778623058
 20
21.1614816269
 30
0.0
 10
22.1319355047
 20
21.2689014906
 30
0.0
 10
21.5108060187
 20
21.4173219308
 30
0.0
 10
20.9221915053
 20
21.6048495811
 30
0.0
 10
20.3734064769
 20
21.8291700179
 30
0.0
 10
19.8712512203
 20
22.0876355956
 30
0.0
 10
19.4219668126
 20
22.3769645551
 30
0.0
 10
19.1530752136
 20
22.5950601957
 30
0.0
 10
19.0301124554
 20
22.7085394295
 30
0.0
  0
SPLINE
  5
28C
100
AcDbEntity
  8
0
100
AcDbSpline
 62
7
  6
BYLAYER
 70
0
 71
3
 72
20
 73
16
 74
0
 42
0.0000001
 43
0.0000001
 44
0.0000000001
 40
0.0
 40
0.0
 40
0.0
 40
0.0
 40
0.0509097945
 40
0.1050519722
 40
0.1623261591
 40
0.2224958526
 40
0.2852273319
 40
0.3500994404
 40
0.4842218104
 40
0.6206366967
 40
0.7547965379
 40
0.8196930401
 40
0.8824610032
 40
0.9427003246
 40
1.0
 40
1.0
 40
1.0
 40
1.0
 10
19.6659560546
 20
22.1216666002
 30
0.0
 10
19.7735383977
 20
22.0223583579
 30
0.0
 10
20.0088553767
 20
21.8315729958
 30
0.0
 10
20.4019388371
 20
21.5783468289
 30
0.0
 10
20.841354687
 20
21.3522479771
 30
0.0
 10
21.3215209614
 20
21.1559270678
 30
0.0
 10
21.8365786368
 20
20.9918481134
 30
0.0
 10
22.5692108421
 20
20.8168293491
 30
0.0
 10
23.5289244815
 20
20.6919398167
 30
0.0
 10
24.6957331584
 20
20.6913421699
 30
0.0
 10
25.6557464537
 20
20.815291769
 30
0.0
 10
26.3888516885
 20
20.989521307
 30
0.0
 10
26.9044760797
 20
21.1530932746
 30
0.0
 10
27.3851937788
 20
21.3489637468
 30
0.0
 10
27.6865086617
 20
21.503427885
 30
0.0
 10
27.8292188102
 20
21.5858211358
 30
0.0
  0
SPLINE
  5
28D
100
AcDbEntity
  8
0
100
AcDbSpline
 62
7
  6
BYLAYER
 70
0
 71
3
 72
15
 73
11
 74
0
 42
0.0000001
 43
0.0000001
 44
0.0000000001
 40
0.0
 40
0.0
 40
0.0
 40
0.0
 40
0.1080119537
 40
0.2180605635
 40
0.3320045986
 40
0.4513554287
 40
0.5772590366
 40
0.7104993881
 40
0.8514739062
 40
1.0
 40
1.0
 40
1.0
 40
1.0
 10
29.3668927533
 20
14.7475585086
 30
0.0
 10
29.3668937533
 20
14.6481702791
 30
0.0
 10
29.3495963612
 20
14.4471216259
 30
0.0
 10
29.2726114254
 20
14.1501370861
 30
0.0
 10
29.1453818133
 20
13.8595987165
 30
0.0
 10
28.9697659829
 20
13.5783554019
 30
0.0
 10
28.7475369256
 20
13.3090304859
 30
0.0
 10
28.4810348548
 20
13.053907804
 30
0.0
 10
28.1728959472
 20
12.8154970836
 30
0.0
 10
27.9475766887
 20
12.6726280925
 30
0.0
 10
27.8292188102
 20
12.6042945474
 30
0.0
  0
SPLINE
  5
28E
100
AcDbEntity
  8
0
100
AcDbSpline
 62
7
  6
BYLAYER
 70
0
 71
3
 72
25
 73
21
 74
0
 42
0.0000001
 43
0.0000001
 44
0.0000000001
 40
0.0
 40
0.0
 40
0.0
 40
0.0
 40
0.0623730635
 40
0.1287276196
 40
0.1983132297
 40
0.2702912068
 40
0.3436690239
 40
0.4174003911
 40
0.4904250401
 40
0.5617122542
 40
0.6303096623
 40
0.6953970774
 40
0.7563451545
 40
0.8127833063
 40
0.8646836757
 40
0.9124580464
 40
0.9351030586
 40
0.957107957
 40
0.9786682203
 40
1.0
 40
1.0
 40
1.0
 40
1.0
 10
27.8292188102
 20
12.6042945474
 30
0.0
 10
27.6406270753
 20
12.4954117084
 30
0.0
 10
27.2363770362
 20
12.2961325429
 30
0.0
 10
26.5843429305
 20
12.0598181414
 30
0.0
 10
25.8796541014
 20
11.8809630687
 30
0.0
 10
25.1375181913
 20
11.763253592
 30
0.0
 10
24.373578512
 20
11.7092614574
 30
0.0
 10
23.6041729672
 20
11.7200957963
 30
0.0
 10
22.8457030272
 20
11.7955118661
 30
0.0
 10
22.1143290187
 20
11.9339215524
 30
0.0
 10
21.4255991436
 20
12.1324220664
 30
0.0
 10
20.7940666548
 20
12.3868543646
 30
0.0
 10
20.2329953869
 20
12.6919981587
 30
0.0
 10
19.7541186392
 20
13.041926233
 30
0.0
 10
19.3677193209
 20
13.429885802
 30
0.0
 10
19.12585756
 20
13.7858337978
 30
0.0
 10
18.9910336946
 20
14.0796938126
 30
0.0
 10
18.919588268
 20
14.3001423615
 30
0.0
 10
18.8765346619
 20
14.5231593078
 30
0.0
 10
18.8668935024
 20
14.6730816429
 30
0.0
 10
18.8668927531
 20
14.7475585086
 30
0.0
  0
SPLINE
  5
28F
100
AcDbEntity
  8
0
100
AcDbSpline
 62
7
  6
BYLAYER
 70
0
 71
3
 72
14
 73
10
 74
0
 42
0.0000001
 43
0.0000001
 44
0.0000000001
 40
0.0
 40
0.0
 40
0.0
 40
0.0
 40
0.4241900431
 40
0.5940887806
 40
0.7346232572
 40
0.8452897598
 40
0.925729468
 40
0.9760964572
 40
1.0
 40
1.0
 40
1.0
 40
1.0
 10
18.8669245193
 20
16.7888329971
 30
0.0
 10
18.866924344
 20
16.7756792789
 30
0.0
 10
18.8671045312
 20
16.7572487914
 30
0.0
 10
18.8680361313
 20
16.7344967721
 30
0.0
 10
18.8689585569
 20
16.7214459081
 30
0.0
 10
18.8699981198
 20
16.7112746399
 30
0.0
 10
18.8713988406
 20
16.7037527843
 30
0.0
 10
18.872468236
 20
16.6993814121
 30
0.0
 10
18.8740974486
 20
16.6970632151
 30
0.0
 10
18.874838649
 20
16.697069313
 30
0.0
  0
SPLINE
  5
290
100
AcDbEntity
  8
0
100
AcDbSpline
 62
7
  6
BYLAYER
 70
0
 71
3
 72
15
 73
11
 74
0
 42
0.0000001
 43
0.0000001
 44
0.0000000001
 40
0.0
 40
0.0
 40
0.0
 40
0.0
 40
0.1485422169
 40
0.2895065925
 40
0.4227365852
 40
0.5486414656
 40
0.6679983291
 40
0.7819398679
 40
0.8919885884
 40
1.0
 40
1.0
 40
1.0
 40
1.0
 10
28.3595511041
 20
11.4816115644
 30
0.0
 10
28.4948320095
 20
11.5597155653
 30
0.0
 10
28.7523524634
 20
11.7229873426
 30
0.0
 10
29.1044966138
 20
11.9954681671
 30
0.0
 10
29.4090597251
 20
12.2870203524
 30
0.0
 10
29.6630158499
 20
12.5948300077
 30
0.0
 10
29.8637613647
 20
12.9162333523
 30
0.0
 10
30.0091262211
 20
13.2482987793
 30
0.0
 10
30.0971474331
 20
13.5876957159
 30
0.0
 10
30.1168916381
 20
13.8174700508
 30
0.0
 10
30.1168815468
 20
13.9310560912
 30
0.0
  0
SPLINE
  5
291
100
AcDbEntity
  8
0
100
AcDbSpline
 62
7
  6
BYLAYER
 70
0
 71
3
 72
14
 73
10
 74
0
 42
0.0000001
 43
0.0000001
 44
0.0000000001
 40
0.0
 40
0.0
 40
0.0
 40
0.0
 40
0.0239027055
 40
0.0742861616
 40
0.1547231855
 40
0.2653772469
 40
0.4059040663
 40
0.5758134295
 40
1.0
 40
1.0
 40
1.0
 40
1.0
 10
29.358948714
 20
16.6970923867
 30
0.0
 10
29.3596896932
 20
16.6970862985
 30
0.0
 10
29.361317354
 20
16.699406127
 30
0.0
 10
29.3623856306
 20
16.7037759862
 30
0.0
 10
29.3637867277
 20
16.7112961961
 30
0.0
 10
29.3648266235
 20
16.7214638411
 30
0.0
 10
29.365749379
 20
16.7345110061
 30
0.0
 10
29.366680009
 20
16.7572570155
 30
0.0
 10
29.3668608118
 20
16.7756828568
 30
0.0
 10
29.3668609871
 20
16.7888330009
 30
0.0
  0
SPLINE
  5
292
100
AcDbEntity
  8
0
100
AcDbSpline
 62
7
  6
BYLAYER
 70
0
 71
3
 72
25
 73
21
 74
0
 42
0.0000001
 43
0.0000001
 44
0.0000000001
 40
0.0
 40
0.0
 40
0.0
 40
0.0
 40
0.0213319025
 40
0.0428919457
 40
0.0648973843
 40
0.0875416961
 40
0.1353167895
 40
0.1872174294
 40
0.2436545993
 40
0.304602289
 40
0.3696905114
 40
0.4382882868
 40
0.5095749344
 40
0.5825994469
 40
0.6563313808
 40
0.7297086177
 40
0.8016865587
 40
0.8712739706
 40
0.9376235182
 40
1.0
 40
1.0
 40
1.0
 40
1.0
 10
18.1169039595
 20
13.9310560918
 30
0.0
 10
18.1169115215
 20
13.8459391587
 30
0.0
 10
18.1279011771
 20
13.6745997101
 30
0.0
 10
18.1770930572
 20
13.4197146577
 30
0.0
 10
18.2587979108
 20
13.1677942091
 30
0.0
 10
18.412809076
 20
12.8319195987
 30
0.0
 10
18.6892818974
 20
12.4251494955
 30
0.0
 10
19.1308779799
 20
11.9817747621
 30
0.0
 10
19.6781504441
 20
11.5818410986
 30
0.0
 10
20.319365046
 20
11.2330906321
 30
0.0
 10
21.0411266628
 20
10.9423240597
 30
0.0
 10
21.828254029
 20
10.715485613
 30
0.0
 10
22.6641059418
 20
10.5572912786
 30
0.0
 10
23.5309273276
 20
10.4710863109
 30
0.0
 10
24.4102483274
 20
10.4587084706
 30
0.0
 10
25.2833208804
 20
10.5204280046
 30
0.0
 10
26.1314821895
 20
10.654947613
 30
0.0
 10
26.9368267256
 20
10.8593554331
 30
0.0
 10
27.6820173155
 20
11.1294091295
 30
0.0
 10
28.1440058158
 20
11.357167177
 30
0.0
 10
28.3595511041
 20
11.4816115644
 30
0.0
  0
SPLINE
  5
293
100
AcDbEntity
  8
0
100
AcDbSpline
 62
7
  6
BYLAYER
 70
0
 71
3
 72
18
 73
14
 74
0
 42
0.0000001
 43
0.0000001
 44
0.0000000001
 40
0.0
 40
0.0
 40
0.0
 40
0.0
 40
0.0560687856
 40
0.1147542042
 40
0.1757358364
 40
0.2387089061
 40
0.3691107753
 40
0.5027150372
 40
0.635945988
 40
0.7652552313
 40
0.8274491571
 40
0.8875044813
 40
1.0
 40
1.0
 40
1.0
 40
1.0
 10
28.3595511041
 20
6.5825970616
 30
0.0
 10
28.213598566
 20
6.4983318275
 30
0.0
 10
27.9070557853
 20
6.3391661468
 30
0.0
 10
27.4201339475
 20
6.1332022853
 30
0.0
 10
26.8998521133
 20
5.9565534034
 30
0.0
 10
26.1604639757
 20
5.7601908434
 30
0.0
 10
25.1880007251
 20
5.6001500067
 30
0.0
 10
23.9926427572
 20
5.5456270826
 30
0.0
 10
22.802172677
 20
5.6285007037
 30
0.0
 10
21.8406544885
 20
5.8117418611
 30
0.0
 10
21.1148877751
 20
6.0259958388
 30
0.0
 10
20.4534801865
 20
6.2725506293
 30
0.0
 10
19.9874545409
 20
6.5071148092
 30
0.0
 10
19.7010450096
 20
6.6868566578
 30
0.0
  0
SPLINE
  5
294
100
AcDbEntity
  8
0
100
AcDbSpline
 62
7
  6
BYLAYER
 70
0
 71
3
 72
9
 73
5
 74
0
 42
0.0000001
 43
0.0000001
 44
0.0000000001
 40
0.0
 40
0.0
 40
0.0
 40
0.0
 40
0.2597413273
 40
1.0
 40
1.0
 40
1.0
 40
1.0
 10
19.7010450096
 20
6.6868566578
 30
0.0
 10
19.6392752376
 20
6.7256214746
 30
0.0
 10
19.404589651
 20
6.8797257479
 30
0.0
 10
19.1828480827
 20
7.0540376389
 30
0.0
 10
19.0301124554
 20
7.1949935041
 30
0.0
  0
ENDSEC
  0
SECTION
  2
OBJECTS
  0
DICTIONARY
  5
C
100
AcDbDictionary
280
0
281
1
  3
ACAD_GROUP
350
D
  3
ACAD_MLINESTYLE
350
17
  3
ACAD_LAYOUT
350
1A
  3
ACAD_PLOTSETTINGS
350
19
  3
ACAD_PLOTSTYLENAME
350
E
  0
DICTIONARY
  5
D
102
{ACAD_REACTORS
330
C
102
}
100
AcDbDictionary
280
0
281
1
  0
ACDBDICTIONARYWDFLT
  5
E
102
{ACAD_REACTORS
330
C
102
}
100
AcDbDictionary
281
1
  3
Normal
350
F
100
AcDbDictionaryWithDefault
340
F
  0
DICTIONARY
  5
17
102
{ACAD_REACTORS
330
C
102
}
100
AcDbDictionary
280
0
281
1
  3
Standard
350
18
  0
DICTIONARY
  5
19
102
{ACAD_REACTORS
330
C
102
}
100
AcDbDictionary
281
1
  0
DICTIONARY
  5
1A
102
{ACAD_REACTORS
330
C
102
}
100
AcDbDictionary
281
1
  3
Model
350
295
  3
Layout1
350
296
  0
ACDBPLACEHOLDER
  5
F
102
{ACAD_REACTORS
330
E
102
}
  0
MLINESTYLE
  5
18
102
{ACAD_REACTORS
330
17
102
}
100
AcDbMlineStyle
  2
STANDARD
 70
0
  3

 62
256
 51
90.0
 52
90.0
 71
2
 49
0.5
 62
256
  6
BYLAYER
 49
-0.5
 62
256
  6
BYLAYER
  0
LAYOUT
  5
295
102
{ACAD_REACTORS
330
1A
102
}
100
AcDbPlotSettings
  1

  2
none_device
  4

  6

 40
0.0
 41
0.0
 42
0.0
 43
0.0
 44
210.0
 45
297.0
 46
0.0
 47
0.0
 48
0.0
 49
0.0
140
0.0
141
0.0
142
1.0
143
1.0
 70
1024
 72
1
 73
0
 74
0
  7

 75
0
147
1.0
148
0.0
149
0.0
100
AcDbLayout
  1
Model
 70
0
 71
0
 10
0.0
 20
0.0
 11
210.0
 21
297.0
 12
0.0
 22
0.0
 32
0.0
 14
0.0
 24
0.0
 34
0.0
 15
0.0
 25
0.0
 35
0.0
146
0.0
 13
0.0
 23
0.0
 33
0.0
 16
1.0
 26
0.0
 36
0.0
 17
0.0
 27
1.0
 37
0.0
 76
0
330
210
345
0
346
0
  0
LAYOUT
  5
296
102
{ACAD_REACTORS
330
1A
102
}
100
AcDbPlotSettings
  1

  2
none_device
  4

  6

 40
0.0
 41
0.0
 42
0.0
 43
0.0
 44
210.0
 45
297.0
 46
0.0
 47
0.0
 48
0.0
 49
0.0
140
0.0
141
0.0
142
1.0
143
1.0
 70
0
 72
1
 73
0
 74
0
  7

 75
0
147
1.0
148
0.0
149
0.0
100
AcDbLayout
  1
Layout1
 70
0
 71
1
 10
0.0
 20
0.0
 11
210.0
 21
297.0
 12
0.0
 22
0.0
 32
0.0
 14
0.0
 24
0.0
 34
0.0
 15
0.0
 25
0.0
 35
0.0
146
0.0
 13
0.0
 23
0.0
 33
0.0
 16
1.0
 26
0.0
 36
0.0
 17
0.0
 27
1.0
 37
0.0
 76
0
330
211
345
0
346
0
  0
ENDSEC
  0
EOF
