999
DXF file: C:\Users\sesa63760\Dev\_Creo\CAD\MCADID0004077_3D-CAD\drw0001_5.dxf
999
Pro/ENGINEER 2019471 by Parametric Technology Corporation
  0
SECTION
  2
HEADER
  9
$ACADVER
  1
AC1024
  9
$DWGCODEPAGE
  3
ANSI_1252
  9
$EXTMAX
 10
55.5782312925
 20
78.6034985423
 30
0.0
  9
$EXTMIN
 10
0.0
 20
0.0
 30
0.0
  9
$LIMMIN
 10
0.0
 20
0.0
  9
$LIMMAX
 10
55.5782312925
 20
78.6034985423
  9
$VIEWCTR
 10
27.7891156463
 20
39.3017492711
  9
$VIEWSIZE
 40
78.6034985423
  9
$CLAYER
  8
0
  9
$LTSCALE
 40
5.1237836087
  9
$CELTYPE
  6
BYLAYER
  9
$DIMSCALE
 40
1.0
  9
$DIMASZ
 40
0.6616456106
  9
$DIMEXO
 40
1.0
  9
$DIMDLI
 40
3.5400686751
  9
$DIMEXE
 40
1.0
  9
$DIMCEN
 40
0.8384373178
  9
$DIMLFAC
 40
1.0
  9
$DIMBLK
  1
_FILLED
  9
$DIMALT
 70
0
  9
$DIMALTF
 40
0.0393700787
  9
$DIMTXT
 40
0.9263038549
  9
$DIMTOL
 70
1
  9
$DIMLIM
 70
0
  9
$DIMTFAC
 40
1.0
  9
$DIMTP
 40
0.01
  9
$DIMTM
 40
0.01
  9
$DIMGAP
 40
0.625
  9
$DIMDSEP
 70
46
  9
$AUNITS
 70
0
  9
$PDMODE
 70
3
  9
$PDSIZE
 40
0.3125
  9
$HANDSEED
  5
24F
  9
$TILEMODE
 70
1
  9
$MEASUREMENT
 70
1
  9
$INSUNITS
 70
4
  0
ENDSEC
  0
SECTION
  2
CLASSES
  0
CLASS
  1
ACDBDICTIONARYWDFLT
  2
AcDbDictionaryWithDefault
  3
AutoCAD 2000
 90
0
 91
1
280
0
281
0
  0
CLASS
  1
ACDBPLACEHOLDER
  2
AcDbPlaceHolder
  3
AutoCAD 2000
 90
0
 91
1
280
0
281
0
  0
CLASS
  1
LAYOUT
  2
AcDbLayout
  3
AutoCAD 2000
 90
0
 91
0
280
0
281
0
  0
ENDSEC
  0
SECTION
  2
TABLES
  0
TABLE
  2
VPORT
  5
8
100
AcDbSymbolTable
 70
2
  0
VPORT
  5
1F4
100
AcDbSymbolTableRecord
100
AcDbViewportTableRecord
  2
*ACTIVE
 70
0
 10
0.0
 20
0.0
 11
1.0
 21
1.0
 12
27.7891156463
 22
39.3017492711
 13
0.0
 23
0.0
 14
1.0
 24
1.0
 15
0.0
 25
0.0
 16
0.0
 26
0.0
 36
1.0
 17
0.0
 27
0.0
 37
0.0
 40
78.6034985423
 41
0.7070707071
 42
50.0
 43
0.0
 44
0.0
 50
0.0
 51
0.0
 71
0
 72
100
 73
1
 74
1
 75
0
 76
0
 77
0
 78
0
  0
ENDTAB
  0
TABLE
  2
LTYPE
  5
5
100
AcDbSymbolTable
 70
6
  0
LTYPE
  5
14
100
AcDbSymbolTableRecord
100
AcDbLinetypeTableRecord
  2
BYBLOCK
 70
0
  3

 72
65
 73
0
 40
0.0
  0
LTYPE
  5
15
100
AcDbSymbolTableRecord
100
AcDbLinetypeTableRecord
  2
BYLAYER
 70
0
  3

 72
65
 73
0
 40
0.0
  0
LTYPE
  5
16
100
AcDbSymbolTableRecord
100
AcDbLinetypeTableRecord
  2
CONTINUOUS
 70
64
  3
Solid line
 72
65
 73
0
 40
0.0
  0
LTYPE
  5
1F5
100
AcDbSymbolTableRecord
100
AcDbLinetypeTableRecord
  2
CENTER
 70
64
  3
____ _ ____ _ ____ _ ____ _ ____ _ ____ _ ____
 72
65
 73
4
 40
0.6
 49
0.375
 74
0
 49
-0.075
 74
0
 49
0.075
 74
0
 49
-0.075
 74
0
  0
LTYPE
  5
1F6
100
AcDbSymbolTableRecord
100
AcDbLinetypeTableRecord
  2
HIDDEN
 70
64
  3
- - - - - - - - - - - - - - - - - - - -
 72
65
 73
2
 40
0.2
 49
0.1
 74
0
 49
-0.1
 74
0
  0
LTYPE
  5
1F7
100
AcDbSymbolTableRecord
100
AcDbLinetypeTableRecord
  2
PHANTOM
 70
64
  3
_____ _ _ _____ _ _ _____ _ _ _____
 72
65
 73
6
 40
0.8
 49
0.45
 74
0
 49
-0.05
 74
0
 49
0.1
 74
0
 49
-0.05
 74
0
 49
0.1
 74
0
 49
-0.05
 74
0
  0
LTYPE
  5
1F8
100
AcDbSymbolTableRecord
100
AcDbLinetypeTableRecord
  2
DOT
 70
64
  3
. . . . . . . . . . . . . . . . . . . .
 72
65
 73
2
 40
0.2
 49
0.1
 74
0
 49
-0.1
 74
0
  0
LTYPE
  5
1F9
100
AcDbSymbolTableRecord
100
AcDbLinetypeTableRecord
  2
DASHED
 70
64
  3
- - - - - - - - - - - - - - - - - - - -
 72
65
 73
2
 40
0.2
 49
0.1
 74
0
 49
-0.1
 74
0
  0
ENDTAB
  0
TABLE
  2
LAYER
  5
2
100
AcDbSymbolTable
 70
36
  0
LAYER
  5
10
100
AcDbSymbolTableRecord
100
AcDbLayerTableRecord
  2
0
 70
0
 62
7
  6
CONTINUOUS
370
-3
390
F
  0
LAYER
  5
1FA
100
AcDbSymbolTableRecord
100
AcDbLayerTableRecord
  2
DEFAULT_1
 70
0
 62
7
  6
CENTER
370
-3
390
F
  0
LAYER
  5
1FB
100
AcDbSymbolTableRecord
100
AcDbLayerTableRecord
  2
DEFAULT_2
 70
0
 62
7
  6
HIDDEN
370
-3
390
F
  0
LAYER
  5
1FC
100
AcDbSymbolTableRecord
100
AcDbLayerTableRecord
  2
DEFAULT_3
 70
0
 62
7
  6
PHANTOM
370
-3
390
F
  0
LAYER
  5
1FD
100
AcDbSymbolTableRecord
100
AcDbLayerTableRecord
  2
00_COMPONENTS
 70
0
 62
7
  6
CONTINUOUS
370
-3
390
F
  0
LAYER
  5
1FE
100
AcDbSymbolTableRecord
100
AcDbLayerTableRecord
  2
01_1_DEFAULT_DATUMS
 70
0
 62
7
  6
CONTINUOUS
370
-3
390
F
  0
LAYER
  5
1FF
100
AcDbSymbolTableRecord
100
AcDbLayerTableRecord
  2
01_PLANES
 70
0
 62
7
  6
CONTINUOUS
370
-3
390
F
  0
LAYER
  5
200
100
AcDbSymbolTableRecord
100
AcDbLayerTableRecord
  2
02_COORD_SYS
 70
0
 62
7
  6
CONTINUOUS
370
-3
390
F
  0
LAYER
  5
201
100
AcDbSymbolTableRecord
100
AcDbLayerTableRecord
  2
03_AXES
 70
0
 62
7
  6
CONTINUOUS
370
-3
390
F
  0
LAYER
  5
202
100
AcDbSymbolTableRecord
100
AcDbLayerTableRecord
  2
04_POINTS
 70
0
 62
7
  6
CONTINUOUS
370
-3
390
F
  0
LAYER
  5
203
100
AcDbSymbolTableRecord
100
AcDbLayerTableRecord
  2
05_CURVES
 70
0
 62
7
  6
CONTINUOUS
370
-3
390
F
  0
LAYER
  5
204
100
AcDbSymbolTableRecord
100
AcDbLayerTableRecord
  2
06_SURFS
 70
0
 62
7
  6
CONTINUOUS
370
-3
390
F
  0
LAYER
  5
205
100
AcDbSymbolTableRecord
100
AcDbLayerTableRecord
  2
07_COSMETICS
 70
0
 62
7
  6
CONTINUOUS
370
-3
390
F
  0
LAYER
  5
206
100
AcDbSymbolTableRecord
100
AcDbLayerTableRecord
  2
10_NOTES
 70
0
 62
7
  6
CONTINUOUS
370
-3
390
F
  0
LAYER
  5
207
100
AcDbSymbolTableRecord
100
AcDbLayerTableRecord
  2
11_NOTES_PUB
 70
0
 62
7
  6
CONTINUOUS
370
-3
390
F
  0
LAYER
  5
208
100
AcDbSymbolTableRecord
100
AcDbLayerTableRecord
  2
13_REF_GTOL
 70
0
 62
7
  6
CONTINUOUS
370
-3
390
F
  0
LAYER
  5
209
100
AcDbSymbolTableRecord
100
AcDbLayerTableRecord
  2
16_MISC
 70
0
 62
7
  6
CONTINUOUS
370
-3
390
F
  0
LAYER
  5
20A
100
AcDbSymbolTableRecord
100
AcDbLayerTableRecord
  2
17_NO_PRINT
 70
0
 62
7
  6
CONTINUOUS
370
-3
390
F
  0
LAYER
  5
20B
100
AcDbSymbolTableRecord
100
AcDbLayerTableRecord
  2
18_DATUM_CAMS_JOINTS
 70
0
 62
7
  6
CONTINUOUS
370
-3
390
F
  0
LAYER
  5
20C
100
AcDbSymbolTableRecord
100
AcDbLayerTableRecord
  2
19_DATUM_FUNCTIONAL
 70
0
 62
7
  6
CONTINUOUS
370
-3
390
F
  0
LAYER
  5
20D
100
AcDbSymbolTableRecord
100
AcDbLayerTableRecord
  2
20_DATUM_KINEMATIC_SCHEME
 70
0
 62
7
  6
CONTINUOUS
370
-3
390
F
  0
ENDTAB
  0
TABLE
  2
STYLE
  5
3
100
AcDbSymbolTable
 70
1
  0
STYLE
  5
11
100
AcDbSymbolTableRecord
100
AcDbTextStyleTableRecord
  2
STANDARD
 70
0
 40
0.0
 41
1.0
 50
0.0
 71
0
 42
0.2
  3
ARIAL.TTF
  4

  0
STYLE
  5
20E
100
AcDbSymbolTableRecord
100
AcDbTextStyleTableRecord
  2
TEXTSTYLE_1
 70
0
 40
0.0
 41
0.8
 50
0.0
 71
0
 42
0.2
  3
gdt
  4

  0
ENDTAB
  0
TABLE
  2
VIEW
  5
6
100
AcDbSymbolTable
 70
0
  0
ENDTAB
  0
TABLE
  2
UCS
  5
7
100
AcDbSymbolTable
 70
0
  0
ENDTAB
  0
TABLE
  2
APPID
  5
9
100
AcDbSymbolTable
 70
1
  0
APPID
  5
20F
100
AcDbSymbolTableRecord
100
AcDbRegAppTableRecord
  2
ACAD
 70
0
  0
ENDTAB
  0
TABLE
  2
BLOCK_RECORD
  5
1
100
AcDbSymbolTable
 70
0
  0
BLOCK_RECORD
  5
210
100
AcDbSymbolTableRecord
100
AcDbBlockTableRecord
  2
*Model_Space
  0
BLOCK_RECORD
  5
211
100
AcDbSymbolTableRecord
100
AcDbBlockTableRecord
  2
*Paper_Space
  0
BLOCK_RECORD
  5
212
100
AcDbSymbolTableRecord
100
AcDbBlockTableRecord
  2
_FILLED
  0
ENDTAB
  0
TABLE
  2
DIMSTYLE
  5
A
100
AcDbSymbolTable
 70
1
100
AcDbDimStyleTable
 71
0
  0
DIMSTYLE
105
213
100
AcDbSymbolTableRecord
100
AcDbDimStyleTableRecord
  2
STANDARD
 70
0
  3

  4

 40
1.0
 41
0.6616456106
 42
1.0
 43
0.38
 44
1.0
 45
0.0
 46
0.0
 47
0.01
 48
0.01
140
0.9263038549
141
0.09
142
0.0
143
25.4
144
1.0
145
0.0
146
1.0
147
0.625
 71
1
 72
0
 73
0
 74
0
 75
0
 76
0
 77
1
 78
8
 79
2
170
0
171
1
172
0
173
0
174
0
175
0
176
0
177
0
178
0
270
2
179
2
271
2
272
2
273
2
274
2
275
0
280
0
281
0
282
0
283
1
284
8
285
0
286
0
287
3
288
0
340
11
278
46
341
212
342
212
343
212
344
212
  0
ENDTAB
  0
ENDSEC
  0
SECTION
  2
BLOCKS
  0
BLOCK
  5
20
100
AcDbEntity
  8
0
100
AcDbBlockBegin
  2
*Model_Space
 70
0
 10
0.0
 20
0.0
 30
0.0
  3
*Model_Space
  1

  0
ENDBLK
  5
21
100
AcDbEntity
  8
0
100
AcDbBlockEnd
  0
BLOCK
  5
1C
100
AcDbEntity
  8
0
100
AcDbBlockBegin
  2
*Paper_Space
 70
0
 10
0.0
 20
0.0
 30
0.0
  3
*Paper_Space
  1

  0
ENDBLK
  5
1D
100
AcDbEntity
  8
0
100
AcDbBlockEnd
  0
BLOCK
  5
214
100
AcDbEntity
  8
0
100
AcDbBlockBegin
  2
_FILLED
 70
64
 10
0.0
 20
0.0
  3
_FILLED
  1

  0
SOLID
  5
215
100
AcDbEntity
  8
0
  6
BYBLOCK
 62
0
100
AcDbTrace
 10
0.0
 20
0.0
 11
-1.0
 21
0.25
 12
-1.0
 22
-0.25
 13
-1.0
 23
-0.25
  0
ENDBLK
  5
216
100
AcDbEntity
  8
0
  6
BYBLOCK
 62
0
100
AcDbBlockEnd
  0
ENDSEC
  0
SECTION
  2
ENTITIES
  0
LINE
  5
217
100
AcDbEntity
  8
0
100
AcDbLine
 62
7
  6
BYLAYER
 10
33.8087849534
 20
6.3979591837
 11
23.3088049397
 21
6.3979591837
  0
LINE
  5
218
100
AcDbEntity
  8
0
100
AcDbLine
 62
7
  6
BYLAYER
 10
34.5587949466
 20
7.1479591837
 11
22.5587949466
 21
7.1479591837
  0
LINE
  5
219
100
AcDbEntity
  8
0
100
AcDbLine
 62
7
  6
BYLAYER
 10
23.3087949466
 20
6.3979591837
 11
22.5587949466
 21
7.1479591837
  0
LINE
  5
21A
100
AcDbEntity
  8
0
100
AcDbLine
 62
7
  6
BYLAYER
 10
22.5587949466
 20
13.6479591837
 11
34.5587949466
 21
13.6479591837
  0
LINE
  5
21B
100
AcDbEntity
  8
0
100
AcDbLine
 62
7
  6
BYLAYER
 10
33.8087949466
 20
14.3979591837
 11
23.3087949466
 21
14.3979591837
  0
LINE
  5
21C
100
AcDbEntity
  8
0
100
AcDbLine
 62
7
  6
BYLAYER
 10
23.3087949466
 20
24.3979591837
 11
33.8087949466
 21
24.3979591837
  0
LINE
  5
21D
100
AcDbEntity
  8
0
100
AcDbLine
 62
7
  6
BYLAYER
 10
33.8087949466
 20
14.3979591837
 11
34.5587949466
 21
13.6479591837
  0
LINE
  5
21E
100
AcDbEntity
  8
0
100
AcDbLine
 62
7
  6
BYLAYER
 10
32.5587949466
 20
26.3979591837
 11
24.5587949466
 21
26.3979591837
  0
LINE
  5
21F
100
AcDbEntity
  8
0
100
AcDbLine
 62
7
  6
BYLAYER
 10
22.0587949466
 20
68.3979591837
 11
22.0587949466
 21
60.3979591837
  0
LINE
  5
220
100
AcDbEntity
  8
0
100
AcDbLine
 62
7
  6
BYLAYER
 10
22.5587949466
 20
7.1479591837
 11
22.5587949466
 21
13.6479591837
  0
LINE
  5
221
100
AcDbEntity
  8
0
100
AcDbLine
 62
7
  6
BYLAYER
 10
23.3087949466
 20
14.3979591837
 11
23.3087949466
 21
24.3979591837
  0
LINE
  5
222
100
AcDbEntity
  8
0
100
AcDbLine
 62
7
  6
BYLAYER
 10
24.5587949466
 20
26.3979591837
 11
24.5587949466
 21
60.3979591837
  0
LINE
  5
223
100
AcDbEntity
  8
0
100
AcDbLine
 62
7
  6
BYLAYER
 10
25.3087949466
 20
68.3979591837
 11
25.3087949466
 21
72.3979591837
  0
LINE
  5
224
100
AcDbEntity
  8
0
100
AcDbLine
 62
7
  6
BYLAYER
 10
32.5587949466
 20
26.3979591837
 11
33.8087949466
 21
24.3979591837
  0
LINE
  5
225
100
AcDbEntity
  8
0
100
AcDbLine
 62
7
  6
BYLAYER
 10
28.5587949466
 20
67.8174026001
 11
28.5587949466
 21
64.9785157673
  0
LINE
  5
226
100
AcDbEntity
  8
0
100
AcDbLine
 62
7
  6
BYLAYER
 10
28.5587949466
 20
63.8174026001
 11
28.5587949466
 21
60.9785157673
  0
LINE
  5
227
100
AcDbEntity
  8
0
100
AcDbLine
 62
7
  6
BYLAYER
 10
31.8087949466
 20
68.3979591837
 11
31.8087949466
 21
72.3979591837
  0
LINE
  5
228
100
AcDbEntity
  8
0
100
AcDbLine
 62
7
  6
BYLAYER
 10
32.5587949466
 20
26.3979591837
 11
32.5587949466
 21
60.3979591837
  0
LINE
  5
229
100
AcDbEntity
  8
0
100
AcDbLine
 62
7
  6
BYLAYER
 10
24.5587949466
 20
26.3979591837
 11
23.3087949466
 21
24.3979591837
  0
LINE
  5
22A
100
AcDbEntity
  8
0
100
AcDbLine
 62
7
  6
BYLAYER
 10
33.8087949466
 20
14.3979591837
 11
33.8087949466
 21
24.3979591837
  0
LINE
  5
22B
100
AcDbEntity
  8
0
100
AcDbLine
 62
7
  6
BYLAYER
 10
34.5587949466
 20
7.1479591837
 11
34.5587949466
 21
13.6479591837
  0
LINE
  5
22C
100
AcDbEntity
  8
0
100
AcDbLine
 62
7
  6
BYLAYER
 10
35.0587949466
 20
60.3979591837
 11
35.0587949466
 21
68.3979591837
  0
LINE
  5
22D
100
AcDbEntity
  8
0
100
AcDbLine
 62
7
  6
BYLAYER
 10
23.3087949466
 20
14.3979591837
 11
22.5587949466
 21
13.6479591837
  0
LINE
  5
22E
100
AcDbEntity
  8
0
100
AcDbLine
 62
7
  6
BYLAYER
 10
35.0587949466
 20
60.3979591837
 11
22.0587949466
 21
60.3979591837
  0
LINE
  5
22F
100
AcDbEntity
  8
0
100
AcDbLine
 62
7
  6
BYLAYER
 10
33.8087949466
 20
6.3979591837
 11
34.5587949466
 21
7.1479591837
  0
LINE
  5
230
100
AcDbEntity
  8
0
100
AcDbLine
 62
7
  6
BYLAYER
 10
35.0587949466
 20
64.3979591837
 11
22.0587949466
 21
64.3979591837
  0
LINE
  5
231
100
AcDbEntity
  8
0
100
AcDbLine
 62
7
  6
BYLAYER
 10
22.0587949466
 20
68.3979591837
 11
35.0587949466
 21
68.3979591837
  0
LINE
  5
232
100
AcDbEntity
  8
0
100
AcDbLine
 62
7
  6
BYLAYER
 10
25.3088048325
 20
72.3979591837
 11
31.8087850606
 21
72.3979591837
  0
ARC
  5
233
100
AcDbEntity
  8
0
100
AcDbCircle
 62
7
  6
BYLAYER
 10
31.9175521572
 20
16.3979591837
 40
0.5
100
AcDbArc
 50
291.3577976265
 51
68.0853534328
  0
ARC
  5
234
100
AcDbEntity
  8
0
100
AcDbCircle
 62
7
  6
BYLAYER
 10
25.2000377359
 20
16.3979591837
 40
0.5
100
AcDbArc
 50
111.3577976265
 51
248.0853534328
  0
SPLINE
  5
235
100
AcDbEntity
  8
0
100
AcDbSpline
 62
7
  6
BYLAYER
 70
0
 71
3
 72
13
 73
9
 74
0
 42
0.0000001
 43
0.0000001
 44
0.0000000001
 40
0.0
 40
0.0
 40
0.0
 40
0.0
 40
0.2513855782
 40
0.5016831749
 40
0.6264930183
 40
0.7511112818
 40
0.8755962448
 40
1.0
 40
1.0
 40
1.0
 40
1.0
 10
22.0587949466
 20
63.8174026001
 30
0.0
 10
22.3223720395
 20
63.9052616311
 30
0.0
 10
22.8533053818
 20
64.0663898138
 30
0.0
 10
23.5288432072
 20
64.2215776895
 30
0.0
 10
24.0738767213
 20
64.3118293948
 30
0.0
 10
24.4843202915
 20
64.3612101373
 30
0.0
 10
24.8961801864
 20
64.3912458387
 30
0.0
 10
25.1713022783
 20
64.3979591837
 30
0.0
 10
25.3087949466
 20
64.3979591837
 30
0.0
  0
SPLINE
  5
236
100
AcDbEntity
  8
0
100
AcDbSpline
 62
7
  6
BYLAYER
 70
0
 71
3
 72
13
 73
9
 74
0
 42
0.0000001
 43
0.0000001
 44
0.0000000001
 40
0.0
 40
0.0
 40
0.0
 40
0.0
 40
0.1244037923
 40
0.2488888388
 40
0.3735071292
 40
0.4983169576
 40
0.7486145012
 40
1.0
 40
1.0
 40
1.0
 40
1.0
 10
31.8087949466
 20
64.3979591837
 30
0.0
 10
31.9462876561
 20
64.3979591837
 30
0.0
 10
32.221409875
 20
64.3912456959
 30
0.0
 10
32.6332699538
 20
64.3612102056
 30
0.0
 10
33.0437135747
 20
64.3118290087
 30
0.0
 10
33.5887471296
 20
64.2215778781
 30
0.0
 10
34.26428481
 20
64.0663899683
 30
0.0
 10
34.7952179363
 20
63.9052616035
 30
0.0
 10
35.0587949466
 20
63.8174026001
 30
0.0
  0
SPLINE
  5
237
100
AcDbEntity
  8
0
100
AcDbSpline
 62
7
  6
BYLAYER
 70
0
 71
3
 72
13
 73
9
 74
0
 42
0.0000001
 43
0.0000001
 44
0.0000000001
 40
0.0
 40
0.0
 40
0.0
 40
0.0
 40
0.1244037923
 40
0.2488888388
 40
0.3735071292
 40
0.4983169576
 40
0.7486145012
 40
1.0
 40
1.0
 40
1.0
 40
1.0
 10
25.3087949466
 20
60.3979591837
 30
0.0
 10
25.171302237
 20
60.3979591837
 30
0.0
 10
24.8961800181
 20
60.4046726715
 30
0.0
 10
24.4843199393
 20
60.4347081617
 30
0.0
 10
24.0738763184
 20
60.4840893587
 30
0.0
 10
23.5288427635
 20
60.5743404893
 30
0.0
 10
22.8533050831
 20
60.729528399
 30
0.0
 10
22.3223719568
 20
60.8906567639
 30
0.0
 10
22.0587949466
 20
60.9785157673
 30
0.0
  0
SPLINE
  5
238
100
AcDbEntity
  8
0
100
AcDbSpline
 62
7
  6
BYLAYER
 70
0
 71
3
 72
13
 73
9
 74
0
 42
0.0000001
 43
0.0000001
 44
0.0000000001
 40
0.0
 40
0.0
 40
0.0
 40
0.0
 40
0.2513855782
 40
0.5016831749
 40
0.6264930183
 40
0.7511112818
 40
0.8755962448
 40
1.0
 40
1.0
 40
1.0
 40
1.0
 10
28.5587949466
 20
60.9785157673
 30
0.0
 10
28.2952178536
 20
60.8906567363
 30
0.0
 10
27.7642845113
 20
60.7295285535
 30
0.0
 10
27.0887466859
 20
60.5743406778
 30
0.0
 10
26.5437131718
 20
60.4840889725
 30
0.0
 10
26.1332696016
 20
60.4347082301
 30
0.0
 10
25.7214097067
 20
60.4046725286
 30
0.0
 10
25.4462876148
 20
60.3979591837
 30
0.0
 10
25.3087949466
 20
60.3979591837
 30
0.0
  0
SPLINE
  5
239
100
AcDbEntity
  8
0
100
AcDbSpline
 62
7
  6
BYLAYER
 70
0
 71
3
 72
13
 73
9
 74
0
 42
0.0000001
 43
0.0000001
 44
0.0000000001
 40
0.0
 40
0.0
 40
0.0
 40
0.0
 40
0.1244037923
 40
0.2488888388
 40
0.3735071292
 40
0.4983169576
 40
0.7486145012
 40
1.0
 40
1.0
 40
1.0
 40
1.0
 10
31.8087949466
 20
60.3979591837
 30
0.0
 10
31.671302237
 20
60.3979591837
 30
0.0
 10
31.3961800181
 20
60.4046726715
 30
0.0
 10
30.9843199393
 20
60.4347081617
 30
0.0
 10
30.5738763184
 20
60.4840893587
 30
0.0
 10
30.0288427635
 20
60.5743404893
 30
0.0
 10
29.3533050831
 20
60.729528399
 30
0.0
 10
28.8223719568
 20
60.8906567639
 30
0.0
 10
28.5587949466
 20
60.9785157673
 30
0.0
  0
SPLINE
  5
23A
100
AcDbEntity
  8
0
100
AcDbSpline
 62
7
  6
BYLAYER
 70
0
 71
3
 72
13
 73
9
 74
0
 42
0.0000001
 43
0.0000001
 44
0.0000000001
 40
0.0
 40
0.0
 40
0.0
 40
0.0
 40
0.2513855782
 40
0.5016831749
 40
0.6264930183
 40
0.7511112818
 40
0.8755962448
 40
1.0
 40
1.0
 40
1.0
 40
1.0
 10
28.5587949466
 20
63.8174026001
 30
0.0
 10
28.8223720395
 20
63.9052616311
 30
0.0
 10
29.3533053818
 20
64.0663898138
 30
0.0
 10
30.0288432072
 20
64.2215776895
 30
0.0
 10
30.5738767213
 20
64.3118293948
 30
0.0
 10
30.9843202915
 20
64.3612101373
 30
0.0
 10
31.3961801864
 20
64.3912458387
 30
0.0
 10
31.6713022783
 20
64.3979591837
 30
0.0
 10
31.8087949466
 20
64.3979591837
 30
0.0
  0
SPLINE
  5
23B
100
AcDbEntity
  8
0
100
AcDbSpline
 62
7
  6
BYLAYER
 70
0
 71
3
 72
13
 73
9
 74
0
 42
0.0000001
 43
0.0000001
 44
0.0000000001
 40
0.0
 40
0.0
 40
0.0
 40
0.0
 40
0.1244037923
 40
0.2488888388
 40
0.3735071292
 40
0.4983169576
 40
0.7486145012
 40
1.0
 40
1.0
 40
1.0
 40
1.0
 10
25.3087949466
 20
64.3979591837
 30
0.0
 10
25.4462876561
 20
64.3979591837
 30
0.0
 10
25.721409875
 20
64.3912456959
 30
0.0
 10
26.1332699538
 20
64.3612102056
 30
0.0
 10
26.5437135747
 20
64.3118290087
 30
0.0
 10
27.0887471296
 20
64.2215778781
 30
0.0
 10
27.76428481
 20
64.0663899683
 30
0.0
 10
28.2952179363
 20
63.9052616035
 30
0.0
 10
28.5587949466
 20
63.8174026001
 30
0.0
  0
SPLINE
  5
23C
100
AcDbEntity
  8
0
100
AcDbSpline
 62
7
  6
BYLAYER
 70
0
 71
3
 72
13
 73
9
 74
0
 42
0.0000001
 43
0.0000001
 44
0.0000000001
 40
0.0
 40
0.0
 40
0.0
 40
0.0
 40
0.2513855782
 40
0.5016831749
 40
0.6264930183
 40
0.7511112818
 40
0.8755962448
 40
1.0
 40
1.0
 40
1.0
 40
1.0
 10
35.0587949466
 20
60.9785157673
 30
0.0
 10
34.7952178536
 20
60.8906567363
 30
0.0
 10
34.2642845113
 20
60.7295285535
 30
0.0
 10
33.5887466859
 20
60.5743406778
 30
0.0
 10
33.0437131718
 20
60.4840889725
 30
0.0
 10
32.6332696016
 20
60.4347082301
 30
0.0
 10
32.2214097067
 20
60.4046725286
 30
0.0
 10
31.9462876148
 20
60.3979591837
 30
0.0
 10
31.8087949466
 20
60.3979591837
 30
0.0
  0
SPLINE
  5
23D
100
AcDbEntity
  8
0
100
AcDbSpline
 62
7
  6
BYLAYER
 70
0
 71
3
 72
13
 73
9
 74
0
 42
0.0000001
 43
0.0000001
 44
0.0000000001
 40
0.0
 40
0.0
 40
0.0
 40
0.0
 40
0.2513855782
 40
0.5016831749
 40
0.6264930183
 40
0.7511112818
 40
0.8755962448
 40
1.0
 40
1.0
 40
1.0
 40
1.0
 10
22.0587949466
 20
67.8174026001
 30
0.0
 10
22.3223720395
 20
67.9052616311
 30
0.0
 10
22.8533053818
 20
68.0663898138
 30
0.0
 10
23.5288432072
 20
68.2215776895
 30
0.0
 10
24.0738767213
 20
68.3118293948
 30
0.0
 10
24.4843202915
 20
68.3612101373
 30
0.0
 10
24.8961801864
 20
68.3912458387
 30
0.0
 10
25.1713022783
 20
68.3979591837
 30
0.0
 10
25.3087949466
 20
68.3979591837
 30
0.0
  0
SPLINE
  5
23E
100
AcDbEntity
  8
0
100
AcDbSpline
 62
7
  6
BYLAYER
 70
0
 71
3
 72
13
 73
9
 74
0
 42
0.0000001
 43
0.0000001
 44
0.0000000001
 40
0.0
 40
0.0
 40
0.0
 40
0.0
 40
0.1244037923
 40
0.2488888388
 40
0.3735071292
 40
0.4983169576
 40
0.7486145012
 40
1.0
 40
1.0
 40
1.0
 40
1.0
 10
31.8087949466
 20
68.3979591837
 30
0.0
 10
31.9462876561
 20
68.3979591837
 30
0.0
 10
32.221409875
 20
68.3912456959
 30
0.0
 10
32.6332699538
 20
68.3612102056
 30
0.0
 10
33.0437135747
 20
68.3118290087
 30
0.0
 10
33.5887471296
 20
68.2215778781
 30
0.0
 10
34.26428481
 20
68.0663899683
 30
0.0
 10
34.7952179363
 20
67.9052616035
 30
0.0
 10
35.0587949466
 20
67.8174026001
 30
0.0
  0
SPLINE
  5
23F
100
AcDbEntity
  8
0
100
AcDbSpline
 62
7
  6
BYLAYER
 70
0
 71
3
 72
13
 73
9
 74
0
 42
0.0000001
 43
0.0000001
 44
0.0000000001
 40
0.0
 40
0.0
 40
0.0
 40
0.0
 40
0.1244037923
 40
0.2488888388
 40
0.3735071292
 40
0.4983169576
 40
0.7486145012
 40
1.0
 40
1.0
 40
1.0
 40
1.0
 10
25.3087949466
 20
64.3979591837
 30
0.0
 10
25.171302237
 20
64.3979591837
 30
0.0
 10
24.8961800181
 20
64.4046726715
 30
0.0
 10
24.4843199393
 20
64.4347081617
 30
0.0
 10
24.0738763184
 20
64.4840893587
 30
0.0
 10
23.5288427635
 20
64.5743404893
 30
0.0
 10
22.8533050831
 20
64.729528399
 30
0.0
 10
22.3223719568
 20
64.8906567639
 30
0.0
 10
22.0587949466
 20
64.9785157673
 30
0.0
  0
SPLINE
  5
240
100
AcDbEntity
  8
0
100
AcDbSpline
 62
7
  6
BYLAYER
 70
0
 71
3
 72
13
 73
9
 74
0
 42
0.0000001
 43
0.0000001
 44
0.0000000001
 40
0.0
 40
0.0
 40
0.0
 40
0.0
 40
0.2513855782
 40
0.5016831749
 40
0.6264930183
 40
0.7511112818
 40
0.8755962448
 40
1.0
 40
1.0
 40
1.0
 40
1.0
 10
28.5587949466
 20
64.9785157673
 30
0.0
 10
28.2952178536
 20
64.8906567363
 30
0.0
 10
27.7642845113
 20
64.7295285535
 30
0.0
 10
27.0887466859
 20
64.5743406778
 30
0.0
 10
26.5437131718
 20
64.4840889725
 30
0.0
 10
26.1332696016
 20
64.4347082301
 30
0.0
 10
25.7214097067
 20
64.4046725286
 30
0.0
 10
25.4462876148
 20
64.3979591837
 30
0.0
 10
25.3087949466
 20
64.3979591837
 30
0.0
  0
SPLINE
  5
241
100
AcDbEntity
  8
0
100
AcDbSpline
 62
7
  6
BYLAYER
 70
0
 71
3
 72
13
 73
9
 74
0
 42
0.0000001
 43
0.0000001
 44
0.0000000001
 40
0.0
 40
0.0
 40
0.0
 40
0.0
 40
0.1244037923
 40
0.2488888388
 40
0.3735071292
 40
0.4983169576
 40
0.7486145012
 40
1.0
 40
1.0
 40
1.0
 40
1.0
 10
31.8087949466
 20
64.3979591837
 30
0.0
 10
31.671302237
 20
64.3979591837
 30
0.0
 10
31.3961800181
 20
64.4046726715
 30
0.0
 10
30.9843199393
 20
64.4347081617
 30
0.0
 10
30.5738763184
 20
64.4840893587
 30
0.0
 10
30.0288427635
 20
64.5743404893
 30
0.0
 10
29.3533050831
 20
64.729528399
 30
0.0
 10
28.8223719568
 20
64.8906567639
 30
0.0
 10
28.5587949466
 20
64.9785157673
 30
0.0
  0
SPLINE
  5
242
100
AcDbEntity
  8
0
100
AcDbSpline
 62
7
  6
BYLAYER
 70
0
 71
3
 72
13
 73
9
 74
0
 42
0.0000001
 43
0.0000001
 44
0.0000000001
 40
0.0
 40
0.0
 40
0.0
 40
0.0
 40
0.2513855782
 40
0.5016831749
 40
0.6264930183
 40
0.7511112818
 40
0.8755962448
 40
1.0
 40
1.0
 40
1.0
 40
1.0
 10
28.5587949466
 20
67.8174026001
 30
0.0
 10
28.8223720395
 20
67.9052616311
 30
0.0
 10
29.3533053818
 20
68.0663898138
 30
0.0
 10
30.0288432072
 20
68.2215776895
 30
0.0
 10
30.5738767213
 20
68.3118293948
 30
0.0
 10
30.9843202915
 20
68.3612101373
 30
0.0
 10
31.3961801864
 20
68.3912458387
 30
0.0
 10
31.6713022783
 20
68.3979591837
 30
0.0
 10
31.8087949466
 20
68.3979591837
 30
0.0
  0
SPLINE
  5
243
100
AcDbEntity
  8
0
100
AcDbSpline
 62
7
  6
BYLAYER
 70
0
 71
3
 72
13
 73
9
 74
0
 42
0.0000001
 43
0.0000001
 44
0.0000000001
 40
0.0
 40
0.0
 40
0.0
 40
0.0
 40
0.1244037923
 40
0.2488888388
 40
0.3735071292
 40
0.4983169576
 40
0.7486145012
 40
1.0
 40
1.0
 40
1.0
 40
1.0
 10
25.3087949466
 20
68.3979591837
 30
0.0
 10
25.4462876561
 20
68.3979591837
 30
0.0
 10
25.721409875
 20
68.3912456959
 30
0.0
 10
26.1332699538
 20
68.3612102056
 30
0.0
 10
26.5437135747
 20
68.3118290087
 30
0.0
 10
27.0887471296
 20
68.2215778781
 30
0.0
 10
27.76428481
 20
68.0663899683
 30
0.0
 10
28.2952179363
 20
67.9052616035
 30
0.0
 10
28.5587949466
 20
67.8174026001
 30
0.0
  0
SPLINE
  5
244
100
AcDbEntity
  8
0
100
AcDbSpline
 62
7
  6
BYLAYER
 70
0
 71
3
 72
13
 73
9
 74
0
 42
0.0000001
 43
0.0000001
 44
0.0000000001
 40
0.0
 40
0.0
 40
0.0
 40
0.0
 40
0.2513855782
 40
0.5016831749
 40
0.6264930183
 40
0.7511112818
 40
0.8755962448
 40
1.0
 40
1.0
 40
1.0
 40
1.0
 10
35.0587949466
 20
64.9785157673
 30
0.0
 10
34.7952178536
 20
64.8906567363
 30
0.0
 10
34.2642845113
 20
64.7295285535
 30
0.0
 10
33.5887466859
 20
64.5743406778
 30
0.0
 10
33.0437131718
 20
64.4840889725
 30
0.0
 10
32.6332696016
 20
64.4347082301
 30
0.0
 10
32.2214097067
 20
64.4046725286
 30
0.0
 10
31.9462876148
 20
64.3979591837
 30
0.0
 10
31.8087949466
 20
64.3979591837
 30
0.0
  0
SPLINE
  5
245
100
AcDbEntity
  8
0
100
AcDbSpline
 62
7
  6
BYLAYER
 70
0
 71
3
 72
13
 73
9
 74
0
 42
0.0000001
 43
0.0000001
 44
0.0000000001
 40
0.0
 40
0.0
 40
0.0
 40
0.0
 40
0.1029562171
 40
0.2111301881
 40
0.3265218148
 40
0.4498013073
 40
0.7162942044
 40
1.0
 40
1.0
 40
1.0
 40
1.0
 10
32.2710830842
 20
16.8979365911
 30
0.0
 10
32.2476516651
 20
16.8979370097
 30
0.0
 10
32.1993833902
 20
16.8910735874
 30
0.0
 10
32.1303946396
 20
16.8615963404
 30
0.0
 10
32.0662588742
 20
16.8145096041
 30
0.0
 10
31.9887712409
 20
16.7286981354
 30
0.0
 10
31.9194525314
 20
16.5885249769
 30
0.0
 10
31.9006779307
 20
16.4625267212
 30
0.0
 10
31.9006779307
 20
16.3979591837
 30
0.0
  0
SPLINE
  5
246
100
AcDbEntity
  8
0
100
AcDbSpline
 62
7
  6
BYLAYER
 70
0
 71
3
 72
13
 73
9
 74
0
 42
0.0000001
 43
0.0000001
 44
0.0000000001
 40
0.0
 40
0.0
 40
0.0
 40
0.0
 40
0.2837394082
 40
0.5501945371
 40
0.6734612356
 40
0.7888530669
 40
0.8970373102
 40
1.0
 40
1.0
 40
1.0
 40
1.0
 10
25.2169119624
 20
16.3979591837
 30
0.0
 10
25.2169119624
 20
16.4625344404
 30
0.0
 10
25.1981385319
 20
16.5885337487
 30
0.0
 10
25.1288135661
 20
16.7286971698
 30
0.0
 10
25.0513401239
 20
16.8145065549
 30
0.0
 10
24.987202124
 20
16.8615891911
 30
0.0
 10
24.9182123617
 20
16.8910742151
 30
0.0
 10
24.869939723
 20
16.8979361724
 30
0.0
 10
24.8465068056
 20
16.8979365911
 30
0.0
  0
SPLINE
  5
247
100
AcDbEntity
  8
0
100
AcDbSpline
 62
7
  6
BYLAYER
 70
0
 71
3
 72
13
 73
9
 74
0
 42
0.0000001
 43
0.0000001
 44
0.0000000001
 40
0.0
 40
0.0
 40
0.0
 40
0.0
 40
0.2837394082
 40
0.5501945371
 40
0.6734612356
 40
0.7888530669
 40
0.8970373102
 40
1.0
 40
1.0
 40
1.0
 40
1.0
 10
31.9006779307
 20
16.3979591837
 30
0.0
 10
31.9006779307
 20
16.3333839269
 30
0.0
 10
31.9194513612
 20
16.2073846186
 30
0.0
 10
31.988776327
 20
16.0672211975
 30
0.0
 10
32.0662497692
 20
15.9814118124
 30
0.0
 10
32.1303877691
 20
15.9343291763
 30
0.0
 10
32.1993775314
 20
15.9048441523
 30
0.0
 10
32.2476501701
 20
15.8979821949
 30
0.0
 10
32.2710830875
 20
15.8979817763
 30
0.0
  0
SPLINE
  5
248
100
AcDbEntity
  8
0
100
AcDbSpline
 62
7
  6
BYLAYER
 70
0
 71
3
 72
13
 73
9
 74
0
 42
0.0000001
 43
0.0000001
 44
0.0000000001
 40
0.0
 40
0.0
 40
0.0
 40
0.0
 40
0.1029562171
 40
0.2111301881
 40
0.3265218148
 40
0.4498013073
 40
0.7162942044
 40
1.0
 40
1.0
 40
1.0
 40
1.0
 10
24.8465068089
 20
15.8979817763
 30
0.0
 10
24.869938228
 20
15.8979813577
 30
0.0
 10
24.9182065029
 20
15.90484478
 30
0.0
 10
24.9871952535
 20
15.9343220269
 30
0.0
 10
25.0513310189
 20
15.9814087633
 30
0.0
 10
25.1288186522
 20
16.067220232
 30
0.0
 10
25.1981373617
 20
16.2073933904
 30
0.0
 10
25.2169119624
 20
16.3333916461
 30
0.0
 10
25.2169119624
 20
16.3979591837
 30
0.0
  0
SPLINE
  5
249
100
AcDbEntity
  8
0
100
AcDbSpline
 62
7
  6
BYLAYER
 70
0
 71
3
 72
14
 73
10
 74
0
 42
0.0000001
 43
0.0000001
 44
0.0000000001
 40
0.0
 40
0.0
 40
0.0
 40
0.0
 40
0.1039175576
 40
0.210041661
 40
0.3220840643
 40
0.4424388074
 40
0.5718087724
 40
0.7094899794
 40
1.0
 40
1.0
 40
1.0
 40
1.0
 10
32.2710830875
 20
15.8979817763
 30
0.0
 10
32.2940967795
 20
15.8979813651
 30
0.0
 10
32.3408912332
 20
15.9045259521
 30
0.0
 10
32.4067253544
 20
15.9340965553
 30
0.0
 10
32.4656882579
 20
15.9815555261
 30
0.0
 10
32.5159097993
 20
16.0446685774
 30
0.0
 10
32.556276041
 20
16.1208633942
 30
0.0
 10
32.5962809368
 20
16.2380490318
 30
0.0
 10
32.6077847119
 20
16.3336225277
 30
0.0
 10
32.6077847119
 20
16.3979591837
 30
0.0
  0
SPLINE
  5
24A
100
AcDbEntity
  8
0
100
AcDbSpline
 62
7
  6
BYLAYER
 70
0
 71
3
 72
14
 73
10
 74
0
 42
0.0000001
 43
0.0000001
 44
0.0000000001
 40
0.0
 40
0.0
 40
0.0
 40
0.0
 40
0.2905450279
 40
0.4282105621
 40
0.5575572047
 40
0.6779009068
 40
0.7899447386
 40
0.8960769076
 40
1.0
 40
1.0
 40
1.0
 40
1.0
 10
32.6077847119
 20
16.3979591837
 30
0.0
 10
32.6077847119
 20
16.4623035636
 30
0.0
 10
32.5962772625
 20
16.5578809022
 30
0.0
 10
32.5562729866
 20
16.6750660632
 30
0.0
 10
32.5159078908
 20
16.7512482577
 30
0.0
 10
32.4656958211
 20
16.8143598863
 30
0.0
 10
32.4067298567
 20
16.8618139795
 30
0.0
 10
32.3408961019
 20
16.8913933178
 30
0.0
 10
32.2940979917
 20
16.8979361799
 30
0.0
 10
32.2710830842
 20
16.8979365911
 30
0.0
  0
SPLINE
  5
24B
100
AcDbEntity
  8
0
100
AcDbSpline
 62
7
  6
BYLAYER
 70
0
 71
3
 72
14
 73
10
 74
0
 42
0.0000001
 43
0.0000001
 44
0.0000000001
 40
0.0
 40
0.0
 40
0.0
 40
0.0
 40
0.2905450279
 40
0.4282105621
 40
0.5575572047
 40
0.6779009068
 40
0.7899447386
 40
0.8960769076
 40
1.0
 40
1.0
 40
1.0
 40
1.0
 10
24.5098051812
 20
16.3979591837
 30
0.0
 10
24.5098051812
 20
16.3336148037
 30
0.0
 10
24.5213126306
 20
16.2380374651
 30
0.0
 10
24.5613169065
 20
16.1208523041
 30
0.0
 10
24.6016820023
 20
16.0446701097
 30
0.0
 10
24.651894072
 20
15.9815584811
 30
0.0
 10
24.7108600364
 20
15.9341043878
 30
0.0
 10
24.7766937912
 20
15.9045250496
 30
0.0
 10
24.8234919014
 20
15.8979821875
 30
0.0
 10
24.8465068089
 20
15.8979817763
 30
0.0
  0
SPLINE
  5
24C
100
AcDbEntity
  8
0
100
AcDbSpline
 62
7
  6
BYLAYER
 70
0
 71
3
 72
14
 73
10
 74
0
 42
0.0000001
 43
0.0000001
 44
0.0000000001
 40
0.0
 40
0.0
 40
0.0
 40
0.0
 40
0.1039175576
 40
0.210041661
 40
0.3220840643
 40
0.4424388074
 40
0.5718087724
 40
0.7094899794
 40
1.0
 40
1.0
 40
1.0
 40
1.0
 10
24.8465068056
 20
16.8979365911
 30
0.0
 10
24.8234931136
 20
16.8979370022
 30
0.0
 10
24.7766986599
 20
16.8913924152
 30
0.0
 10
24.7108645387
 20
16.8618218121
 30
0.0
 10
24.6519016352
 20
16.8143628413
 30
0.0
 10
24.6016800938
 20
16.7512497899
 30
0.0
 10
24.5613138521
 20
16.6750549731
 30
0.0
 10
24.5213089563
 20
16.5578693355
 30
0.0
 10
24.5098051812
 20
16.4622958396
 30
0.0
 10
24.5098051812
 20
16.3979591837
 30
0.0
  0
ENDSEC
  0
SECTION
  2
OBJECTS
  0
DICTIONARY
  5
C
100
AcDbDictionary
280
0
281
1
  3
ACAD_GROUP
350
D
  3
ACAD_MLINESTYLE
350
17
  3
ACAD_LAYOUT
350
1A
  3
ACAD_PLOTSETTINGS
350
19
  3
ACAD_PLOTSTYLENAME
350
E
  0
DICTIONARY
  5
D
102
{ACAD_REACTORS
330
C
102
}
100
AcDbDictionary
280
0
281
1
  0
ACDBDICTIONARYWDFLT
  5
E
102
{ACAD_REACTORS
330
C
102
}
100
AcDbDictionary
281
1
  3
Normal
350
F
100
AcDbDictionaryWithDefault
340
F
  0
DICTIONARY
  5
17
102
{ACAD_REACTORS
330
C
102
}
100
AcDbDictionary
280
0
281
1
  3
Standard
350
18
  0
DICTIONARY
  5
19
102
{ACAD_REACTORS
330
C
102
}
100
AcDbDictionary
281
1
  0
DICTIONARY
  5
1A
102
{ACAD_REACTORS
330
C
102
}
100
AcDbDictionary
281
1
  3
Model
350
24D
  3
Layout1
350
24E
  0
ACDBPLACEHOLDER
  5
F
102
{ACAD_REACTORS
330
E
102
}
  0
MLINESTYLE
  5
18
102
{ACAD_REACTORS
330
17
102
}
100
AcDbMlineStyle
  2
STANDARD
 70
0
  3

 62
256
 51
90.0
 52
90.0
 71
2
 49
0.5
 62
256
  6
BYLAYER
 49
-0.5
 62
256
  6
BYLAYER
  0
LAYOUT
  5
24D
102
{ACAD_REACTORS
330
1A
102
}
100
AcDbPlotSettings
  1

  2
none_device
  4

  6

 40
0.0
 41
0.0
 42
0.0
 43
0.0
 44
210.0
 45
297.0
 46
0.0
 47
0.0
 48
0.0
 49
0.0
140
0.0
141
0.0
142
1.0
143
1.0
 70
1024
 72
1
 73
0
 74
0
  7

 75
0
147
1.0
148
0.0
149
0.0
100
AcDbLayout
  1
Model
 70
0
 71
0
 10
0.0
 20
0.0
 11
210.0
 21
297.0
 12
0.0
 22
0.0
 32
0.0
 14
0.0
 24
0.0
 34
0.0
 15
0.0
 25
0.0
 35
0.0
146
0.0
 13
0.0
 23
0.0
 33
0.0
 16
1.0
 26
0.0
 36
0.0
 17
0.0
 27
1.0
 37
0.0
 76
0
330
210
345
0
346
0
  0
LAYOUT
  5
24E
102
{ACAD_REACTORS
330
1A
102
}
100
AcDbPlotSettings
  1

  2
none_device
  4

  6

 40
0.0
 41
0.0
 42
0.0
 43
0.0
 44
210.0
 45
297.0
 46
0.0
 47
0.0
 48
0.0
 49
0.0
140
0.0
141
0.0
142
1.0
143
1.0
 70
0
 72
1
 73
0
 74
0
  7

 75
0
147
1.0
148
0.0
149
0.0
100
AcDbLayout
  1
Layout1
 70
0
 71
1
 10
0.0
 20
0.0
 11
210.0
 21
297.0
 12
0.0
 22
0.0
 32
0.0
 14
0.0
 24
0.0
 34
0.0
 15
0.0
 25
0.0
 35
0.0
146
0.0
 13
0.0
 23
0.0
 33
0.0
 16
1.0
 26
0.0
 36
0.0
 17
0.0
 27
1.0
 37
0.0
 76
0
330
211
345
0
346
0
  0
ENDSEC
  0
EOF
