999
DXF file: C:\Users\sesa63760\Dev\_Creo\CAD\MCADID0004071_3D-CAD\drw0001_1.dxf
999
Pro/ENGINEER 2019471 by Parametric Technology Corporation
  0
SECTION
  2
HEADER
  9
$ACADVER
  1
AC1024
  9
$DWGCODEPAGE
  3
ANSI_1252
  9
$EXTMAX
 10
51.5300167895
 20
72.8781666022
 30
0.0
  9
$EXTMIN
 10
0.0
 20
0.0
 30
0.0
  9
$LIMMIN
 10
0.0
 20
0.0
  9
$LIMMAX
 10
51.5300167895
 20
72.8781666022
  9
$VIEWCTR
 10
25.7650083947
 20
36.4390833011
  9
$VIEWSIZE
 40
72.8781666022
  9
$CLAYER
  8
0
  9
$LTSCALE
 40
4.7505767859
  9
$CELTYPE
  6
BYLAYER
  9
$DIMSCALE
 40
1.0
  9
$DIMASZ
 40
0.6134525808
  9
$DIMEXO
 40
1.0
  9
$DIMDLI
 40
3.2822166885
  9
$DIMEXE
 40
1.0
  9
$DIMCEN
 40
0.7773671104
  9
$DIMLFAC
 40
1.0
  9
$DIMBLK
  1
_FILLED
  9
$DIMALT
 70
0
  9
$DIMALTF
 40
0.0393700787
  9
$DIMTXT
 40
0.8588336132
  9
$DIMTOL
 70
1
  9
$DIMLIM
 70
0
  9
$DIMTFAC
 40
1.0
  9
$DIMTP
 40
0.01
  9
$DIMTM
 40
0.01
  9
$DIMGAP
 40
0.625
  9
$DIMDSEP
 70
46
  9
$AUNITS
 70
0
  9
$PDMODE
 70
3
  9
$PDSIZE
 40
0.3125
  9
$HANDSEED
  5
2BF
  9
$TILEMODE
 70
1
  9
$MEASUREMENT
 70
1
  9
$INSUNITS
 70
4
  0
ENDSEC
  0
SECTION
  2
CLASSES
  0
CLASS
  1
ACDBDICTIONARYWDFLT
  2
AcDbDictionaryWithDefault
  3
AutoCAD 2000
 90
0
 91
1
280
0
281
0
  0
CLASS
  1
ACDBPLACEHOLDER
  2
AcDbPlaceHolder
  3
AutoCAD 2000
 90
0
 91
1
280
0
281
0
  0
CLASS
  1
LAYOUT
  2
AcDbLayout
  3
AutoCAD 2000
 90
0
 91
0
280
0
281
0
  0
ENDSEC
  0
SECTION
  2
TABLES
  0
TABLE
  2
VPORT
  5
8
100
AcDbSymbolTable
 70
2
  0
VPORT
  5
1F4
100
AcDbSymbolTableRecord
100
AcDbViewportTableRecord
  2
*ACTIVE
 70
0
 10
0.0
 20
0.0
 11
1.0
 21
1.0
 12
25.7650083947
 22
36.4390833011
 13
0.0
 23
0.0
 14
1.0
 24
1.0
 15
0.0
 25
0.0
 16
0.0
 26
0.0
 36
1.0
 17
0.0
 27
0.0
 37
0.0
 40
72.8781666022
 41
0.7070707071
 42
50.0
 43
0.0
 44
0.0
 50
0.0
 51
0.0
 71
0
 72
100
 73
1
 74
1
 75
0
 76
0
 77
0
 78
0
  0
ENDTAB
  0
TABLE
  2
LTYPE
  5
5
100
AcDbSymbolTable
 70
6
  0
LTYPE
  5
14
100
AcDbSymbolTableRecord
100
AcDbLinetypeTableRecord
  2
BYBLOCK
 70
0
  3

 72
65
 73
0
 40
0.0
  0
LTYPE
  5
15
100
AcDbSymbolTableRecord
100
AcDbLinetypeTableRecord
  2
BYLAYER
 70
0
  3

 72
65
 73
0
 40
0.0
  0
LTYPE
  5
16
100
AcDbSymbolTableRecord
100
AcDbLinetypeTableRecord
  2
CONTINUOUS
 70
64
  3
Solid line
 72
65
 73
0
 40
0.0
  0
LTYPE
  5
1F5
100
AcDbSymbolTableRecord
100
AcDbLinetypeTableRecord
  2
CENTER
 70
64
  3
____ _ ____ _ ____ _ ____ _ ____ _ ____ _ ____
 72
65
 73
4
 40
0.6
 49
0.375
 74
0
 49
-0.075
 74
0
 49
0.075
 74
0
 49
-0.075
 74
0
  0
LTYPE
  5
1F6
100
AcDbSymbolTableRecord
100
AcDbLinetypeTableRecord
  2
HIDDEN
 70
64
  3
- - - - - - - - - - - - - - - - - - - -
 72
65
 73
2
 40
0.2
 49
0.1
 74
0
 49
-0.1
 74
0
  0
LTYPE
  5
1F7
100
AcDbSymbolTableRecord
100
AcDbLinetypeTableRecord
  2
PHANTOM
 70
64
  3
_____ _ _ _____ _ _ _____ _ _ _____
 72
65
 73
6
 40
0.8
 49
0.45
 74
0
 49
-0.05
 74
0
 49
0.1
 74
0
 49
-0.05
 74
0
 49
0.1
 74
0
 49
-0.05
 74
0
  0
LTYPE
  5
1F8
100
AcDbSymbolTableRecord
100
AcDbLinetypeTableRecord
  2
DOT
 70
64
  3
. . . . . . . . . . . . . . . . . . . .
 72
65
 73
2
 40
0.2
 49
0.1
 74
0
 49
-0.1
 74
0
  0
LTYPE
  5
1F9
100
AcDbSymbolTableRecord
100
AcDbLinetypeTableRecord
  2
DASHED
 70
64
  3
- - - - - - - - - - - - - - - - - - - -
 72
65
 73
2
 40
0.2
 49
0.1
 74
0
 49
-0.1
 74
0
  0
ENDTAB
  0
TABLE
  2
LAYER
  5
2
100
AcDbSymbolTable
 70
36
  0
LAYER
  5
10
100
AcDbSymbolTableRecord
100
AcDbLayerTableRecord
  2
0
 70
0
 62
7
  6
CONTINUOUS
370
-3
390
F
  0
LAYER
  5
1FA
100
AcDbSymbolTableRecord
100
AcDbLayerTableRecord
  2
DEFAULT_1
 70
0
 62
7
  6
CENTER
370
-3
390
F
  0
LAYER
  5
1FB
100
AcDbSymbolTableRecord
100
AcDbLayerTableRecord
  2
DEFAULT_2
 70
0
 62
7
  6
HIDDEN
370
-3
390
F
  0
LAYER
  5
1FC
100
AcDbSymbolTableRecord
100
AcDbLayerTableRecord
  2
DEFAULT_3
 70
0
 62
7
  6
PHANTOM
370
-3
390
F
  0
LAYER
  5
1FD
100
AcDbSymbolTableRecord
100
AcDbLayerTableRecord
  2
00_COMPONENTS
 70
0
 62
7
  6
CONTINUOUS
370
-3
390
F
  0
LAYER
  5
1FE
100
AcDbSymbolTableRecord
100
AcDbLayerTableRecord
  2
01_1_DEFAULT_DATUMS
 70
0
 62
7
  6
CONTINUOUS
370
-3
390
F
  0
LAYER
  5
1FF
100
AcDbSymbolTableRecord
100
AcDbLayerTableRecord
  2
01_PLANES
 70
0
 62
7
  6
CONTINUOUS
370
-3
390
F
  0
LAYER
  5
200
100
AcDbSymbolTableRecord
100
AcDbLayerTableRecord
  2
02_COORD_SYS
 70
0
 62
7
  6
CONTINUOUS
370
-3
390
F
  0
LAYER
  5
201
100
AcDbSymbolTableRecord
100
AcDbLayerTableRecord
  2
03_AXES
 70
0
 62
7
  6
CONTINUOUS
370
-3
390
F
  0
LAYER
  5
202
100
AcDbSymbolTableRecord
100
AcDbLayerTableRecord
  2
04_POINTS
 70
0
 62
7
  6
CONTINUOUS
370
-3
390
F
  0
LAYER
  5
203
100
AcDbSymbolTableRecord
100
AcDbLayerTableRecord
  2
05_CURVES
 70
0
 62
7
  6
CONTINUOUS
370
-3
390
F
  0
LAYER
  5
204
100
AcDbSymbolTableRecord
100
AcDbLayerTableRecord
  2
06_SURFS
 70
0
 62
7
  6
CONTINUOUS
370
-3
390
F
  0
LAYER
  5
205
100
AcDbSymbolTableRecord
100
AcDbLayerTableRecord
  2
07_COSMETICS
 70
0
 62
7
  6
CONTINUOUS
370
-3
390
F
  0
LAYER
  5
206
100
AcDbSymbolTableRecord
100
AcDbLayerTableRecord
  2
10_NOTES
 70
0
 62
7
  6
CONTINUOUS
370
-3
390
F
  0
LAYER
  5
207
100
AcDbSymbolTableRecord
100
AcDbLayerTableRecord
  2
11_NOTES_PUB
 70
0
 62
7
  6
CONTINUOUS
370
-3
390
F
  0
LAYER
  5
208
100
AcDbSymbolTableRecord
100
AcDbLayerTableRecord
  2
13_REF_GTOL
 70
0
 62
7
  6
CONTINUOUS
370
-3
390
F
  0
LAYER
  5
209
100
AcDbSymbolTableRecord
100
AcDbLayerTableRecord
  2
16_MISC
 70
0
 62
7
  6
CONTINUOUS
370
-3
390
F
  0
LAYER
  5
20A
100
AcDbSymbolTableRecord
100
AcDbLayerTableRecord
  2
17_NO_PRINT
 70
0
 62
7
  6
CONTINUOUS
370
-3
390
F
  0
LAYER
  5
20B
100
AcDbSymbolTableRecord
100
AcDbLayerTableRecord
  2
18_DATUM_CAMS_JOINTS
 70
0
 62
7
  6
CONTINUOUS
370
-3
390
F
  0
LAYER
  5
20C
100
AcDbSymbolTableRecord
100
AcDbLayerTableRecord
  2
19_DATUM_FUNCTIONAL
 70
0
 62
7
  6
CONTINUOUS
370
-3
390
F
  0
LAYER
  5
20D
100
AcDbSymbolTableRecord
100
AcDbLayerTableRecord
  2
20_DATUM_KINEMATIC_SCHEME
 70
0
 62
7
  6
CONTINUOUS
370
-3
390
F
  0
ENDTAB
  0
TABLE
  2
STYLE
  5
3
100
AcDbSymbolTable
 70
1
  0
STYLE
  5
11
100
AcDbSymbolTableRecord
100
AcDbTextStyleTableRecord
  2
STANDARD
 70
0
 40
0.0
 41
1.0
 50
0.0
 71
0
 42
0.2
  3
ARIAL.TTF
  4

  0
STYLE
  5
20E
100
AcDbSymbolTableRecord
100
AcDbTextStyleTableRecord
  2
TEXTSTYLE_1
 70
0
 40
0.0
 41
0.8
 50
0.0
 71
0
 42
0.2
  3
gdt
  4

  0
ENDTAB
  0
TABLE
  2
VIEW
  5
6
100
AcDbSymbolTable
 70
0
  0
ENDTAB
  0
TABLE
  2
UCS
  5
7
100
AcDbSymbolTable
 70
0
  0
ENDTAB
  0
TABLE
  2
APPID
  5
9
100
AcDbSymbolTable
 70
1
  0
APPID
  5
20F
100
AcDbSymbolTableRecord
100
AcDbRegAppTableRecord
  2
ACAD
 70
0
  0
ENDTAB
  0
TABLE
  2
BLOCK_RECORD
  5
1
100
AcDbSymbolTable
 70
0
  0
BLOCK_RECORD
  5
210
100
AcDbSymbolTableRecord
100
AcDbBlockTableRecord
  2
*Model_Space
  0
BLOCK_RECORD
  5
211
100
AcDbSymbolTableRecord
100
AcDbBlockTableRecord
  2
*Paper_Space
  0
BLOCK_RECORD
  5
212
100
AcDbSymbolTableRecord
100
AcDbBlockTableRecord
  2
_FILLED
  0
ENDTAB
  0
TABLE
  2
DIMSTYLE
  5
A
100
AcDbSymbolTable
 70
1
100
AcDbDimStyleTable
 71
0
  0
DIMSTYLE
105
213
100
AcDbSymbolTableRecord
100
AcDbDimStyleTableRecord
  2
STANDARD
 70
0
  3

  4

 40
1.0
 41
0.6134525808
 42
1.0
 43
0.38
 44
1.0
 45
0.0
 46
0.0
 47
0.01
 48
0.01
140
0.8588336132
141
0.09
142
0.0
143
25.4
144
1.0
145
0.0
146
1.0
147
0.625
 71
1
 72
0
 73
0
 74
0
 75
0
 76
0
 77
1
 78
8
 79
2
170
0
171
1
172
0
173
0
174
0
175
0
176
0
177
0
178
0
270
2
179
2
271
2
272
2
273
2
274
2
275
0
280
0
281
0
282
0
283
1
284
8
285
0
286
0
287
3
288
0
340
11
278
46
341
212
342
212
343
212
344
212
  0
ENDTAB
  0
ENDSEC
  0
SECTION
  2
BLOCKS
  0
BLOCK
  5
20
100
AcDbEntity
  8
0
100
AcDbBlockBegin
  2
*Model_Space
 70
0
 10
0.0
 20
0.0
 30
0.0
  3
*Model_Space
  1

  0
ENDBLK
  5
21
100
AcDbEntity
  8
0
100
AcDbBlockEnd
  0
BLOCK
  5
1C
100
AcDbEntity
  8
0
100
AcDbBlockBegin
  2
*Paper_Space
 70
0
 10
0.0
 20
0.0
 30
0.0
  3
*Paper_Space
  1

  0
ENDBLK
  5
1D
100
AcDbEntity
  8
0
100
AcDbBlockEnd
  0
BLOCK
  5
214
100
AcDbEntity
  8
0
100
AcDbBlockBegin
  2
_FILLED
 70
64
 10
0.0
 20
0.0
  3
_FILLED
  1

  0
SOLID
  5
215
100
AcDbEntity
  8
0
  6
BYBLOCK
 62
0
100
AcDbTrace
 10
0.0
 20
0.0
 11
-1.0
 21
0.25
 12
-1.0
 22
-0.25
 13
-1.0
 23
-0.25
  0
ENDBLK
  5
216
100
AcDbEntity
  8
0
  6
BYBLOCK
 62
0
100
AcDbBlockEnd
  0
ENDSEC
  0
SECTION
  2
ENTITIES
  0
LINE
  5
217
100
AcDbEntity
  8
0
100
AcDbLine
 62
7
  6
BYLAYER
 10
22.5310111908
 20
41.6764117225
 11
23.0141279794
 21
41.8650121974
  0
LINE
  5
218
100
AcDbEntity
  8
0
100
AcDbLine
 62
7
  6
BYLAYER
 10
23.668202548
 20
41.9912947671
 11
23.0761813768
 21
41.7603544739
  0
LINE
  5
219
100
AcDbEntity
  8
0
100
AcDbLine
 62
7
  6
BYLAYER
 10
26.2348233139
 20
30.8231484712
 11
35.7100936308
 21
25.3527223607
  0
LINE
  5
21A
100
AcDbEntity
  8
0
100
AcDbLine
 62
7
  6
BYLAYER
 10
35.6056412448
 20
25.5809935944
 11
26.1303709278
 21
31.051419705
  0
LINE
  5
21B
100
AcDbEntity
  8
0
100
AcDbLine
 62
7
  6
BYLAYER
 10
39.3348176254
 20
23.4301965245
 11
37.9205981751
 21
24.2466780335
  0
LINE
  5
21C
100
AcDbEntity
  8
0
100
AcDbLine
 62
7
  6
BYLAYER
 10
26.0411547926
 20
31.1051227094
 11
24.9804902049
 21
31.7174838412
  0
LINE
  5
21D
100
AcDbEntity
  8
0
100
AcDbLine
 62
7
  6
BYLAYER
 10
40.6076127755
 20
23.0219571297
 11
39.6176591603
 21
23.593494186
  0
LINE
  5
21E
100
AcDbEntity
  8
0
100
AcDbLine
 62
7
  6
BYLAYER
 10
37.9205981751
 20
24.5732706371
 11
35.9619018813
 21
25.7040988869
  0
LINE
  5
21F
100
AcDbEntity
  8
0
100
AcDbLine
 62
7
  6
BYLAYER
 10
35.6056412448
 20
27.1337853868
 11
26.1303709278
 21
32.6042114973
  0
LINE
  5
220
100
AcDbEntity
  8
0
100
AcDbLine
 62
7
  6
BYLAYER
 10
24.9804902049
 20
33.2688384338
 11
26.0411547926
 21
32.656477302
  0
LINE
  5
221
100
AcDbEntity
  8
0
100
AcDbLine
 62
7
  6
BYLAYER
 10
37.9205981751
 20
25.8796828678
 11
39.3348176254
 21
25.0632013587
  0
LINE
  5
222
100
AcDbEntity
  8
0
100
AcDbLine
 62
7
  6
BYLAYER
 10
26.3239963275
 20
32.8197749635
 11
25.4754646573
 21
33.309663869
  0
LINE
  5
223
100
AcDbEntity
  8
0
100
AcDbLine
 62
7
  6
BYLAYER
 10
39.6176591603
 20
25.2264990203
 11
38.20343971
 21
26.0429805293
  0
LINE
  5
224
100
AcDbEntity
  8
0
100
AcDbLine
 62
7
  6
BYLAYER
 10
35.9619018813
 20
27.3394713334
 11
26.4866315643
 21
32.8098974439
  0
LINE
  5
225
100
AcDbEntity
  8
0
100
AcDbLine
 62
7
  6
BYLAYER
 10
21.7339154476
 20
36.9768768932
 11
22.0975086593
 21
36.4114208126
  0
LINE
  5
226
100
AcDbEntity
  8
0
100
AcDbLine
 62
7
  6
BYLAYER
 10
21.0782399702
 20
38.5118799515
 11
21.2957822252
 21
37.8821597515
  0
LINE
  5
227
100
AcDbEntity
  8
0
100
AcDbLine
 62
7
  6
BYLAYER
 10
25.3875984006
 20
38.3410582287
 11
30.9201629549
 21
41.5352667966
  0
LINE
  5
228
100
AcDbEntity
  8
0
100
AcDbLine
 62
7
  6
BYLAYER
 10
25.6875958085
 20
38.4128018596
 11
30.9201642039
 21
41.4338085983
  0
LINE
  5
229
100
AcDbEntity
  8
0
100
AcDbLine
 62
7
  6
BYLAYER
 10
24.6820791256
 20
34.0447621696
 11
25.3875958085
 21
33.6374411377
  0
LINE
  5
22A
100
AcDbEntity
  8
0
100
AcDbLine
 62
7
  6
BYLAYER
 10
25.4754646573
 20
34.8228431488
 11
25.9704414649
 21
34.5370746206
  0
LINE
  5
22B
100
AcDbEntity
  8
0
100
AcDbLine
 62
7
  6
BYLAYER
 10
25.9704414649
 20
34.7767257295
 11
25.4754646573
 21
35.0624942576
  0
LINE
  5
22C
100
AcDbEntity
  8
0
100
AcDbLine
 62
7
  6
BYLAYER
 10
24.6820791256
 20
34.0447621696
 11
24.5031124154
 21
34.1684789387
  0
LINE
  5
22D
100
AcDbEntity
  8
0
100
AcDbLine
 62
7
  6
BYLAYER
 10
22.7819106716
 20
35.5758099102
 11
24.5031124154
 21
34.1684789387
  0
LINE
  5
22E
100
AcDbEntity
  8
0
100
AcDbLine
 62
7
  6
BYLAYER
 10
24.9804902049
 20
31.7174838412
 11
24.9804902049
 21
33.2688384338
  0
LINE
  5
22F
100
AcDbEntity
  8
0
100
AcDbLine
 62
7
  6
BYLAYER
 10
25.3875958085
 20
33.4321371151
 11
25.3875958085
 21
34.3738740128
  0
LINE
  5
230
100
AcDbEntity
  8
0
100
AcDbLine
 62
7
  6
BYLAYER
 10
25.3875958085
 20
35.7564098859
 11
25.3875958085
 21
38.3410567322
  0
LINE
  5
231
100
AcDbEntity
  8
0
100
AcDbLine
 62
7
  6
BYLAYER
 10
25.4754646573
 20
33.309663869
 11
25.4754646573
 21
34.8228431488
  0
LINE
  5
232
100
AcDbEntity
  8
0
100
AcDbLine
 62
7
  6
BYLAYER
 10
25.4754646573
 20
35.0624942576
 11
25.4754646573
 21
38.0453778883
  0
LINE
  5
233
100
AcDbEntity
  8
0
100
AcDbLine
 62
7
  6
BYLAYER
 10
25.9704414649
 20
34.7767257295
 11
25.9704414649
 21
34.5370746206
  0
LINE
  5
234
100
AcDbEntity
  8
0
100
AcDbLine
 62
7
  6
BYLAYER
 10
26.0411547926
 20
32.656477302
 11
26.0411547926
 21
31.1051227094
  0
LINE
  5
235
100
AcDbEntity
  8
0
100
AcDbLine
 62
7
  6
BYLAYER
 10
26.1303709278
 20
31.051419705
 11
26.1303709278
 21
32.6042114973
  0
LINE
  5
236
100
AcDbEntity
  8
0
100
AcDbLine
 62
7
  6
BYLAYER
 10
26.3239963275
 20
32.7160005067
 11
26.3239963275
 21
32.8197749635
  0
LINE
  5
237
100
AcDbEntity
  8
0
100
AcDbLine
 62
7
  6
BYLAYER
 10
6.5756668137
 20
47.3915816467
 11
18.9115849548
 21
40.2695971081
  0
LINE
  5
238
100
AcDbEntity
  8
0
100
AcDbLine
 62
7
  6
BYLAYER
 10
19.2780063199
 20
39.4810235655
 11
21.1829040732
 21
38.2089084673
  0
LINE
  5
239
100
AcDbEntity
  8
0
100
AcDbLine
 62
7
  6
BYLAYER
 10
25.4754646573
 20
38.0453778883
 11
40.6076127755
 21
29.3090257416
  0
LINE
  5
23A
100
AcDbEntity
  8
0
100
AcDbLine
 62
7
  6
BYLAYER
 10
40.8197451757
 20
29.4315027019
 11
41.0318768442
 21
29.3090267614
  0
LINE
  5
23B
100
AcDbEntity
  8
0
100
AcDbLine
 62
7
  6
BYLAYER
 10
40.8197439266
 20
29.6764497129
 11
38.1317678598
 21
31.2283183107
  0
LINE
  5
23C
100
AcDbEntity
  8
0
100
AcDbLine
 62
7
  6
BYLAYER
 10
37.9903459148
 20
31.3099664616
 11
32.2383328263
 21
34.6308176389
  0
LINE
  5
23D
100
AcDbEntity
  8
0
100
AcDbLine
 62
7
  6
BYLAYER
 10
31.8495887128
 20
34.85525408
 11
25.6875958085
 21
38.4128018596
  0
LINE
  5
23E
100
AcDbEntity
  8
0
100
AcDbLine
 62
7
  6
BYLAYER
 10
25.3875958085
 20
33.5038795606
 11
24.9804902049
 21
33.2688384338
  0
LINE
  5
23F
100
AcDbEntity
  8
0
100
AcDbLine
 62
7
  6
BYLAYER
 10
26.3239963275
 20
32.8197749635
 11
26.0411547926
 21
32.656477302
  0
LINE
  5
240
100
AcDbEntity
  8
0
100
AcDbLine
 62
7
  6
BYLAYER
 10
26.4866315643
 20
32.8098974439
 11
26.1303709278
 21
32.6042114973
  0
LINE
  5
241
100
AcDbEntity
  8
0
100
AcDbLine
 62
7
  6
BYLAYER
 10
37.4724111683
 20
37.6509526292
 11
34.3850236425
 21
36.4124347401
  0
LINE
  5
242
100
AcDbEntity
  8
0
100
AcDbLine
 62
7
  6
BYLAYER
 10
34.6675717582
 20
36.9696496713
 11
37.0839412776
 21
37.8752307513
  0
LINE
  5
243
100
AcDbEntity
  8
0
100
AcDbLine
 62
7
  6
BYLAYER
 10
37.3412070921
 20
37.7266953518
 11
34.6675717582
 21
36.7246989461
  0
LINE
  5
244
100
AcDbEntity
  8
0
100
AcDbLine
 62
7
  6
BYLAYER
 10
8.0726350777
 20
49.9844653947
 11
20.425625261
 21
42.8526245309
  0
LINE
  5
245
100
AcDbEntity
  8
0
100
AcDbLine
 62
7
  6
BYLAYER
 10
42.4208693246
 20
30.3403281507
 11
42.6195132718
 21
30.2256436088
  0
LINE
  5
246
100
AcDbEntity
  8
0
100
AcDbLine
 62
7
  6
BYLAYER
 10
40.1083158139
 20
31.7571057614
 11
42.2659595868
 21
30.5114177295
  0
LINE
  5
247
100
AcDbEntity
  8
0
100
AcDbLine
 62
7
  6
BYLAYER
 10
42.4073803543
 20
30.5930665603
 11
40.2497365813
 21
31.8387545922
  0
LINE
  5
248
100
AcDbEntity
  8
0
100
AcDbLine
 62
7
  6
BYLAYER
 10
27.4760892568
 20
39.5468417892
 11
26.0778204525
 21
40.3541143968
  0
LINE
  5
249
100
AcDbEntity
  8
0
100
AcDbLine
 62
7
  6
BYLAYER
 10
30.9201629861
 20
41.5352667785
 11
30.9201642039
 21
41.4338085983
  0
LINE
  5
24A
100
AcDbEntity
  8
0
100
AcDbLine
 62
7
  6
BYLAYER
 10
31.8495887128
 20
34.85525408
 11
33.41881758
 21
36.2489762944
  0
LINE
  5
24B
100
AcDbEntity
  8
0
100
AcDbLine
 62
7
  6
BYLAYER
 10
26.1303709278
 20
31.1566313616
 11
26.0411547926
 21
31.1051227094
  0
LINE
  5
24C
100
AcDbEntity
  8
0
100
AcDbLine
 62
7
  6
BYLAYER
 10
26.4086747173
 20
41.8576916162
 11
28.4880753791
 21
41.0707934058
  0
LINE
  5
24D
100
AcDbEntity
  8
0
100
AcDbLine
 62
7
  6
BYLAYER
 10
21.274687114
 20
42.9394543858
 11
23.3288398407
 21
41.9258623332
  0
LINE
  5
24E
100
AcDbEntity
  8
0
100
AcDbLine
 62
7
  6
BYLAYER
 10
27.2889610968
 20
41.0533625999
 11
28.6872299011
 21
40.2460899923
  0
LINE
  5
24F
100
AcDbEntity
  8
0
100
AcDbLine
 62
7
  6
BYLAYER
 10
33.41881758
 20
36.0040255692
 11
31.6824475626
 21
34.4618557072
  0
LINE
  5
250
100
AcDbEntity
  8
0
100
AcDbLine
 62
7
  6
BYLAYER
 10
34.3850236425
 20
36.4124347401
 11
32.2383328263
 21
34.6308176389
  0
LINE
  5
251
100
AcDbEntity
  8
0
100
AcDbLine
 62
7
  6
BYLAYER
 10
23.0141279794
 20
41.8650121974
 11
23.6682503196
 21
41.9914879936
  0
LINE
  5
252
100
AcDbEntity
  8
0
100
AcDbLine
 62
7
  6
BYLAYER
 10
24.6713134493
 20
42.0647145738
 11
25.3428100154
 21
42.0325748119
  0
LINE
  5
253
100
AcDbEntity
  8
0
100
AcDbLine
 62
7
  6
BYLAYER
 10
28.4880753791
 20
41.0707934058
 11
28.6847024237
 21
40.9776659251
  0
LINE
  5
254
100
AcDbEntity
  8
0
100
AcDbLine
 62
7
  6
BYLAYER
 10
28.6847024237
 20
40.9776659251
 11
29.319538573
 21
40.6111513951
  0
LINE
  5
255
100
AcDbEntity
  8
0
100
AcDbLine
 62
7
  6
BYLAYER
 10
30.9201642039
 20
41.4338085983
 11
37.0839412776
 21
37.8752307513
  0
LINE
  5
256
100
AcDbEntity
  8
0
100
AcDbLine
 62
7
  6
BYLAYER
 10
37.3406453681
 20
37.727019656
 11
46.052312322
 21
32.6974564515
  0
LINE
  5
257
100
AcDbEntity
  8
0
100
AcDbLine
 62
7
  6
BYLAYER
 10
33.41881758
 20
36.2489762944
 11
33.41881758
 21
36.0040255692
  0
LINE
  5
258
100
AcDbEntity
  8
0
100
AcDbLine
 62
7
  6
BYLAYER
 10
30.9201629549
 20
41.5352667966
 11
37.2339387325
 21
37.8900891167
  0
LINE
  5
259
100
AcDbEntity
  8
0
100
AcDbLine
 62
7
  6
BYLAYER
 10
37.6494180362
 20
37.6502174555
 11
46.3523084809
 21
32.6257149839
  0
LINE
  5
25A
100
AcDbEntity
  8
0
100
AcDbLine
 62
7
  6
BYLAYER
 10
34.6675717582
 20
36.7246989461
 11
34.6675717582
 21
36.9696496713
  0
LINE
  5
25B
100
AcDbEntity
  8
0
100
AcDbLine
 62
7
  6
BYLAYER
 10
35.6056412448
 20
27.1337853868
 11
35.6056412448
 21
25.5809935944
  0
LINE
  5
25C
100
AcDbEntity
  8
0
100
AcDbLine
 62
7
  6
BYLAYER
 10
35.9619018813
 20
25.7040988869
 11
35.9619018813
 21
27.3394713334
  0
LINE
  5
25D
100
AcDbEntity
  8
0
100
AcDbLine
 62
7
  6
BYLAYER
 10
38.9062336971
 20
31.8387513628
 11
37.9903459148
 21
31.3099664616
  0
LINE
  5
25E
100
AcDbEntity
  8
0
100
AcDbLine
 62
7
  6
BYLAYER
 10
38.1317678598
 20
31.2283183107
 11
39.0476556421
 21
31.7571032119
  0
LINE
  5
25F
100
AcDbEntity
  8
0
100
AcDbLine
 62
7
  6
BYLAYER
 10
37.7782147636
 20
30.9425424903
 11
37.9768598038
 21
31.0572295731
  0
LINE
  5
260
100
AcDbEntity
  8
0
100
AcDbLine
 62
7
  6
BYLAYER
 10
37.3380052872
 20
37.7640205904
 11
37.2658403728
 21
37.8716458869
  0
LINE
  5
261
100
AcDbEntity
  8
0
100
AcDbLine
 62
7
  6
BYLAYER
 10
37.9205981751
 20
24.2466780335
 11
37.9205981751
 21
25.8796828678
  0
LINE
  5
262
100
AcDbEntity
  8
0
100
AcDbLine
 62
7
  6
BYLAYER
 10
38.9062336971
 20
31.8387513628
 11
38.9062336971
 21
31.6754537013
  0
LINE
  5
263
100
AcDbEntity
  8
0
100
AcDbLine
 62
7
  6
BYLAYER
 10
39.3348176254
 20
25.0632013587
 11
39.3348176254
 21
23.4301965245
  0
LINE
  5
264
100
AcDbEntity
  8
0
100
AcDbLine
 62
7
  6
BYLAYER
 10
35.9619018813
 20
27.3394713334
 11
35.6056412448
 21
27.1337853868
  0
LINE
  5
265
100
AcDbEntity
  8
0
100
AcDbLine
 62
7
  6
BYLAYER
 10
39.6176591603
 20
23.593494186
 11
39.6176591603
 21
25.2264990203
  0
LINE
  5
266
100
AcDbEntity
  8
0
100
AcDbLine
 62
7
  6
BYLAYER
 10
40.2497365813
 20
31.6754582904
 11
40.2497365813
 21
31.8387545922
  0
LINE
  5
267
100
AcDbEntity
  8
0
100
AcDbLine
 62
7
  6
BYLAYER
 10
40.6076127755
 20
29.3090257416
 11
40.6076127755
 21
23.0219571297
  0
LINE
  5
268
100
AcDbEntity
  8
0
100
AcDbLine
 62
7
  6
BYLAYER
 10
40.8197451757
 20
29.4315027019
 11
40.8197439266
 21
29.6764497129
  0
LINE
  5
269
100
AcDbEntity
  8
0
100
AcDbLine
 62
7
  6
BYLAYER
 10
46.052312322
 20
32.6974564515
 11
42.4073803543
 21
30.5930665603
  0
LINE
  5
26A
100
AcDbEntity
  8
0
100
AcDbLine
 62
7
  6
BYLAYER
 10
42.2659595868
 20
30.5114177295
 11
40.8197439266
 21
29.6764497129
  0
LINE
  5
26B
100
AcDbEntity
  8
0
100
AcDbLine
 62
7
  6
BYLAYER
 10
40.6076127755
 20
29.3090257416
 11
40.8197451757
 21
29.4315027019
  0
LINE
  5
26C
100
AcDbEntity
  8
0
100
AcDbLine
 62
7
  6
BYLAYER
 10
41.0318768442
 20
29.3090267614
 11
46.2644452396
 21
32.3300335
  0
LINE
  5
26D
100
AcDbEntity
  8
0
100
AcDbLine
 62
7
  6
BYLAYER
 10
35.959998915
 20
25.3763992485
 11
36.244750659
 21
25.5407997632
  0
LINE
  5
26E
100
AcDbEntity
  8
0
100
AcDbLine
 62
7
  6
BYLAYER
 10
41.0318768442
 20
23.0219581495
 11
41.0318768442
 21
29.3090267614
  0
LINE
  5
26F
100
AcDbEntity
  8
0
100
AcDbLine
 62
7
  6
BYLAYER
 10
38.20343971
 20
26.0429805293
 11
37.9205981751
 21
25.8796828678
  0
LINE
  5
270
100
AcDbEntity
  8
0
100
AcDbLine
 62
7
  6
BYLAYER
 10
39.6176591603
 20
25.2264990203
 11
39.3348176254
 21
25.0632013587
  0
LINE
  5
271
100
AcDbEntity
  8
0
100
AcDbLine
 62
7
  6
BYLAYER
 10
39.6176591603
 20
23.593494186
 11
39.3348176254
 21
23.4301965245
  0
LINE
  5
272
100
AcDbEntity
  8
0
100
AcDbLine
 62
7
  6
BYLAYER
 10
46.2644452396
 20
26.0429648881
 11
41.0318768442
 21
23.0219581495
  0
LINE
  5
273
100
AcDbEntity
  8
0
100
AcDbLine
 62
7
  6
BYLAYER
 10
46.2644452396
 20
32.3300335
 11
46.2644452396
 21
26.0429648881
  0
LINE
  5
274
100
AcDbEntity
  8
0
100
AcDbLine
 62
7
  6
BYLAYER
 10
46.352312322
 20
26.1654371145
 11
46.352312322
 21
32.6257113241
  0
ARC
  5
275
100
AcDbEntity
  8
0
100
AcDbCircle
 62
7
  6
BYLAYER
 10
32.9547770737
 20
38.3987603764
 40
2.3993543566
100
AcDbArc
 50
305.1976208956
 51
305.7221018618
  0
ARC
  5
276
100
AcDbEntity
  8
0
100
AcDbCircle
 62
7
  6
BYLAYER
 10
23.9600824893
 20
40.3381260674
 40
1.6029093423
100
AcDbArc
 50
103.8603016186
 51
107.3722049445
  0
ARC
  5
277
100
AcDbEntity
  8
0
100
AcDbCircle
 62
7
  6
BYLAYER
 10
23.9293625726
 20
40.4592165748
 40
1.4779857682
100
AcDbArc
 50
101.0097940606
 51
103.8286083814
  0
SPLINE
  5
278
100
AcDbEntity
  8
0
100
AcDbSpline
 62
7
  6
BYLAYER
 70
0
 71
3
 72
14
 73
10
 74
0
 42
0.0000001
 43
0.0000001
 44
0.0000000001
 40
0.0
 40
0.0
 40
0.0
 40
0.0
 40
0.2858452095
 40
0.4189445524
 40
0.5455262033
 40
0.6660778281
 40
0.7813235104
 40
0.8922257479
 40
1.0
 40
1.0
 40
1.0
 40
1.0
 10
24.7662089536
 20
41.5925100766
 30
0.0
 10
24.9079148539
 20
41.6743235279
 30
0.0
 10
25.1248616668
 20
41.7799060275
 30
0.0
 10
25.4220682716
 20
41.876976901
 30
0.0
 10
25.6350582188
 20
41.9237698274
 30
0.0
 10
25.8417720656
 20
41.9458647508
 30
0.0
 10
26.0407493906
 20
41.9429994292
 30
0.0
 10
26.230428263
 20
41.9151524524
 30
0.0
 10
26.3509678458
 20
41.8795140242
 30
0.0
 10
26.4086682642
 20
41.857678887
 30
0.0
  0
SPLINE
  5
279
100
AcDbEntity
  8
0
100
AcDbSpline
 62
7
  6
BYLAYER
 70
0
 71
3
 72
18
 73
14
 74
0
 42
0.0000001
 43
0.0000001
 44
0.0000000001
 40
0.0
 40
0.0
 40
0.0
 40
0.0
 40
0.0425843204
 40
0.0896713918
 40
0.1411582236
 40
0.1966442212
 40
0.3172781262
 40
0.4471285366
 40
0.58244931
 40
0.7206279368
 40
0.860001119
 40
0.9299812433
 40
1.0
 40
1.0
 40
1.0
 40
1.0
 10
6.5756572303
 20
47.3915871797
 30
0.0
 10
6.54877889
 20
47.4071058404
 30
0.0
 10
6.4951663735
 20
47.4450639801
 30
0.0
 10
6.4202603537
 20
47.515943526
 30
0.0
 10
6.3479030999
 20
47.6020804372
 30
0.0
 10
6.2536580392
 20
47.7388284391
 30
0.0
 10
6.1503139016
 20
47.9374420225
 30
0.0
 10
6.0541054972
 20
48.2024032962
 30
0.0
 10
5.9900777844
 20
48.4902742793
 30
0.0
 10
5.9685787515
 20
48.7916832032
 30
0.0
 10
5.9994037556
 20
49.0455026921
 30
0.0
 10
6.0619402626
 20
49.2398461141
 30
0.0
 10
6.1066111166
 20
49.3320507598
 30
0.0
 10
6.1321268345
 20
49.3762455249
 30
0.0
  0
SPLINE
  5
27A
100
AcDbEntity
  8
0
100
AcDbSpline
 62
7
  6
BYLAYER
 70
0
 71
3
 72
22
 73
18
 74
0
 42
0.0000001
 43
0.0000001
 44
0.0000000001
 40
0.0
 40
0.0
 40
0.0
 40
0.0
 40
0.0428767298
 40
0.087863523
 40
0.1362311455
 40
0.1887640213
 40
0.2457650075
 40
0.3071383524
 40
0.3724854064
 40
0.4411614477
 40
0.5123597933
 40
0.5851478988
 40
0.7313607947
 40
0.8028745976
 40
0.8720142721
 40
0.9379844343
 40
1.0
 40
1.0
 40
1.0
 40
1.0
 10
19.2780155941
 20
39.4810388442
 30
0.0
 10
19.2311659174
 20
39.5123320104
 30
0.0
 10
19.143036601
 20
39.5890476016
 30
0.0
 10
19.038879995
 20
39.736375833
 30
0.0
 10
18.962422385
 20
39.9134629143
 30
0.0
 10
18.9147802372
 20
40.116327563
 30
0.0
 10
18.8964316709
 20
40.3408536683
 30
0.0
 10
18.9074655183
 20
40.5825736653
 30
0.0
 10
18.9476518426
 20
40.8366347261
 30
0.0
 10
19.0160398653
 20
41.0978880037
 30
0.0
 10
19.1112715609
 20
41.3610099771
 30
0.0
 10
19.2715659862
 20
41.7073651616
 30
0.0
 10
19.4747748145
 20
42.0330712153
 30
0.0
 10
19.7136914405
 20
42.3250961354
 30
0.0
 10
19.9041598846
 20
42.519180957
 30
0.0
 10
20.1031342348
 20
42.6856611812
 30
0.0
 10
20.2434150775
 20
42.7792453533
 30
0.0
 10
20.3139857675
 20
42.819989117
 30
0.0
  0
SPLINE
  5
27B
100
AcDbEntity
  8
0
100
AcDbSpline
 62
7
  6
BYLAYER
 70
0
 71
3
 72
9
 73
5
 74
0
 42
0.0000001
 43
0.0000001
 44
0.0000000001
 40
0.0
 40
0.0
 40
0.0
 40
0.0
 40
0.5197623496
 40
1.0
 40
1.0
 40
1.0
 40
1.0
 10
21.2957988756
 20
37.8821757834
 30
0.0
 10
21.3273575148
 20
37.7908321233
 30
0.0
 10
21.4056254546
 20
37.620259574
 30
0.0
 10
21.5243145573
 20
37.4737945815
 30
0.0
 10
21.5899851211
 20
37.4132920377
 30
0.0
  0
SPLINE
  5
27C
100
AcDbEntity
  8
0
100
AcDbSpline
 62
7
  6
BYLAYER
 70
0
 71
3
 72
9
 73
5
 74
0
 42
0.0000001
 43
0.0000001
 44
0.0000000001
 40
0.0
 40
0.0
 40
0.0
 40
0.0
 40
0.5077989412
 40
1.0
 40
1.0
 40
1.0
 40
1.0
 10
22.0975148142
 20
36.4114282059
 30
0.0
 10
22.129440462
 20
36.361768045
 30
0.0
 10
22.1985513017
 20
36.267808294
 30
0.0
 10
22.2799516877
 20
36.1841807887
 30
0.0
 10
22.322751328
 20
36.1461973771
 30
0.0
  0
SPLINE
  5
27D
100
AcDbEntity
  8
0
100
AcDbSpline
 62
7
  6
BYLAYER
 70
0
 71
3
 72
22
 73
18
 74
0
 42
0.0000001
 43
0.0000001
 44
0.0000000001
 40
0.0
 40
0.0
 40
0.0
 40
0.0
 40
0.0455099124
 40
0.0944036446
 40
0.1470632344
 40
0.2035737972
 40
0.2637667724
 40
0.3272845477
 40
0.3936144695
 40
0.4621300756
 40
0.5321263303
 40
0.6028410998
 40
0.743207211
 40
0.8114198513
 40
0.8773405873
 40
0.9403914985
 40
1.0
 40
1.0
 40
1.0
 40
1.0
 10
21.7339211673
 20
36.9768837358
 30
0.0
 10
21.6880692759
 20
37.0482076628
 30
0.0
 10
21.6075482112
 20
37.2058688328
 30
0.0
 10
21.5252546869
 20
37.4682887839
 30
0.0
 10
21.4782471976
 20
37.7599175542
 30
0.0
 10
21.4671695476
 20
38.0759720054
 30
0.0
 10
21.4919366844
 20
38.4114212812
 30
0.0
 10
21.5521314195
 20
38.7608446887
 30
0.0
 10
21.6467470491
 20
39.118560866
 30
0.0
 10
21.7741692013
 20
39.4787234782
 30
0.0
 10
21.9323806223
 20
39.835432786
 30
0.0
 10
22.1801038055
 20
40.2972024606
 30
0.0
 10
22.4764311644
 20
40.7278555566
 30
0.0
 10
22.8137764884
 20
41.1128130882
 30
0.0
 10
23.0781995244
 20
41.3685537508
 30
0.0
 10
23.3519050696
 20
41.5895967589
 30
0.0
 10
23.5433443429
 20
41.7153256757
 30
0.0
 10
23.6395239024
 20
41.7708546389
 30
0.0
  0
SPLINE
  5
27E
100
AcDbEntity
  8
0
100
AcDbSpline
 62
7
  6
BYLAYER
 70
0
 71
3
 72
11
 73
7
 74
0
 42
0.0000001
 43
0.0000001
 44
0.0000000001
 40
0.0
 40
0.0
 40
0.0
 40
0.0
 40
0.2177438688
 40
0.4508811915
 40
0.7104582954
 40
1.0
 40
1.0
 40
1.0
 40
1.0
 10
46.3522955361
 20
26.1654371146
 30
0.0
 10
46.3522955336
 20
26.1540129458
 30
0.0
 10
46.3481003701
 20
26.1301946404
 30
0.0
 10
46.3300323584
 20
26.0970028106
 30
0.0
 10
46.3014747937
 20
26.0670220824
 30
0.0
 10
46.2776011553
 20
26.0505604143
 30
0.0
 10
46.2644452396
 20
26.0429648881
 30
0.0
  0
SPLINE
  5
27F
100
AcDbEntity
  8
0
100
AcDbSpline
 62
7
  6
BYLAYER
 70
0
 71
3
 72
11
 73
7
 74
0
 42
0.0000001
 43
0.0000001
 44
0.0000000001
 40
0.0
 40
0.0
 40
0.0
 40
0.0
 40
0.2344509391
 40
0.4756583807
 40
0.7295604903
 40
1.0
 40
1.0
 40
1.0
 40
1.0
 10
35.0161878932
 20
37.780041221
 30
0.0
 10
35.016202453
 20
37.7095582516
 30
0.0
 10
35.0008503113
 20
37.56613221
 30
0.0
 10
34.9327500618
 20
37.3561780806
 30
0.0
 10
34.8210256218
 20
37.1535869491
 30
0.0
 10
34.722519806
 20
37.029572637
 30
0.0
 10
34.6675717582
 20
36.9696496713
 30
0.0
  0
SPLINE
  5
280
100
AcDbEntity
  8
0
100
AcDbSpline
 62
7
  6
BYLAYER
 70
0
 71
3
 72
11
 73
7
 74
0
 42
0.0000001
 43
0.0000001
 44
0.0000000001
 40
0.0
 40
0.0
 40
0.0
 40
0.0
 40
0.2180989298
 40
0.4513862269
 40
0.7108220462
 40
1.0
 40
1.0
 40
1.0
 40
1.0
 10
35.710107297
 20
25.352746032
 30
0.0
 10
35.726603812
 20
25.3432219828
 30
0.0
 10
35.764441996
 20
25.3293783824
 30
0.0
 10
35.8273469655
 20
25.3275577561
 30
0.0
 10
35.894383625
 20
25.3434325366
 30
0.0
 10
35.9380566889
 20
25.363892356
 30
0.0
 10
35.959998915
 20
25.3763992485
 30
0.0
  0
SPLINE
  5
281
100
AcDbEntity
  8
0
100
AcDbSpline
 62
7
  6
BYLAYER
 70
0
 71
3
 72
11
 73
7
 74
0
 42
0.0000001
 43
0.0000001
 44
0.0000000001
 40
0.0
 40
0.0
 40
0.0
 40
0.0
 40
0.2180975214
 40
0.4513842074
 40
0.7108205484
 40
1.0
 40
1.0
 40
1.0
 40
1.0
 10
26.2348369803
 20
30.8231721424
 30
0.0
 10
26.2183399188
 20
30.8326965184
 30
0.0
 10
26.1874304276
 20
30.8585440741
 30
0.0
 10
26.1543997444
 20
30.9121129843
 30
0.0
 10
26.1346285662
 20
30.9781085943
 30
0.0
 10
26.1305106917
 20
31.026162595
 30
0.0
 10
26.1303709278
 20
31.051419705
 30
0.0
  0
SPLINE
  5
282
100
AcDbEntity
  8
0
100
AcDbSpline
 62
7
  6
BYLAYER
 70
0
 71
3
 72
13
 73
9
 74
0
 42
0.0000001
 43
0.0000001
 44
0.0000000001
 40
0.0
 40
0.0
 40
0.0
 40
0.0
 40
0.1141757996
 40
0.2375697486
 40
0.4999996443
 40
0.7624297362
 40
0.885823858
 40
1.0
 40
1.0
 40
1.0
 40
1.0
 10
41.0318768442
 20
23.0219581495
 30
0.0
 10
41.0173651672
 20
23.0135798789
 30
0.0
 10
40.9855974485
 20
22.998805084
 30
0.0
 10
40.9152256742
 20
22.9773948167
 30
0.0
 10
40.8197450794
 20
22.96704949
 30
0.0
 10
40.724264425
 20
22.9773944047
 30
0.0
 10
40.6538924301
 20
22.9988043027
 30
0.0
 10
40.6221245563
 20
23.0135789386
 30
0.0
 10
40.6076127755
 20
23.0219571297
 30
0.0
  0
SPLINE
  5
283
100
AcDbEntity
  8
0
100
AcDbSpline
 62
7
  6
BYLAYER
 70
0
 71
3
 72
24
 73
20
 74
0
 42
0.0000001
 43
0.0000001
 44
0.0000000001
 40
0.0
 40
0.0
 40
0.0
 40
0.0
 40
0.021373506
 40
0.04321459
 40
0.0888983233
 40
0.1381695219
 40
0.1916101378
 40
0.2493848869
 40
0.3113168937
 40
0.3769600701
 40
0.4456677267
 40
0.5166483342
 40
0.5890094102
 40
0.6617992409
 40
0.7340545378
 40
0.8048303777
 40
0.8732333266
 40
0.9385179476
 40
1.0
 40
1.0
 40
1.0
 40
1.0
 10
22.7819214093
 20
35.5758264002
 30
0.0
 10
22.7429277818
 20
35.6077100289
 30
0.0
 10
22.667924453
 20
35.6770294874
 30
0.0
 10
22.5314177512
 20
35.8364617171
 30
0.0
 10
22.3888857416
 20
36.0745210101
 30
0.0
 10
22.2696017096
 20
36.4051250297
 30
0.0
 10
22.2004555173
 20
36.7784192158
 30
0.0
 10
22.1823101209
 20
37.1871737595
 30
0.0
 10
22.2152066032
 20
37.6236464066
 30
0.0
 10
22.2983722446
 20
38.0794499808
 30
0.0
 10
22.4301180715
 20
38.5457528001
 30
0.0
 10
22.6078620266
 20
39.0134442196
 30
0.0
 10
22.8281281348
 20
39.4733309441
 30
0.0
 10
23.0865495485
 20
39.9163800512
 30
0.0
 10
23.3780527256
 20
40.3338691766
 30
0.0
 10
23.6969022379
 20
40.7175536958
 30
0.0
 10
24.0368755581
 20
41.0599879863
 30
0.0
 10
24.3912731082
 20
41.3542826965
 30
0.0
 10
24.6407302598
 20
41.5200653514
 30
0.0
 10
24.7662089536
 20
41.5925100766
 30
0.0
  0
SPLINE
  5
284
100
AcDbEntity
  8
0
100
AcDbSpline
 62
7
  6
BYLAYER
 70
0
 71
3
 72
11
 73
7
 74
0
 42
0.0000001
 43
0.0000001
 44
0.0000000001
 40
0.0
 40
0.0
 40
0.0
 40
0.0
 40
0.2529194637
 40
0.5052249328
 40
0.755282342
 40
1.0
 40
1.0
 40
1.0
 40
1.0
 10
6.1321268345
 20
49.3762455249
 30
0.0
 10
6.1833394926
 20
49.4649489432
 30
0.0
 10
6.3126930976
 20
49.6276002371
 30
0.0
 10
6.5596527127
 20
49.8121309582
 30
0.0
 10
6.8334328418
 20
49.9440119497
 30
0.0
 10
7.0253377783
 20
50.0040714947
 30
0.0
 10
7.1217049043
 20
50.0272020977
 30
0.0
  0
SPLINE
  5
285
100
AcDbEntity
  8
0
100
AcDbSpline
 62
7
  6
BYLAYER
 70
0
 71
3
 72
14
 73
10
 74
0
 42
0.0000001
 43
0.0000001
 44
0.0000000001
 40
0.0
 40
0.0
 40
0.0
 40
0.0
 40
0.2902209618
 40
0.4284144049
 40
0.5601619569
 40
0.6841930055
 40
0.7993534047
 40
0.9047334755
 40
1.0
 40
1.0
 40
1.0
 40
1.0
 10
7.1217049043
 20
50.0272020977
 30
0.0
 10
7.2130350364
 20
50.0491236918
 30
0.0
 10
7.3502104251
 20
50.0726352209
 30
0.0
 10
7.5311050392
 20
50.0857885711
 30
0.0
 10
7.6587401395
 20
50.086016527
 30
0.0
 10
7.7785427064
 20
50.0762379751
 30
0.0
 10
7.8885162779
 20
50.0565444378
 30
0.0
 10
7.9866446767
 20
50.0271318297
 30
0.0
 10
8.0459443436
 20
49.999875738
 30
0.0
 10
8.0726446612
 20
49.9844598616
 30
0.0
  0
SPLINE
  5
286
100
AcDbEntity
  8
0
100
AcDbSpline
 62
7
  6
BYLAYER
 70
0
 71
3
 72
13
 73
9
 74
0
 42
0.0000001
 43
0.0000001
 44
0.0000000001
 40
0.0
 40
0.0
 40
0.0
 40
0.0
 40
0.2880610626
 40
0.5473676203
 40
0.6672805185
 40
0.7817753522
 40
0.8921597352
 40
1.0
 40
1.0
 40
1.0
 40
1.0
 10
20.3139857675
 20
42.819989117
 30
0.0
 10
20.3976872518
 20
42.868313903
 30
0.0
 10
20.5641526121
 20
42.9482683657
 30
0.0
 10
20.782912793
 20
43.004583968
 30
0.0
 10
20.9486594919
 20
43.0152288443
 30
0.0
 10
21.0644425622
 20
43.0068931762
 30
0.0
 10
21.1738025697
 20
42.9825215894
 30
0.0
 10
21.242238857
 20
42.9554637053
 30
0.0
 10
21.2746846391
 20
42.9394498769
 30
0.0
  0
SPLINE
  5
287
100
AcDbEntity
  8
0
100
AcDbSpline
 62
7
  6
BYLAYER
 70
0
 71
3
 72
21
 73
17
 74
0
 42
0.0000001
 43
0.0000001
 44
0.0000000001
 40
0.0
 40
0.0
 40
0.0
 40
0.0
 40
0.0698072005
 40
0.1418562232
 40
0.2892586676
 40
0.4359700865
 40
0.5071252856
 40
0.5758108771
 40
0.641405759
 40
0.7034188919
 40
0.7615221874
 40
0.8156122069
 40
0.8658452062
 40
0.9127079369
 40
0.9570385932
 40
1.0
 40
1.0
 40
1.0
 40
1.0
 10
33.41881758
 20
36.2489762944
 30
0.0
 10
33.3030598757
 20
36.2136286878
 30
0.0
 10
33.0645408033
 20
36.1521850727
 30
0.0
 10
32.5699998195
 20
36.0663013453
 30
0.0
 10
31.9336610107
 20
36.0300620938
 30
0.0
 10
31.3003098551
 20
36.0864067852
 30
0.0
 10
30.8135170294
 20
36.1881130066
 30
0.0
 10
30.4716473064
 20
36.2896962144
 30
0.0
 10
30.1549321538
 20
36.415642948
 30
0.0
 10
29.8684632777
 20
36.5639647645
 30
0.0
 10
29.6168919684
 20
36.7324247463
 30
0.0
 10
29.4042257832
 20
36.9184105374
 30
0.0
 10
29.234099743
 20
37.1193108314
 30
0.0
 10
29.1095726817
 20
37.3322076071
 30
0.0
 10
29.0334148312
 20
37.553696468
 30
0.0
 10
29.0162235992
 20
37.705553203
 30
0.0
 10
29.0162265327
 20
37.7800412692
 30
0.0
  0
SPLINE
  5
288
100
AcDbEntity
  8
0
100
AcDbSpline
 62
7
  6
BYLAYER
 70
0
 71
3
 72
9
 73
5
 74
0
 42
0.0000001
 43
0.0000001
 44
0.0000000001
 40
0.0
 40
0.0
 40
0.0
 40
0.0
 40
0.4844583181
 40
1.0
 40
1.0
 40
1.0
 40
1.0
 10
34.1375352386
 20
36.310368279
 30
0.0
 10
34.0280974934
 20
36.2471847445
 30
0.0
 10
33.7933777737
 20
36.13173651
 30
0.0
 10
33.5474305306
 20
36.0432986354
 30
0.0
 10
33.41881758
 20
36.0040255692
 30
0.0
  0
SPLINE
  5
289
100
AcDbEntity
  8
0
100
AcDbSpline
 62
7
  6
BYLAYER
 70
0
 71
3
 72
9
 73
5
 74
0
 42
0.0000001
 43
0.0000001
 44
0.0000000001
 40
0.0
 40
0.0
 40
0.0
 40
0.0
 40
0.2400366782
 40
1.0
 40
1.0
 40
1.0
 40
1.0
 10
34.6675717582
 20
36.7246989461
 30
0.0
 10
34.6451024425
 20
36.7001952906
 30
0.0
 10
34.5485438528
 20
36.6008289934
 30
0.0
 10
34.4411045849
 20
36.512280796
 30
0.0
 10
34.3556507424
 20
36.4508244707
 30
0.0
  0
SPLINE
  5
28A
100
AcDbEntity
  8
0
100
AcDbSpline
 62
7
  6
BYLAYER
 70
0
 71
3
 72
9
 73
5
 74
0
 42
0.0000001
 43
0.0000001
 44
0.0000000001
 40
0.0
 40
0.0
 40
0.0
 40
0.0
 40
0.2451708585
 40
1.0
 40
1.0
 40
1.0
 40
1.0
 10
34.3377610504
 20
36.438082777
 30
0.0
 10
34.3218980482
 20
36.4268933705
 30
0.0
 10
34.2566478663
 20
36.3820345563
 30
0.0
 10
34.1892945198
 20
36.3402513355
 30
0.0
 10
34.1375352386
 20
36.310368279
 30
0.0
  0
SPLINE
  5
28B
100
AcDbEntity
  8
0
100
AcDbSpline
 62
7
  6
BYLAYER
 70
0
 71
3
 72
9
 73
5
 74
0
 42
0.0000001
 43
0.0000001
 44
0.0000000001
 40
0.0
 40
0.0
 40
0.0
 40
0.0
 40
0.4846218276
 40
1.0
 40
1.0
 40
1.0
 40
1.0
 10
24.0731440928
 20
42.0047631844
 30
0.0
 10
24.0081665075
 20
42.0143105489
 30
0.0
 10
23.871973545
 20
42.0210522029
 30
0.0
 10
23.7368238356
 20
42.0047431297
 30
0.0
 10
23.6682500429
 20
41.9914870893
 30
0.0
  0
SPLINE
  5
28C
100
AcDbEntity
  8
0
100
AcDbSpline
 62
7
  6
BYLAYER
 70
0
 71
3
 72
13
 73
9
 74
0
 42
0.0000001
 43
0.0000001
 44
0.0000000001
 40
0.0
 40
0.0
 40
0.0
 40
0.0
 40
0.1141759018
 40
0.2375697245
 40
0.4999990825
 40
0.762428944
 40
0.8858232992
 40
1.0
 40
1.0
 40
1.0
 40
1.0
 10
42.2659595868
 20
30.5114177295
 30
0.0
 10
42.2804713633
 20
30.503039541
 30
0.0
 10
42.309150844
 20
30.4829155617
 30
0.0
 10
42.362878994
 20
30.4326773228
 30
0.0
 10
42.4195788817
 20
30.3551614564
 30
0.0
 10
42.4583600402
 20
30.267300086
 30
0.0
 10
42.4750040803
 20
30.1956508716
 30
0.0
 10
42.4780925044
 20
30.1607515566
 30
0.0
 10
42.4780925044
 20
30.143994778
 30
0.0
  0
SPLINE
  5
28D
100
AcDbEntity
  8
0
100
AcDbSpline
 62
7
  6
BYLAYER
 70
0
 71
3
 72
15
 73
11
 74
0
 42
0.0000001
 43
0.0000001
 44
0.0000000001
 40
0.0
 40
0.0
 40
0.0
 40
0.0
 40
0.1141236058
 40
0.2373475862
 40
0.3669728832
 40
0.5000004526
 40
0.6330279586
 40
0.7626530685
 40
0.8858767805
 40
1.0
 40
1.0
 40
1.0
 40
1.0
 10
40.1083158139
 20
31.7571057614
 30
0.0
 10
40.0720204216
 20
31.7780604419
 30
0.0
 10
39.9926192069
 20
31.815016086
 30
0.0
 10
39.8633488966
 20
31.8543311146
 30
0.0
 10
39.7233699069
 20
31.8785012219
 30
0.0
 10
39.5779849067
 20
31.8866751971
 30
0.0
 10
39.4326000129
 20
31.8785005484
 30
0.0
 10
39.2926213271
 20
31.8543297866
 30
0.0
 10
39.1633515291
 20
31.8150141281
 30
0.0
 10
39.0839507604
 20
31.7780580832
 30
0.0
 10
39.0476556421
 20
31.7571032119
 30
0.0
  0
SPLINE
  5
28E
100
AcDbEntity
  8
0
100
AcDbSpline
 62
7
  6
BYLAYER
 70
0
 71
3
 72
13
 73
9
 74
0
 42
0.0000001
 43
0.0000001
 44
0.0000000001
 40
0.0
 40
0.0
 40
0.0
 40
0.0
 40
0.114176888
 40
0.2375715548
 40
0.5000017735
 40
0.762431024
 40
0.8858245003
 40
1.0
 40
1.0
 40
1.0
 40
1.0
 10
37.9196367086
 20
30.8608943394
 30
0.0
 10
37.9196367086
 20
30.8776511356
 30
0.0
 10
37.922725128
 20
30.9125505013
 30
0.0
 10
37.9393690281
 20
30.9841998289
 30
0.0
 10
37.9781498777
 20
31.0720613508
 30
0.0
 10
38.0348492884
 20
31.1495774585
 30
0.0
 10
38.0885769666
 20
31.1998159536
 30
0.0
 10
38.1172562034
 20
31.219940052
 30
0.0
 10
38.1317678598
 20
31.2283183107
 30
0.0
  0
SPLINE
  5
28F
100
AcDbEntity
  8
0
100
AcDbSpline
 62
7
  6
BYLAYER
 70
0
 71
3
 72
11
 73
7
 74
0
 42
0.0000001
 43
0.0000001
 44
0.0000000001
 40
0.0
 40
0.0
 40
0.0
 40
0.0
 40
0.2764805523
 40
0.5349475439
 40
0.775461942
 40
1.0
 40
1.0
 40
1.0
 40
1.0
 10
23.6395239024
 20
41.7708546389
 30
0.0
 10
23.7262283546
 20
41.8209131789
 30
0.0
 10
23.8992155451
 20
41.909154703
 30
0.0
 10
24.163702597
 20
42.0058080803
 30
0.0
 10
24.4208617889
 20
42.0605764215
 30
0.0
 10
24.5900905838
 20
42.0685878174
 30
0.0
 10
24.6713056967
 20
42.0646937553
 30
0.0
  0
SPLINE
  5
290
100
AcDbEntity
  8
0
100
AcDbSpline
 62
7
  6
BYLAYER
 70
0
 71
3
 72
9
 73
5
 74
0
 42
0.0000001
 43
0.0000001
 44
0.0000000001
 40
0.0
 40
0.0
 40
0.0
 40
0.0
 40
0.4915209645
 40
1.0
 40
1.0
 40
1.0
 40
1.0
 10
25.7301833312
 20
41.9540986817
 30
0.0
 10
25.6694465264
 20
41.9771369901
 30
0.0
 10
25.5417110966
 20
42.0135898203
 30
0.0
 10
25.409924714
 20
42.0293323206
 30
0.0
 10
25.3428012849
 20
42.0325513903
 30
0.0
  0
SPLINE
  5
291
100
AcDbEntity
  8
0
100
AcDbSpline
 62
7
  6
BYLAYER
 70
0
 71
3
 72
9
 73
5
 74
0
 42
0.0000001
 43
0.0000001
 44
0.0000000001
 40
0.0
 40
0.0
 40
0.0
 40
0.0
 40
0.4799719463
 40
1.0
 40
1.0
 40
1.0
 40
1.0
 10
25.3428012849
 20
42.0325513903
 30
0.0
 10
25.2389863162
 20
42.0375300935
 30
0.0
 10
25.021208177
 20
42.0239670392
 30
0.0
 10
24.8100978085
 20
41.9710885471
 30
0.0
 10
24.7031847352
 20
41.9357305838
 30
0.0
  0
SPLINE
  5
292
100
AcDbEntity
  8
0
100
AcDbSpline
 62
7
  6
BYLAYER
 70
0
 71
3
 72
9
 73
5
 74
0
 42
0.0000001
 43
0.0000001
 44
0.0000000001
 40
0.0
 40
0.0
 40
0.0
 40
0.0
 40
0.2395603635
 40
1.0
 40
1.0
 40
1.0
 40
1.0
 10
24.7031847352
 20
41.9357305838
 30
0.0
 10
24.6614642234
 20
41.9219329043
 30
0.0
 10
24.489004244
 20
41.8592489475
 30
0.0
 10
24.3236671751
 20
41.7776558763
 30
0.0
 10
24.202866428
 20
41.7079119488
 30
0.0
  0
SPLINE
  5
293
100
AcDbEntity
  8
0
100
AcDbSpline
 62
7
  6
BYLAYER
 70
0
 71
3
 72
10
 73
6
 74
0
 42
0.0000001
 43
0.0000001
 44
0.0000000001
 40
0.0
 40
0.0
 40
0.0
 40
0.0
 40
0.470518552
 40
0.7280693158
 40
1.0
 40
1.0
 40
1.0
 40
1.0
 10
30.5914284622
 20
36.2893273402
 30
0.0
 10
30.6319601282
 20
36.3491168723
 30
0.0
 10
30.7086532375
 20
36.4325362056
 30
0.0
 10
30.8294797295
 20
36.5273654953
 30
0.0
 10
30.8981748538
 20
36.5711412459
 30
0.0
 10
30.9343281837
 20
36.5920142561
 30
0.0
  0
SPLINE
  5
294
100
AcDbEntity
  8
0
100
AcDbSpline
 62
7
  6
BYLAYER
 70
0
 71
3
 72
11
 73
7
 74
0
 42
0.0000001
 43
0.0000001
 44
0.0000000001
 40
0.0
 40
0.0
 40
0.0
 40
0.0
 40
0.2891794172
 40
0.5486159499
 40
0.7819026134
 40
1.0
 40
1.0
 40
1.0
 40
1.0
 10
35.6056412448
 20
25.5809935944
 30
0.0
 10
35.6057810087
 20
25.5557364878
 30
0.0
 10
35.6098989123
 20
25.5076824791
 30
0.0
 10
35.6296700609
 20
25.4416868468
 30
0.0
 10
35.6627007703
 20
25.3881179513
 30
0.0
 10
35.693610241
 20
25.3622703936
 30
0.0
 10
35.710107297
 20
25.352746032
 30
0.0
  0
SPLINE
  5
295
100
AcDbEntity
  8
0
100
AcDbSpline
 62
7
  6
BYLAYER
 70
0
 71
3
 72
18
 73
14
 74
0
 42
0.0000001
 43
0.0000001
 44
0.0000000001
 40
0.0
 40
0.0
 40
0.0
 40
0.0
 40
0.0591783276
 40
0.1217394501
 40
0.2546175313
 40
0.3939205759
 40
0.5338868741
 40
0.6686795461
 40
0.7325408296
 40
0.7932894169
 40
0.8505439591
 40
0.904085361
 40
1.0
 40
1.0
 40
1.0
 40
1.0
 10
30.9343281837
 20
36.5920142561
 30
0.0
 10
30.9811778852
 20
36.6190627824
 30
0.0
 10
31.080744576
 20
36.6693060702
 30
0.0
 10
31.297896364
 20
36.7538465454
 30
0.0
 10
31.5967293047
 20
36.8263981366
 30
0.0
 10
31.9733043797
 20
36.8595585215
 30
0.0
 10
32.3525060457
 20
36.838517176
 30
0.0
 10
32.6570758999
 20
36.7757743866
 30
0.0
 10
32.8816202583
 20
36.6986745422
 30
0.0
 10
33.0334448815
 20
36.6303449318
 30
0.0
 10
33.1694191593
 20
36.5514392029
 30
0.0
 10
33.3208505146
 20
36.4382263902
 30
0.0
 10
33.4144228769
 20
36.3347367645
 30
0.0
 10
33.4599423808
 20
36.2597990665
 30
0.0
  0
SPLINE
  5
296
100
AcDbEntity
  8
0
100
AcDbSpline
 62
7
  6
BYLAYER
 70
0
 71
3
 72
9
 73
5
 74
0
 42
0.0000001
 43
0.0000001
 44
0.0000000001
 40
0.0
 40
0.0
 40
0.0
 40
0.0
 40
0.2568575135
 40
1.0
 40
1.0
 40
1.0
 40
1.0
 10
33.4599423808
 20
36.2597990665
 30
0.0
 10
33.4664652705
 20
36.2490605853
 30
0.0
 10
33.490711338
 20
36.2065738473
 30
0.0
 10
33.5101448502
 20
36.1612823097
 30
0.0
 10
33.5211433726
 20
36.1266347936
 30
0.0
  0
SPLINE
  5
297
100
AcDbEntity
  8
0
100
AcDbSpline
 62
7
  6
BYLAYER
 70
0
 71
3
 72
25
 73
21
 74
0
 42
0.0000001
 43
0.0000001
 44
0.0000000001
 40
0.0
 40
0.0
 40
0.0
 40
0.0
 40
0.0074413067
 40
0.015929463
 40
0.0325088632
 40
0.0486894491
 40
0.0647543221
 40
0.0963807465
 40
0.1277970041
 40
0.1590717534
 40
0.1902377557
 40
0.252346105
 40
0.314351236
 40
0.3763619415
 40
0.4384226025
 40
0.5005484905
 40
0.624993524
 40
0.7497274834
 40
0.8747410564
 40
1.0
 40
1.0
 40
1.0
 40
1.0
 10
25.4754646573
 20
35.0624942576
 30
0.0
 10
25.4739522853
 20
35.0633674063
 30
0.0
 10
25.4712415941
 20
35.0660774604
 30
0.0
 10
25.4670220807
 20
35.0724302972
 30
0.0
 10
25.4629834747
 20
35.081285407
 30
0.0
 10
25.4591396419
 20
35.0920752094
 30
0.0
 10
25.4547047476
 20
35.1064012019
 30
0.0
 10
25.4502394303
 20
35.1244282419
 30
0.0
 10
25.4452240486
 20
35.1459862085
 30
0.0
 10
25.4406871015
 20
35.1675422118
 30
0.0
 10
25.4351110025
 20
35.1962354435
 30
0.0
 10
25.4289502387
 20
35.2321560157
 30
0.0
 10
25.4223438776
 20
35.2753345785
 30
0.0
 10
25.4163802819
 20
35.318595429
 30
0.0
 10
25.4109830404
 20
35.3619588185
 30
0.0
 10
25.4045072742
 20
35.4199486175
 30
0.0
 10
25.3978203335
 20
35.4927077193
 30
0.0
 10
25.3919796792
 20
35.5803379796
 30
0.0
 10
25.3883846867
 20
35.6682808707
 30
0.0
 10
25.3875776941
 20
35.7270181324
 30
0.0
 10
25.3875823502
 20
35.7564139191
 30
0.0
  0
SPLINE
  5
298
100
AcDbEntity
  8
0
100
AcDbSpline
 62
7
  6
BYLAYER
 70
0
 71
3
 72
10
 73
6
 74
0
 42
0.0000001
 43
0.0000001
 44
0.0000000001
 40
0.0
 40
0.0
 40
0.0
 40
0.0
 40
0.2714718245
 40
0.5288231957
 40
1.0
 40
1.0
 40
1.0
 40
1.0
 10
29.8948768878
 20
37.7800099056
 30
0.0
 10
29.825601171
 20
37.7400137906
 30
0.0
 10
29.693831305
 20
37.656252841
 30
0.0
 10
29.4612829388
 20
37.475051242
 30
0.0
 10
29.3128131919
 20
37.3161753409
 30
0.0
 10
29.2333862208
 20
37.2023008729
 30
0.0
  0
SPLINE
  5
299
100
AcDbEntity
  8
0
100
AcDbSpline
 62
7
  6
BYLAYER
 70
0
 71
3
 72
25
 73
21
 74
0
 42
0.0000001
 43
0.0000001
 44
0.0000000001
 40
0.0
 40
0.0
 40
0.0
 40
0.0
 40
0.0638763926
 40
0.1320815287
 40
0.2036875004
 40
0.2776893094
 40
0.3528945869
 40
0.4280619674
 40
0.5019571875
 40
0.5734015785
 40
0.6413537853
 40
0.7049808206
 40
0.7637415639
 40
0.8175026458
 40
0.8666599357
 40
0.9122440524
 40
0.9342473922
 40
0.9560285123
 40
0.977856789
 40
1.0
 40
1.0
 40
1.0
 40
1.0
 10
30.4252091816
 20
37.4738293397
 30
0.0
 10
30.5121163238
 20
37.5240049021
 30
0.0
 10
30.6992832037
 20
37.6151267926
 30
0.0
 10
31.0019461102
 20
37.7208439266
 30
0.0
 10
31.3294790339
 20
37.7979382138
 30
0.0
 10
31.6737417889
 20
37.8445844953
 30
0.0
 10
32.0264071152
 20
37.8596397864
 30
0.0
 10
32.3788197289
 20
37.8427429757
 30
0.0
 10
32.7223580406
 20
37.7943123245
 30
0.0
 10
33.0486256597
 20
37.715492736
 30
0.0
 10
33.3496936746
 20
37.6082150234
 30
0.0
 10
33.6183014997
 20
37.4750018054
 30
0.0
 10
33.8479898787
 20
37.3188458052
 30
0.0
 10
34.0331951774
 20
37.1430624362
 30
0.0
 10
34.1691105817
 20
36.9513324685
 30
0.0
 10
34.2383294081
 20
36.7791869152
 30
0.0
 10
34.2636879103
 20
36.6407077642
 30
0.0
 10
34.2683322771
 20
36.537398796
 30
0.0
 10
34.2587900605
 20
36.4342331519
 30
0.0
 10
34.2431286135
 20
36.3667055228
 30
0.0
 10
34.2331175431
 20
36.3333895319
 30
0.0
  0
SPLINE
  5
29A
100
AcDbEntity
  8
0
100
AcDbSpline
 62
7
  6
BYLAYER
 70
0
 71
3
 72
23
 73
19
 74
0
 42
0.0000001
 43
0.0000001
 44
0.0000000001
 40
0.0
 40
0.0
 40
0.0
 40
0.0
 40
0.0623751258
 40
0.1287518919
 40
0.1983478252
 40
0.270335833
 40
0.3437251623
 40
0.4174669104
 40
0.4905030573
 40
0.5618008775
 40
0.6304099318
 40
0.6955075564
 40
0.7564640054
 40
0.8129114135
 40
0.8648203244
 40
0.912601854
 40
0.9571842682
 40
1.0
 40
1.0
 40
1.0
 40
1.0
 10
29.8948768878
 20
39.0047635313
 30
0.0
 10
30.0026295795
 20
39.0669742055
 30
0.0
 10
30.2336434711
 20
39.1808337546
 30
0.0
 10
30.6062285639
 20
39.315896489
 30
0.0
 10
31.0089250754
 20
39.4181090127
 30
0.0
 10
31.4330012728
 20
39.4853379677
 30
0.0
 10
31.8695284681
 20
39.5162042104
 30
0.0
 10
32.3091847357
 20
39.510028523
 30
0.0
 10
32.7425890702
 20
39.4669179964
 30
0.0
 10
33.1605119488
 20
39.3878164777
 30
0.0
 10
33.5540768715
 20
39.2744114
 30
0.0
 10
33.9149485868
 20
39.1290195524
 30
0.0
 10
34.2355524372
 20
38.9546368599
 30
0.0
 10
34.5091962738
 20
38.7547122987
 30
0.0
 10
34.7300163678
 20
38.5329539817
 30
0.0
 10
34.8929321938
 20
38.2933131072
 30
0.0
 10
34.9933760473
 20
38.0405288515
 30
0.0
 10
35.0161702508
 20
37.8654472984
 30
0.0
 10
35.0161878932
 20
37.780041221
 30
0.0
  0
SPLINE
  5
29B
100
AcDbEntity
  8
0
100
AcDbSpline
 62
7
  6
BYLAYER
 70
0
 71
3
 72
10
 73
6
 74
0
 42
0.0000001
 43
0.0000001
 44
0.0000000001
 40
0.0
 40
0.0
 40
0.0
 40
0.0
 40
0.2438320734
 40
0.4934227495
 40
1.0
 40
1.0
 40
1.0
 40
1.0
 10
25.3875958085
 20
38.3410567322
 30
0.0
 10
25.3875958997
 20
38.3157503028
 30
0.0
 10
25.392405943
 20
38.2644771465
 30
0.0
 10
25.4168628694
 20
38.1634099898
 30
0.0
 10
25.4491766579
 20
38.0909097861
 30
0.0
 10
25.4754646573
 20
38.0453778883
 30
0.0
  0
SPLINE
  5
29C
100
AcDbEntity
  8
0
100
AcDbSpline
 62
7
  6
BYLAYER
 70
0
 71
3
 72
10
 73
6
 74
0
 42
0.0000001
 43
0.0000001
 44
0.0000000001
 40
0.0
 40
0.0
 40
0.0
 40
0.0
 40
0.5065773382
 40
0.7561675297
 40
1.0
 40
1.0
 40
1.0
 40
1.0
 10
25.6875958085
 20
38.4128018596
 30
0.0
 10
25.6350203901
 20
38.4128017332
 30
0.0
 10
25.5560771179
 20
38.4045358252
 30
0.0
 10
25.4563227813
 20
38.3751822785
 30
0.0
 10
25.4095143248
 20
38.3537113186
 30
0.0
 10
25.3875984004
 20
38.3410582286
 30
0.0
  0
SPLINE
  5
29D
100
AcDbEntity
  8
0
100
AcDbSpline
 62
7
  6
BYLAYER
 70
0
 71
3
 72
25
 73
21
 74
0
 42
0.0000001
 43
0.0000001
 44
0.0000000001
 40
0.0
 40
0.0
 40
0.0
 40
0.0
 40
0.1217947514
 40
0.2446624616
 40
0.3688450824
 40
0.4944737655
 40
0.6215602488
 40
0.6856392711
 40
0.749960627
 40
0.8142639079
 40
0.846238217
 40
0.878014283
 40
0.9095169334
 40
0.9251289028
 40
0.940563964
 40
0.9555743365
 40
0.9700077406
 40
0.9839087921
 40
0.991343655
 40
1.0
 40
1.0
 40
1.0
 40
1.0
 10
25.3875823744
 20
34.3738841719
 30
0.0
 10
25.3875776824
 20
34.3929143103
 30
0.0
 10
25.3883970212
 20
34.4311471029
 30
0.0
 10
25.3920102473
 20
34.488679146
 30
0.0
 10
25.3978677299
 20
34.5466274042
 30
0.0
 10
25.4059064907
 20
34.604978189
 30
0.0
 10
25.4144360292
 20
34.6537476434
 30
0.0
 10
25.422356127
 20
34.692875505
 30
0.0
 10
25.428946218
 20
34.7222569221
 30
0.0
 10
25.4350837109
 20
34.7465945731
 30
0.0
 10
25.4406636903
 20
34.7658112663
 30
0.0
 10
25.4452029557
 20
34.779986966
 30
0.0
 10
25.4493416687
 20
34.7916021437
 30
0.0
 10
25.4529322618
 20
34.800691662
 30
0.0
 10
25.4557187177
 20
34.8073304843
 30
0.0
 10
25.4590710982
 20
34.8135114354
 30
0.0
 10
25.4628282762
 20
34.819128228
 30
0.0
 10
25.4670535032
 20
34.8230819956
 30
0.0
 10
25.471744126
 20
34.8243041722
 30
0.0
 10
25.4742933226
 20
34.8235194039
 30
0.0
 10
25.4754646573
 20
34.8228431488
 30
0.0
  0
SPLINE
  5
29E
100
AcDbEntity
  8
0
100
AcDbSpline
 62
7
  6
BYLAYER
 70
0
 71
3
 72
9
 73
5
 74
0
 42
0.0000001
 43
0.0000001
 44
0.0000000001
 40
0.0
 40
0.0
 40
0.0
 40
0.0
 40
0.2613841905
 40
1.0
 40
1.0
 40
1.0
 40
1.0
 10
23.0761813768
 20
41.6869116188
 30
0.0
 10
23.1097119253
 20
41.7062703744
 30
0.0
 10
23.2397410123
 20
41.7771944261
 30
0.0
 10
23.3770645899
 20
41.8352760631
 30
0.0
 10
23.4814892792
 20
41.8679191576
 30
0.0
  0
SPLINE
  5
29F
100
AcDbEntity
  8
0
100
AcDbSpline
 62
7
  6
BYLAYER
 70
0
 71
3
 72
9
 73
5
 74
0
 42
0.0000001
 43
0.0000001
 44
0.0000000001
 40
0.0
 40
0.0
 40
0.0
 40
0.0
 40
0.2577118583
 40
1.0
 40
1.0
 40
1.0
 40
1.0
 10
23.647101594
 20
41.9099993534
 30
0.0
 10
23.6676868888
 20
41.9139952133
 30
0.0
 10
23.7478884949
 20
41.9277308454
 30
0.0
 10
23.8294167598
 20
41.9341221321
 30
0.0
 10
23.8898151143
 20
41.9339509285
 30
0.0
  0
SPLINE
  5
2A0
100
AcDbEntity
  8
0
100
AcDbSpline
 62
7
  6
BYLAYER
 70
0
 71
3
 72
9
 73
5
 74
0
 42
0.0000001
 43
0.0000001
 44
0.0000000001
 40
0.0
 40
0.0
 40
0.0
 40
0.0
 40
0.2430989227
 40
1.0
 40
1.0
 40
1.0
 40
1.0
 10
21.4915419125
 20
37.6625841214
 30
0.0
 10
21.480586269
 20
37.679028865
 30
0.0
 10
21.4374176621
 20
37.7479322449
 30
0.0
 10
21.4018859009
 20
37.8215250066
 30
0.0
 10
21.3790380735
 20
37.8786488576
 30
0.0
  0
SPLINE
  5
2A1
100
AcDbEntity
  8
0
100
AcDbSpline
 62
7
  6
BYLAYER
 70
0
 71
3
 72
9
 73
5
 74
0
 42
0.0000001
 43
0.0000001
 44
0.0000000001
 40
0.0
 40
0.0
 40
0.0
 40
0.0
 40
0.245709318
 40
1.0
 40
1.0
 40
1.0
 40
1.0
 10
21.3790380735
 20
37.8786488576
 30
0.0
 10
21.3747244038
 20
37.8894338406
 30
0.0
 10
21.3577438351
 20
37.9335558632
 30
0.0
 10
21.3430389752
 20
37.9785472498
 30
0.0
 10
21.3331555638
 20
38.0128085279
 30
0.0
  0
SPLINE
  5
2A2
100
AcDbEntity
  8
0
100
AcDbSpline
 62
7
  6
BYLAYER
 70
0
 71
3
 72
9
 73
5
 74
0
 42
0.0000001
 43
0.0000001
 44
0.0000000001
 40
0.0
 40
0.0
 40
0.0
 40
0.0
 40
0.4809707424
 40
1.0
 40
1.0
 40
1.0
 40
1.0
 10
21.3331555638
 20
38.0128085279
 30
0.0
 10
21.3091476018
 20
38.096033179
 30
0.0
 10
21.2739422204
 20
38.2734645526
 30
0.0
 10
21.263505602
 20
38.4537754022
 30
0.0
 10
21.263505602
 20
38.5472476505
 30
0.0
  0
SPLINE
  5
2A3
100
AcDbEntity
  8
0
100
AcDbSpline
 62
7
  6
BYLAYER
 70
0
 71
3
 72
15
 73
11
 74
0
 42
0.0000001
 43
0.0000001
 44
0.0000000001
 40
0.0
 40
0.0
 40
0.0
 40
0.0
 40
0.1141475829
 40
0.2373370756
 40
0.3669780685
 40
0.5000016033
 40
0.6330249151
 40
0.7626652568
 40
0.8858537231
 40
1.0
 40
1.0
 40
1.0
 40
1.0
 10
21.263505602
 20
38.5472476505
 30
0.0
 10
21.263505602
 20
38.6905280773
 30
0.0
 10
21.2897681392
 20
38.9887143917
 30
0.0
 10
21.3943688979
 20
39.4385544843
 30
0.0
 10
21.5620125894
 20
39.8941967073
 30
0.0
 10
21.7863081811
 20
40.3385196941
 30
0.0
 10
22.058952892
 20
40.7549275247
 30
0.0
 10
22.3697257239
 20
41.1279318019
 30
0.0
 10
22.7069947802
 20
41.4434370738
 30
0.0
 10
22.9520981218
 20
41.6152725458
 30
0.0
 10
23.0761813768
 20
41.6869116188
 30
0.0
  0
SPLINE
  5
2A4
100
AcDbEntity
  8
0
100
AcDbSpline
 62
7
  6
BYLAYER
 70
0
 71
3
 72
19
 73
15
 74
0
 42
0.0000001
 43
0.0000001
 44
0.0000000001
 40
0.0
 40
0.0
 40
0.0
 40
0.0
 40
0.0580561158
 40
0.11924482
 40
0.1830822216
 40
0.2490987967
 40
0.3854025249
 40
0.5233434395
 40
0.657842523
 40
0.722352103
 40
0.7843109221
 40
0.8433064017
 40
0.8990300381
 40
1.0
 40
1.0
 40
1.0
 40
1.0
 10
23.0761813768
 20
41.7603544739
 30
0.0
 10
23.0001672332
 20
41.7164679495
 30
0.0
 10
22.8487167802
 20
41.6180516488
 30
0.0
 10
22.6309775067
 20
41.4466380377
 30
0.0
 10
22.4194442858
 20
41.2494946691
 30
0.0
 10
22.1467921559
 20
40.953119819
 30
0.0
 10
21.8407444183
 20
40.5373151437
 30
0.0
 10
21.5438608859
 20
39.9933625128
 30
0.0
 10
21.3622889555
 20
39.5153138646
 30
0.0
 10
21.2649601589
 20
39.1325858942
 30
0.0
 10
21.2180551704
 20
38.8558191478
 30
0.0
 10
21.1968470119
 20
38.5890648203
 30
0.0
 10
21.2030917931
 20
38.2628744362
 30
0.0
 10
21.2459493308
 20
38.0264608344
 30
0.0
 10
21.2957988756
 20
37.8821757834
 30
0.0
  0
SPLINE
  5
2A5
100
AcDbEntity
  8
0
100
AcDbSpline
 62
7
  6
BYLAYER
 70
0
 71
3
 72
15
 73
11
 74
0
 42
0.0000001
 43
0.0000001
 44
0.0000000001
 40
0.0
 40
0.0
 40
0.0
 40
0.0
 40
0.1141231812
 40
0.2373468278
 40
0.366971913
 40
0.4999994099
 40
0.6330269884
 40
0.76265231
 40
0.885876356
 40
1.0
 40
1.0
 40
1.0
 40
1.0
 10
38.9062336971
 20
31.8387513628
 30
0.0
 10
38.9522074982
 20
31.8652941908
 30
0.0
 10
39.0527817542
 20
31.9121051757
 30
0.0
 10
39.2165234421
 20
31.9619049903
 30
0.0
 10
39.3938297274
 20
31.9925213014
 30
0.0
 10
39.5779839138
 20
32.0028758774
 30
0.0
 10
39.7621382598
 20
31.9925221965
 30
0.0
 10
39.9394450301
 20
31.96190674
 30
0.0
 10
40.1031874793
 20
31.9121076843
 30
0.0
 10
40.2037624024
 20
31.8652971963
 30
0.0
 10
40.2497365813
 20
31.8387545922
 30
0.0
  0
SPLINE
  5
2A6
100
AcDbEntity
  8
0
100
AcDbSpline
 62
7
  6
BYLAYER
 70
0
 71
3
 72
17
 73
13
 74
0
 42
0.0000001
 43
0.0000001
 44
0.0000000001
 40
0.0
 40
0.0
 40
0.0
 40
0.0
 40
0.1009907396
 40
0.1567257952
 40
0.2157331272
 40
0.3421211695
 40
0.4766462763
 40
0.6146180429
 40
0.7509499519
 40
0.8807319905
 40
0.9419325193
 40
1.0
 40
1.0
 40
1.0
 40
1.0
 10
21.0782491905
 20
38.511888816
 30
0.0
 10
21.0375717546
 20
38.6296229377
 30
0.0
 10
21.0026028587
 20
38.8225297454
 30
0.0
 10
20.9975029062
 20
39.0887056977
 30
0.0
 10
21.0211395477
 20
39.3856722617
 30
0.0
 10
21.1054134282
 20
39.7731059946
 30
0.0
 10
21.2806245056
 20
40.2345045469
 30
0.0
 10
21.5229569782
 20
40.6785089111
 30
0.0
 10
21.8193138941
 20
41.0810785177
 30
0.0
 10
22.1038024265
 20
41.370062579
 30
0.0
 10
22.3453984646
 20
41.5602969241
 30
0.0
 10
22.4689854045
 20
41.6406013319
 30
0.0
 10
22.5310111908
 20
41.6764117225
 30
0.0
  0
SPLINE
  5
2A7
100
AcDbEntity
  8
0
100
AcDbSpline
 62
7
  6
BYLAYER
 70
0
 71
3
 72
13
 73
9
 74
0
 42
0.0000001
 43
0.0000001
 44
0.0000000001
 40
0.0
 40
0.0
 40
0.0
 40
0.0
 40
0.1141767831
 40
0.2375713001
 40
0.500001251
 40
0.7624305195
 40
0.8858241805
 40
1.0
 40
1.0
 40
1.0
 40
1.0
 10
42.6195132718
 20
30.2256436088
 30
0.0
 10
42.6195132718
 20
30.2424003994
 30
0.0
 10
42.6164248283
 20
30.2772997489
 30
0.0
 10
42.5997807864
 20
30.3489490123
 30
0.0
 10
42.5609995864
 20
30.4368103957
 30
0.0
 10
42.5042996893
 20
30.5143262198
 30
0.0
 10
42.4505715809
 20
30.5645644325
 30
0.0
 10
42.4218921202
 20
30.5846883779
 30
0.0
 10
42.4073803543
 20
30.5930665603
 30
0.0
  0
SPLINE
  5
2A8
100
AcDbEntity
  8
0
100
AcDbSpline
 62
7
  6
BYLAYER
 70
0
 71
3
 72
10
 73
6
 74
0
 42
0.0000001
 43
0.0000001
 44
0.0000000001
 40
0.0
 40
0.0
 40
0.0
 40
0.0
 40
0.5065782164
 40
0.7561682471
 40
1.0
 40
1.0
 40
1.0
 40
1.0
 10
46.2644452396
 20
32.3300335
 30
0.0
 10
46.2907329432
 20
32.375565391
 30
0.0
 10
46.3230462371
 20
32.4480654349
 30
0.0
 10
46.347502545
 20
32.5491322238
 30
0.0
 10
46.3523123223
 20
32.6004050503
 30
0.0
 10
46.352312322
 20
32.6257113241
 30
0.0
  0
SPLINE
  5
2A9
100
AcDbEntity
  8
0
100
AcDbSpline
 62
7
  6
BYLAYER
 70
0
 71
3
 72
10
 73
6
 74
0
 42
0.0000001
 43
0.0000001
 44
0.0000000001
 40
0.0
 40
0.0
 40
0.0
 40
0.0
 40
0.5065789133
 40
0.7561727173
 40
1.0
 40
1.0
 40
1.0
 40
1.0
 10
46.052312322
 20
32.6974564515
 30
0.0
 10
46.1048874892
 20
32.6974565779
 30
0.0
 10
46.1838318389
 20
32.689193748
 30
0.0
 10
46.2835823638
 20
32.6598318768
 30
0.0
 10
46.3303931047
 20
32.6383675467
 30
0.0
 10
46.3523084811
 20
32.6257149838
 30
0.0
  0
SPLINE
  5
2AA
100
AcDbEntity
  8
0
100
AcDbSpline
 62
7
  6
BYLAYER
 70
0
 71
3
 72
11
 73
7
 74
0
 42
0.0000001
 43
0.0000001
 44
0.0000000001
 40
0.0
 40
0.0
 40
0.0
 40
0.0
 40
0.2733553571
 40
0.529113278
 40
0.7698263522
 40
1.0
 40
1.0
 40
1.0
 40
1.0
 10
27.2889610968
 20
41.0533625999
 30
0.0
 10
27.3947878142
 20
41.0876958882
 30
0.0
 10
27.6041666168
 20
41.1413752035
 30
0.0
 10
27.9171477719
 20
41.1735160893
 30
0.0
 10
28.2137410698
 20
41.1533376249
 30
0.0
 10
28.4004485348
 20
41.1039325376
 30
0.0
 10
28.4880659966
 20
41.0707748997
 30
0.0
  0
SPLINE
  5
2AB
100
AcDbEntity
  8
0
100
AcDbSpline
 62
7
  6
BYLAYER
 70
0
 71
3
 72
9
 73
5
 74
0
 42
0.0000001
 43
0.0000001
 44
0.0000000001
 40
0.0
 40
0.0
 40
0.0
 40
0.0
 40
0.5166445062
 40
1.0
 40
1.0
 40
1.0
 40
1.0
 10
24.202866428
 20
41.5085670565
 30
0.0
 10
24.2906105306
 20
41.5592258354
 30
0.0
 10
24.4656291884
 20
41.6486631577
 30
0.0
 10
24.6502526894
 20
41.7166480172
 30
0.0
 10
24.7413197018
 20
41.7429520287
 30
0.0
  0
SPLINE
  5
2AC
100
AcDbEntity
  8
0
100
AcDbSpline
 62
7
  6
BYLAYER
 70
0
 71
3
 72
9
 73
5
 74
0
 42
0.0000001
 43
0.0000001
 44
0.0000000001
 40
0.0
 40
0.0
 40
0.0
 40
0.0
 40
0.5179202869
 40
1.0
 40
1.0
 40
1.0
 40
1.0
 10
24.7413197018
 20
41.7429520287
 30
0.0
 10
24.831157638
 20
41.768901031
 30
0.0
 10
25.0084920705
 20
41.8068904692
 30
0.0
 10
25.1900720538
 20
41.8141633193
 30
0.0
 10
25.2769531738
 20
41.8089158551
 30
0.0
  0
SPLINE
  5
2AD
100
AcDbEntity
  8
0
100
AcDbSpline
 62
7
  6
BYLAYER
 70
0
 71
3
 72
13
 73
9
 74
0
 42
0.0000001
 43
0.0000001
 44
0.0000000001
 40
0.0
 40
0.0
 40
0.0
 40
0.0
 40
0.114175582
 40
0.23756922
 40
0.49999856
 40
0.7624286893
 40
0.8858231943
 40
1.0
 40
1.0
 40
1.0
 40
1.0
 10
37.9903459148
 20
31.3099664616
 30
0.0
 10
37.9758342479
 20
31.3015881968
 30
0.0
 10
37.9471549911
 20
31.2814640644
 30
0.0
 10
37.8934272713
 20
31.2312255432
 30
0.0
 10
37.83672787
 20
31.1537093932
 30
0.0
 10
37.7979470618
 20
31.0658478842
 30
0.0
 10
37.7813031635
 20
30.9941986058
 30
0.0
 10
37.7782147636
 20
30.9592992744
 30
0.0
 10
37.7782147636
 20
30.9425424903
 30
0.0
  0
SPLINE
  5
2AE
100
AcDbEntity
  8
0
100
AcDbSpline
 62
7
  6
BYLAYER
 70
0
 71
3
 72
11
 73
7
 74
0
 42
0.0000001
 43
0.0000001
 44
0.0000000001
 40
0.0
 40
0.0
 40
0.0
 40
0.0
 40
0.2247680033
 40
0.4654079656
 40
0.7238121338
 40
1.0
 40
1.0
 40
1.0
 40
1.0
 10
22.2437576092
 20
36.6027483296
 30
0.0
 10
22.1995869155
 20
36.67262849
 30
0.0
 10
22.1216223888
 20
36.8261440422
 30
0.0
 10
22.0401598061
 20
37.0805562346
 30
0.0
 10
21.9914394658
 20
37.362285532
 30
0.0
 10
21.9813164183
 20
37.5591262188
 30
0.0
 10
21.9813164183
 20
37.6607082082
 30
0.0
  0
SPLINE
  5
2AF
100
AcDbEntity
  8
0
100
AcDbSpline
 62
7
  6
BYLAYER
 70
0
 71
3
 72
15
 73
11
 74
0
 42
0.0000001
 43
0.0000001
 44
0.0000000001
 40
0.0
 40
0.0
 40
0.0
 40
0.0
 40
0.114155658
 40
0.2373279333
 40
0.3669777387
 40
0.5000016213
 40
0.633025278
 40
0.7626744253
 40
0.8858456604
 40
1.0
 40
1.0
 40
1.0
 40
1.0
 10
21.9813164183
 20
37.6607082082
 30
0.0
 10
21.9813164183
 20
37.8363202763
 30
0.0
 10
22.0134820048
 20
38.2017561849
 30
0.0
 10
22.1417093846
 20
38.7530561999
 30
0.0
 10
22.3471222468
 20
39.3114792885
 30
0.0
 10
22.622043906
 20
39.8560269489
 30
0.0
 10
22.9561721427
 20
40.3663907079
 30
0.0
 10
23.3370705311
 20
40.8234943187
 30
0.0
 10
23.7503923225
 20
41.2101903848
 30
0.0
 10
24.0507834454
 20
41.4207624297
 30
0.0
 10
24.202866428
 20
41.5085670565
 30
0.0
  0
SPLINE
  5
2B0
100
AcDbEntity
  8
0
100
AcDbSpline
 62
7
  6
BYLAYER
 70
0
 71
3
 72
20
 73
16
 74
0
 42
0.0000001
 43
0.0000001
 44
0.0000000001
 40
0.0
 40
0.0
 40
0.0
 40
0.0
 40
0.0972069889
 40
0.151330994
 40
0.209055532
 40
0.2701373055
 40
0.3341767751
 40
0.4006631618
 40
0.4689919332
 40
0.6083962386
 40
0.746861218
 40
0.8140366905
 40
0.8789656323
 40
0.9411279825
 40
1.0
 40
1.0
 40
1.0
 40
1.0
 10
34.8116930727
 20
37.1838021296
 30
0.0
 10
34.7154224843
 20
37.3265314933
 30
0.0
 10
34.524801428
 20
37.5221438034
 30
0.0
 10
34.2220616501
 20
37.7356534843
 30
0.0
 10
33.9531485977
 20
37.883720163
 30
0.0
 10
33.655030913
 20
38.0112876729
 30
0.0
 10
33.3320374326
 20
38.1167365001
 30
0.0
 10
32.9890551328
 20
38.1983732287
 30
0.0
 10
32.5089738105
 20
38.2743717534
 30
0.0
 10
31.8942852105
 20
38.3032639266
 30
0.0
 10
31.2835861138
 20
38.2457263138
 30
0.0
 10
30.8142307215
 20
38.147041356
 30
0.0
 10
30.4838563617
 20
38.0494801039
 30
0.0
 10
30.1768397787
 20
37.9291147144
 30
0.0
 10
29.9851751913
 20
37.8321433443
 30
0.0
 10
29.8948768878
 20
37.7800099056
 30
0.0
  0
SPLINE
  5
2B1
100
AcDbEntity
  8
0
100
AcDbSpline
 62
7
  6
BYLAYER
 70
0
 71
3
 72
15
 73
11
 74
0
 42
0.0000001
 43
0.0000001
 44
0.0000000001
 40
0.0
 40
0.0
 40
0.0
 40
0.0
 40
0.1532283709
 40
0.222205915
 40
0.2869312553
 40
0.4084131366
 40
0.5253856504
 40
0.641820113
 40
0.7594830168
 40
1.0
 40
1.0
 40
1.0
 40
1.0
 10
26.1894785283
 20
40.9888924157
 30
0.0
 10
26.1579376572
 20
40.9706823939
 30
0.0
 10
26.1148281346
 20
40.9387431166
 30
0.0
 10
26.0700622179
 20
40.8870111285
 30
0.0
 10
26.0376084246
 20
40.8355241406
 30
0.0
 10
26.0124800761
 20
40.7670199608
 30
0.0
 10
26.0026919375
 20
40.6826845109
 30
0.0
 10
26.0074853912
 20
40.5990666823
 30
0.0
 10
26.0285706143
 20
40.4880335101
 30
0.0
 10
26.0563150401
 20
40.4070826589
 30
0.0
 10
26.0778204525
 20
40.3541143968
 30
0.0
  0
SPLINE
  5
2B2
100
AcDbEntity
  8
0
100
AcDbSpline
 62
7
  6
BYLAYER
 70
0
 71
3
 72
22
 73
18
 74
0
 42
0.0000001
 43
0.0000001
 44
0.0000000001
 40
0.0
 40
0.0
 40
0.0
 40
0.0
 40
0.0596082767
 40
0.1226579729
 40
0.1885776423
 40
0.256789658
 40
0.3971549862
 40
0.4678704688
 40
0.5378679489
 40
0.6063848213
 40
0.6727157481
 40
0.736234277
 40
0.7964275105
 40
0.8529379747
 40
0.9055972775
 40
0.9544904398
 40
1.0
 40
1.0
 40
1.0
 40
1.0
 10
24.202866428
 20
41.7079119488
 30
0.0
 10
24.0966055495
 20
41.6465625682
 30
0.0
 10
23.8851010792
 20
41.5076571168
 30
0.0
 10
23.5827098163
 20
41.263446471
 30
0.0
 10
23.2905725983
 20
40.9809040609
 30
0.0
 10
22.9178678944
 20
40.555599799
 30
0.0
 10
22.5904769153
 20
40.0798078525
 30
0.0
 10
22.3167861413
 20
39.5696323711
 30
0.0
 10
22.1419853323
 20
39.1755273101
 30
0.0
 10
22.0012042606
 20
38.7776048626
 30
0.0
 10
21.8966698104
 20
38.3823860882
 30
0.0
 10
21.8301637856
 20
37.9963315037
 30
0.0
 10
21.8028019412
 20
37.6257177278
 30
0.0
 10
21.8150420048
 20
37.2765343298
 30
0.0
 10
21.8669758128
 20
36.9543380701
 30
0.0
 10
21.9578985226
 20
36.6644146396
 30
0.0
 10
22.0468562433
 20
36.4902273208
 30
0.0
 10
22.0975148142
 20
36.4114282059
 30
0.0
  0
SPLINE
  5
2B3
100
AcDbEntity
  8
0
100
AcDbSpline
 62
7
  6
BYLAYER
 70
0
 71
3
 72
14
 73
10
 74
0
 42
0.0000001
 43
0.0000001
 44
0.0000000001
 40
0.0
 40
0.0
 40
0.0
 40
0.0
 40
0.2541530878
 40
0.5108361282
 40
0.6392412828
 40
0.7660230647
 40
0.8879349709
 40
0.9456333866
 40
1.0
 40
1.0
 40
1.0
 40
1.0
 10
27.2889610968
 20
41.0533625999
 30
0.0
 10
27.1951640273
 20
41.0660558072
 30
0.0
 10
27.0060459388
 20
41.0873967966
 30
0.0
 10
26.7678887979
 20
41.098524946
 30
0.0
 10
26.5772506743
 20
41.0912497002
 30
0.0
 10
26.4376066446
 20
41.0747760151
 30
0.0
 10
26.3261170182
 20
41.0484238557
 30
0.0
 10
26.2445054169
 20
41.0175857171
 30
0.0
 10
26.2070132197
 20
40.999016014
 30
0.0
 10
26.1894785283
 20
40.9888924157
 30
0.0
  0
SPLINE
  5
2B4
100
AcDbEntity
  8
0
100
AcDbSpline
 62
7
  6
BYLAYER
 70
0
 71
3
 72
15
 73
11
 74
0
 42
0.0000001
 43
0.0000001
 44
0.0000000001
 40
0.0
 40
0.0
 40
0.0
 40
0.0
 40
0.1080100488
 40
0.2180628898
 40
0.3320025276
 40
0.4513428334
 40
0.577250339
 40
0.7105222122
 40
0.8515118672
 40
1.0
 40
1.0
 40
1.0
 40
1.0
 10
29.0162265327
 20
37.7800412692
 30
0.0
 10
29.0162287693
 20
37.8368332752
 30
0.0
 10
29.0260631963
 20
37.9517251187
 30
0.0
 10
29.0701241368
 20
38.1214120855
 30
0.0
 10
29.1427736741
 20
38.2874461199
 30
0.0
 10
29.2431345468
 20
38.4481464612
 30
0.0
 10
29.3701202284
 20
38.6020628258
 30
0.0
 10
29.5224396205
 20
38.7478520868
 30
0.0
 10
29.6985243385
 20
38.8840836517
 30
0.0
 10
29.8272614174
 20
38.9657259543
 30
0.0
 10
29.8948768878
 20
39.0047635313
 30
0.0
  0
SPLINE
  5
2B5
100
AcDbEntity
  8
0
100
AcDbSpline
 62
7
  6
BYLAYER
 70
0
 71
3
 72
13
 73
9
 74
0
 42
0.0000001
 43
0.0000001
 44
0.0000000001
 40
0.0
 40
0.0
 40
0.0
 40
0.0
 40
0.1078386186
 40
0.2182178181
 40
0.3327100233
 40
0.4526123977
 40
0.7118730148
 40
1.0
 40
1.0
 40
1.0
 40
1.0
 10
29.7677346293
 20
36.602960406
 30
0.0
 10
29.7703189368
 20
36.6436667792
 30
0.0
 10
29.7823094787
 20
36.725755343
 30
0.0
 10
29.8200362999
 20
36.8462975717
 30
0.0
 10
29.8770397491
 20
36.9640828654
 30
0.0
 10
29.9807230101
 20
37.1199626439
 30
0.0
 10
30.1589340475
 20
37.3018814661
 30
0.0
 10
30.3308298776
 20
37.4193397483
 30
0.0
 10
30.4252091816
 20
37.4738293397
 30
0.0
  0
SPLINE
  5
2B6
100
AcDbEntity
  8
0
100
AcDbSpline
 62
7
  6
BYLAYER
 70
0
 71
3
 72
11
 73
7
 74
0
 42
0.0000001
 43
0.0000001
 44
0.0000000001
 40
0.0
 40
0.0
 40
0.0
 40
0.0
 40
0.2895421522
 40
0.5491196247
 40
0.782256727
 40
1.0
 40
1.0
 40
1.0
 40
1.0
 10
25.4754646573
 20
33.309663869
 30
0.0
 10
25.4623084972
 20
33.3172594097
 30
0.0
 10
25.4384344099
 20
33.3337211588
 30
0.0
 10
25.4098762451
 20
33.3637021001
 30
0.0
 10
25.3918078586
 20
33.3968942608
 30
0.0
 10
25.3876125918
 20
33.4207128305
 30
0.0
 10
25.3876125944
 20
33.432137115
 30
0.0
  0
SPLINE
  5
2B7
100
AcDbEntity
  8
0
100
AcDbSpline
 62
7
  6
BYLAYER
 70
0
 71
3
 72
23
 73
19
 74
0
 42
0.0000001
 43
0.0000001
 44
0.0000000001
 40
0.0
 40
0.0
 40
0.0
 40
0.0
 40
0.0430593319
 40
0.0883110586
 40
0.1366630023
 40
0.1886812747
 40
0.2446095905
 40
0.3044109745
 40
0.3678277228
 40
0.4344279848
 40
0.5036417496
 40
0.5748016911
 40
0.6471713728
 40
0.7199744788
 40
0.7924151205
 40
0.8637101115
 40
0.9331538428
 40
1.0
 40
1.0
 40
1.0
 40
1.0
 10
24.5031182134
 20
34.1684878277
 30
0.0
 10
24.4250307331
 20
34.2323428239
 30
0.0
 10
24.2790948055
 20
34.3815686572
 30
0.0
 10
24.1052488722
 20
34.6526095743
 30
0.0
 10
23.9746230751
 20
34.9694891375
 30
0.0
 10
23.888780293
 20
35.3267202296
 30
0.0
 10
23.8486074411
 20
35.7186485524
 30
0.0
 10
23.8544332334
 20
36.1391033725
 30
0.0
 10
23.906022299
 20
36.5814706594
 30
0.0
 10
24.0025365455
 20
37.0387169936
 30
0.0
 10
24.1423626918
 20
37.5035363042
 30
0.0
 10
24.3232382393
 20
37.9684609487
 30
0.0
 10
24.5422807076
 20
38.4259839633
 30
0.0
 10
24.7959282019
 20
38.8687189629
 30
0.0
 10
25.0800520929
 20
39.2895103465
 30
0.0
 10
25.3901384977
 20
39.6816140091
 30
0.0
 10
25.7211285267
 20
40.0385554694
 30
0.0
 10
25.9573389329
 20
40.2540828873
 30
0.0
 10
26.0778204525
 20
40.3541143968
 30
0.0
  0
ELLIPSE
  5
2B8
100
AcDbEntity
  8
0
100
AcDbEllipse
 62
7
  6
BYLAYER
 10
37.0839412776
 20
37.6302800262
 30
0.0
 11
0.2083253714
 21
0.2217991674
 31
0.0
 40
0.6805756585
 41
-0.6270413919
 42
-0.4691084101
  0
ELLIPSE
  5
2B9
100
AcDbEntity
  8
0
100
AcDbEllipse
 62
7
  6
BYLAYER
 10
37.4724111683
 20
37.4060019041
 30
0.0
 11
0.1979686321
 21
0.2293330603
 31
0.0
 40
0.6680617331
 41
0.1267864573
 42
0.9121715899
  0
ELLIPSE
  5
2BA
100
AcDbEntity
  8
0
100
AcDbEllipse
 62
7
  6
BYLAYER
 10
32.2383328263
 20
34.3858669138
 30
0.0
 11
0.1151980931
 21
0.2792321503
 31
0.0
 40
0.4672795731
 41
0.723277211
 42
2.2940735378
  0
ELLIPSE
  5
2BB
100
AcDbEntity
  8
0
100
AcDbEllipse
 62
7
  6
BYLAYER
 10
31.8495887128
 20
34.6103033549
 30
0.0
 11
0.1098183999
 21
0.2821935547
 31
0.0
 40
0.4465032169
 41
0.7168853577
 42
2.2876816845
  0
ELLIPSE
  5
2BC
100
AcDbEntity
  8
0
100
AcDbEllipse
 62
7
  6
BYLAYER
 10
37.0839412776
 20
37.6302800262
 30
0.0
 11
0.2083253714
 21
0.2217991674
 31
0.0
 40
0.6805756585
 41
0.1583697054
 42
0.9437549349
  0
ENDSEC
  0
SECTION
  2
OBJECTS
  0
DICTIONARY
  5
C
100
AcDbDictionary
280
0
281
1
  3
ACAD_GROUP
350
D
  3
ACAD_MLINESTYLE
350
17
  3
ACAD_LAYOUT
350
1A
  3
ACAD_PLOTSETTINGS
350
19
  3
ACAD_PLOTSTYLENAME
350
E
  0
DICTIONARY
  5
D
102
{ACAD_REACTORS
330
C
102
}
100
AcDbDictionary
280
0
281
1
  0
ACDBDICTIONARYWDFLT
  5
E
102
{ACAD_REACTORS
330
C
102
}
100
AcDbDictionary
281
1
  3
Normal
350
F
100
AcDbDictionaryWithDefault
340
F
  0
DICTIONARY
  5
17
102
{ACAD_REACTORS
330
C
102
}
100
AcDbDictionary
280
0
281
1
  3
Standard
350
18
  0
DICTIONARY
  5
19
102
{ACAD_REACTORS
330
C
102
}
100
AcDbDictionary
281
1
  0
DICTIONARY
  5
1A
102
{ACAD_REACTORS
330
C
102
}
100
AcDbDictionary
281
1
  3
Model
350
2BD
  3
Layout1
350
2BE
  0
ACDBPLACEHOLDER
  5
F
102
{ACAD_REACTORS
330
E
102
}
  0
MLINESTYLE
  5
18
102
{ACAD_REACTORS
330
17
102
}
100
AcDbMlineStyle
  2
STANDARD
 70
0
  3

 62
256
 51
90.0
 52
90.0
 71
2
 49
0.5
 62
256
  6
BYLAYER
 49
-0.5
 62
256
  6
BYLAYER
  0
LAYOUT
  5
2BD
102
{ACAD_REACTORS
330
1A
102
}
100
AcDbPlotSettings
  1

  2
none_device
  4

  6

 40
0.0
 41
0.0
 42
0.0
 43
0.0
 44
210.0
 45
297.0
 46
0.0
 47
0.0
 48
0.0
 49
0.0
140
0.0
141
0.0
142
1.0
143
1.0
 70
1024
 72
1
 73
0
 74
0
  7

 75
0
147
1.0
148
0.0
149
0.0
100
AcDbLayout
  1
Model
 70
0
 71
0
 10
0.0
 20
0.0
 11
210.0
 21
297.0
 12
0.0
 22
0.0
 32
0.0
 14
0.0
 24
0.0
 34
0.0
 15
0.0
 25
0.0
 35
0.0
146
0.0
 13
0.0
 23
0.0
 33
0.0
 16
1.0
 26
0.0
 36
0.0
 17
0.0
 27
1.0
 37
0.0
 76
0
330
210
345
0
346
0
  0
LAYOUT
  5
2BE
102
{ACAD_REACTORS
330
1A
102
}
100
AcDbPlotSettings
  1

  2
none_device
  4

  6

 40
0.0
 41
0.0
 42
0.0
 43
0.0
 44
210.0
 45
297.0
 46
0.0
 47
0.0
 48
0.0
 49
0.0
140
0.0
141
0.0
142
1.0
143
1.0
 70
0
 72
1
 73
0
 74
0
  7

 75
0
147
1.0
148
0.0
149
0.0
100
AcDbLayout
  1
Layout1
 70
0
 71
1
 10
0.0
 20
0.0
 11
210.0
 21
297.0
 12
0.0
 22
0.0
 32
0.0
 14
0.0
 24
0.0
 34
0.0
 15
0.0
 25
0.0
 35
0.0
146
0.0
 13
0.0
 23
0.0
 33
0.0
 16
1.0
 26
0.0
 36
0.0
 17
0.0
 27
1.0
 37
0.0
 76
0
330
211
345
0
346
0
  0
ENDSEC
  0
EOF
