999
DXF file: C:\Users\sesa63760\Dev\_Creo\CAD\MCADID0004017_3D-CAD\drw0001_1.dxf
999
Pro/ENGINEER 2019471 by Parametric Technology Corporation
  0
SECTION
  2
HEADER
  9
$ACADVER
  1
AC1024
  9
$DWGCODEPAGE
  3
ANSI_1252
  9
$EXTMAX
 10
62.7821380248
 20
88.7918809209
 30
0.0
  9
$EXTMIN
 10
0.0
 20
0.0
 30
0.0
  9
$LIMMIN
 10
0.0
 20
0.0
  9
$LIMMAX
 10
62.7821380248
 20
88.7918809209
  9
$VIEWCTR
 10
31.3910690124
 20
44.3959404604
  9
$VIEWSIZE
 40
88.7918809209
  9
$CLAYER
  8
0
  9
$LTSCALE
 40
5.7879152008
  9
$CELTYPE
  6
BYLAYER
  9
$DIMSCALE
 40
1.0
  9
$DIMASZ
 40
0.7474064051
  9
$DIMEXO
 40
1.0
  9
$DIMDLI
 40
3.9989232296
  9
$DIMEXE
 40
1.0
  9
$DIMCEN
 40
0.9471133965
  9
$DIMLFAC
 40
1.0
  9
$DIMBLK
  1
_FILLED
  9
$DIMALT
 70
0
  9
$DIMALTF
 40
0.0393700787
  9
$DIMTXT
 40
1.0463689671
  9
$DIMTOL
 70
1
  9
$DIMLIM
 70
0
  9
$DIMTFAC
 40
1.0
  9
$DIMTP
 40
0.01
  9
$DIMTM
 40
0.01
  9
$DIMGAP
 40
0.625
  9
$DIMDSEP
 70
46
  9
$AUNITS
 70
0
  9
$PDMODE
 70
3
  9
$PDSIZE
 40
0.3125
  9
$HANDSEED
  5
394
  9
$TILEMODE
 70
1
  9
$MEASUREMENT
 70
1
  9
$INSUNITS
 70
4
  0
ENDSEC
  0
SECTION
  2
CLASSES
  0
CLASS
  1
ACDBDICTIONARYWDFLT
  2
AcDbDictionaryWithDefault
  3
AutoCAD 2000
 90
0
 91
1
280
0
281
0
  0
CLASS
  1
ACDBPLACEHOLDER
  2
AcDbPlaceHolder
  3
AutoCAD 2000
 90
0
 91
1
280
0
281
0
  0
CLASS
  1
LAYOUT
  2
AcDbLayout
  3
AutoCAD 2000
 90
0
 91
0
280
0
281
0
  0
ENDSEC
  0
SECTION
  2
TABLES
  0
TABLE
  2
VPORT
  5
8
100
AcDbSymbolTable
 70
2
  0
VPORT
  5
1F4
100
AcDbSymbolTableRecord
100
AcDbViewportTableRecord
  2
*ACTIVE
 70
0
 10
0.0
 20
0.0
 11
1.0
 21
1.0
 12
31.3910690124
 22
44.3959404604
 13
0.0
 23
0.0
 14
1.0
 24
1.0
 15
0.0
 25
0.0
 16
0.0
 26
0.0
 36
1.0
 17
0.0
 27
0.0
 37
0.0
 40
88.7918809209
 41
0.7070707071
 42
50.0
 43
0.0
 44
0.0
 50
0.0
 51
0.0
 71
0
 72
100
 73
1
 74
1
 75
0
 76
0
 77
0
 78
0
  0
ENDTAB
  0
TABLE
  2
LTYPE
  5
5
100
AcDbSymbolTable
 70
6
  0
LTYPE
  5
14
100
AcDbSymbolTableRecord
100
AcDbLinetypeTableRecord
  2
BYBLOCK
 70
0
  3

 72
65
 73
0
 40
0.0
  0
LTYPE
  5
15
100
AcDbSymbolTableRecord
100
AcDbLinetypeTableRecord
  2
BYLAYER
 70
0
  3

 72
65
 73
0
 40
0.0
  0
LTYPE
  5
16
100
AcDbSymbolTableRecord
100
AcDbLinetypeTableRecord
  2
CONTINUOUS
 70
64
  3
Solid line
 72
65
 73
0
 40
0.0
  0
LTYPE
  5
1F5
100
AcDbSymbolTableRecord
100
AcDbLinetypeTableRecord
  2
CENTER
 70
64
  3
____ _ ____ _ ____ _ ____ _ ____ _ ____ _ ____
 72
65
 73
4
 40
0.6
 49
0.375
 74
0
 49
-0.075
 74
0
 49
0.075
 74
0
 49
-0.075
 74
0
  0
LTYPE
  5
1F6
100
AcDbSymbolTableRecord
100
AcDbLinetypeTableRecord
  2
HIDDEN
 70
64
  3
- - - - - - - - - - - - - - - - - - - -
 72
65
 73
2
 40
0.2
 49
0.1
 74
0
 49
-0.1
 74
0
  0
LTYPE
  5
1F7
100
AcDbSymbolTableRecord
100
AcDbLinetypeTableRecord
  2
PHANTOM
 70
64
  3
_____ _ _ _____ _ _ _____ _ _ _____
 72
65
 73
6
 40
0.8
 49
0.45
 74
0
 49
-0.05
 74
0
 49
0.1
 74
0
 49
-0.05
 74
0
 49
0.1
 74
0
 49
-0.05
 74
0
  0
LTYPE
  5
1F8
100
AcDbSymbolTableRecord
100
AcDbLinetypeTableRecord
  2
DOT
 70
64
  3
. . . . . . . . . . . . . . . . . . . .
 72
65
 73
2
 40
0.2
 49
0.1
 74
0
 49
-0.1
 74
0
  0
LTYPE
  5
1F9
100
AcDbSymbolTableRecord
100
AcDbLinetypeTableRecord
  2
DASHED
 70
64
  3
- - - - - - - - - - - - - - - - - - - -
 72
65
 73
2
 40
0.2
 49
0.1
 74
0
 49
-0.1
 74
0
  0
ENDTAB
  0
TABLE
  2
LAYER
  5
2
100
AcDbSymbolTable
 70
36
  0
LAYER
  5
10
100
AcDbSymbolTableRecord
100
AcDbLayerTableRecord
  2
0
 70
0
 62
7
  6
CONTINUOUS
370
-3
390
F
  0
LAYER
  5
1FA
100
AcDbSymbolTableRecord
100
AcDbLayerTableRecord
  2
DEFAULT_1
 70
0
 62
7
  6
CENTER
370
-3
390
F
  0
LAYER
  5
1FB
100
AcDbSymbolTableRecord
100
AcDbLayerTableRecord
  2
DEFAULT_2
 70
0
 62
7
  6
HIDDEN
370
-3
390
F
  0
LAYER
  5
1FC
100
AcDbSymbolTableRecord
100
AcDbLayerTableRecord
  2
DEFAULT_3
 70
0
 62
7
  6
PHANTOM
370
-3
390
F
  0
LAYER
  5
1FD
100
AcDbSymbolTableRecord
100
AcDbLayerTableRecord
  2
00_COMPONENTS
 70
0
 62
7
  6
CONTINUOUS
370
-3
390
F
  0
LAYER
  5
1FE
100
AcDbSymbolTableRecord
100
AcDbLayerTableRecord
  2
01_1_DEFAULT_DATUMS
 70
0
 62
7
  6
CONTINUOUS
370
-3
390
F
  0
LAYER
  5
1FF
100
AcDbSymbolTableRecord
100
AcDbLayerTableRecord
  2
01_PLANES
 70
0
 62
7
  6
CONTINUOUS
370
-3
390
F
  0
LAYER
  5
200
100
AcDbSymbolTableRecord
100
AcDbLayerTableRecord
  2
02_COORD_SYS
 70
0
 62
7
  6
CONTINUOUS
370
-3
390
F
  0
LAYER
  5
201
100
AcDbSymbolTableRecord
100
AcDbLayerTableRecord
  2
03_AXES
 70
0
 62
7
  6
CONTINUOUS
370
-3
390
F
  0
LAYER
  5
202
100
AcDbSymbolTableRecord
100
AcDbLayerTableRecord
  2
04_POINTS
 70
0
 62
7
  6
CONTINUOUS
370
-3
390
F
  0
LAYER
  5
203
100
AcDbSymbolTableRecord
100
AcDbLayerTableRecord
  2
05_CURVES
 70
0
 62
7
  6
CONTINUOUS
370
-3
390
F
  0
LAYER
  5
204
100
AcDbSymbolTableRecord
100
AcDbLayerTableRecord
  2
06_SURFS
 70
0
 62
7
  6
CONTINUOUS
370
-3
390
F
  0
LAYER
  5
205
100
AcDbSymbolTableRecord
100
AcDbLayerTableRecord
  2
07_COSMETICS
 70
0
 62
7
  6
CONTINUOUS
370
-3
390
F
  0
LAYER
  5
206
100
AcDbSymbolTableRecord
100
AcDbLayerTableRecord
  2
10_NOTES
 70
0
 62
7
  6
CONTINUOUS
370
-3
390
F
  0
LAYER
  5
207
100
AcDbSymbolTableRecord
100
AcDbLayerTableRecord
  2
11_NOTES_PUB
 70
0
 62
7
  6
CONTINUOUS
370
-3
390
F
  0
LAYER
  5
208
100
AcDbSymbolTableRecord
100
AcDbLayerTableRecord
  2
13_REF_GTOL
 70
0
 62
7
  6
CONTINUOUS
370
-3
390
F
  0
LAYER
  5
209
100
AcDbSymbolTableRecord
100
AcDbLayerTableRecord
  2
16_MISC
 70
0
 62
7
  6
CONTINUOUS
370
-3
390
F
  0
LAYER
  5
20A
100
AcDbSymbolTableRecord
100
AcDbLayerTableRecord
  2
17_NO_PRINT
 70
0
 62
7
  6
CONTINUOUS
370
-3
390
F
  0
LAYER
  5
20B
100
AcDbSymbolTableRecord
100
AcDbLayerTableRecord
  2
18_DATUM_CAMS_JOINTS
 70
0
 62
7
  6
CONTINUOUS
370
-3
390
F
  0
LAYER
  5
20C
100
AcDbSymbolTableRecord
100
AcDbLayerTableRecord
  2
19_DATUM_FUNCTIONAL
 70
0
 62
7
  6
CONTINUOUS
370
-3
390
F
  0
LAYER
  5
20D
100
AcDbSymbolTableRecord
100
AcDbLayerTableRecord
  2
20_DATUM_KINEMATIC_SCHEME
 70
0
 62
7
  6
CONTINUOUS
370
-3
390
F
  0
ENDTAB
  0
TABLE
  2
STYLE
  5
3
100
AcDbSymbolTable
 70
1
  0
STYLE
  5
11
100
AcDbSymbolTableRecord
100
AcDbTextStyleTableRecord
  2
STANDARD
 70
0
 40
0.0
 41
1.0
 50
0.0
 71
0
 42
0.2
  3
ARIAL.TTF
  4

  0
STYLE
  5
20E
100
AcDbSymbolTableRecord
100
AcDbTextStyleTableRecord
  2
TEXTSTYLE_1
 70
0
 40
0.0
 41
0.8
 50
0.0
 71
0
 42
0.2
  3
gdt
  4

  0
ENDTAB
  0
TABLE
  2
VIEW
  5
6
100
AcDbSymbolTable
 70
0
  0
ENDTAB
  0
TABLE
  2
UCS
  5
7
100
AcDbSymbolTable
 70
0
  0
ENDTAB
  0
TABLE
  2
APPID
  5
9
100
AcDbSymbolTable
 70
1
  0
APPID
  5
20F
100
AcDbSymbolTableRecord
100
AcDbRegAppTableRecord
  2
ACAD
 70
0
  0
ENDTAB
  0
TABLE
  2
BLOCK_RECORD
  5
1
100
AcDbSymbolTable
 70
0
  0
BLOCK_RECORD
  5
210
100
AcDbSymbolTableRecord
100
AcDbBlockTableRecord
  2
*Model_Space
  0
BLOCK_RECORD
  5
211
100
AcDbSymbolTableRecord
100
AcDbBlockTableRecord
  2
*Paper_Space
  0
BLOCK_RECORD
  5
212
100
AcDbSymbolTableRecord
100
AcDbBlockTableRecord
  2
_FILLED
  0
ENDTAB
  0
TABLE
  2
DIMSTYLE
  5
A
100
AcDbSymbolTable
 70
1
100
AcDbDimStyleTable
 71
0
  0
DIMSTYLE
105
213
100
AcDbSymbolTableRecord
100
AcDbDimStyleTableRecord
  2
STANDARD
 70
0
  3

  4

 40
1.0
 41
0.7474064051
 42
1.0
 43
0.38
 44
1.0
 45
0.0
 46
0.0
 47
0.01
 48
0.01
140
1.0463689671
141
0.09
142
0.0
143
25.4
144
1.0
145
0.0
146
1.0
147
0.625
 71
1
 72
0
 73
0
 74
0
 75
0
 76
0
 77
1
 78
8
 79
2
170
0
171
1
172
0
173
0
174
0
175
0
176
0
177
0
178
0
270
2
179
2
271
2
272
2
273
2
274
2
275
0
280
0
281
0
282
0
283
1
284
8
285
0
286
0
287
3
288
0
340
11
278
46
341
212
342
212
343
212
344
212
  0
ENDTAB
  0
ENDSEC
  0
SECTION
  2
BLOCKS
  0
BLOCK
  5
20
100
AcDbEntity
  8
0
100
AcDbBlockBegin
  2
*Model_Space
 70
0
 10
0.0
 20
0.0
 30
0.0
  3
*Model_Space
  1

  0
ENDBLK
  5
21
100
AcDbEntity
  8
0
100
AcDbBlockEnd
  0
BLOCK
  5
1C
100
AcDbEntity
  8
0
100
AcDbBlockBegin
  2
*Paper_Space
 70
0
 10
0.0
 20
0.0
 30
0.0
  3
*Paper_Space
  1

  0
ENDBLK
  5
1D
100
AcDbEntity
  8
0
100
AcDbBlockEnd
  0
BLOCK
  5
214
100
AcDbEntity
  8
0
100
AcDbBlockBegin
  2
_FILLED
 70
64
 10
0.0
 20
0.0
  3
_FILLED
  1

  0
SOLID
  5
215
100
AcDbEntity
  8
0
  6
BYBLOCK
 62
0
100
AcDbTrace
 10
0.0
 20
0.0
 11
-1.0
 21
0.25
 12
-1.0
 22
-0.25
 13
-1.0
 23
-0.25
  0
ENDBLK
  5
216
100
AcDbEntity
  8
0
  6
BYBLOCK
 62
0
100
AcDbBlockEnd
  0
ENDSEC
  0
SECTION
  2
ENTITIES
  0
LINE
  5
217
100
AcDbEntity
  8
0
100
AcDbLine
 62
7
  6
BYLAYER
 10
8.7816710494
 20
33.8790808733
 11
8.388237003
 21
34.1062249872
  0
LINE
  5
218
100
AcDbEntity
  8
0
100
AcDbLine
 62
7
  6
BYLAYER
 10
8.388237003
 20
35.0860278878
 11
8.7816710494
 21
34.8588837738
  0
LINE
  5
219
100
AcDbEntity
  8
0
100
AcDbLine
 62
7
  6
BYLAYER
 10
20.9085542601
 20
34.1036902526
 11
20.9085580873
 21
33.5729794815
  0
LINE
  5
21A
100
AcDbEntity
  8
0
100
AcDbLine
 62
7
  6
BYLAYER
 10
8.0507968933
 20
36.9725763047
 11
8.8420236874
 21
37.692009023
  0
LINE
  5
21B
100
AcDbEntity
  8
0
100
AcDbLine
 62
7
  6
BYLAYER
 10
17.1256141044
 20
40.6559739158
 11
16.66600838
 21
40.9213349917
  0
LINE
  5
21C
100
AcDbEntity
  8
0
100
AcDbLine
 62
7
  6
BYLAYER
 10
9.157605731
 20
37.9228671273
 11
8.8420236874
 21
37.692009023
  0
LINE
  5
21D
100
AcDbEntity
  8
0
100
AcDbLine
 62
7
  6
BYLAYER
 10
51.6474393766
 20
60.8376592465
 11
52.1758049109
 21
61.0123030826
  0
LINE
  5
21E
100
AcDbEntity
  8
0
100
AcDbLine
 62
7
  6
BYLAYER
 10
38.8613873197
 20
57.0587785368
 11
36.6604162237
 21
55.7880548673
  0
LINE
  5
21F
100
AcDbEntity
  8
0
100
AcDbLine
 62
7
  6
BYLAYER
 10
42.3172469214
 20
59.0540080982
 11
44.5182179643
 21
60.3247317371
  0
LINE
  5
220
100
AcDbEntity
  8
0
100
AcDbLine
 62
7
  6
BYLAYER
 10
13.6659131672
 20
41.2185433913
 11
9.7768420625
 21
38.973200545
  0
LINE
  5
221
100
AcDbEntity
  8
0
100
AcDbLine
 62
7
  6
BYLAYER
 10
42.8452255424
 20
57.4146605721
 11
40.6442545103
 21
56.1439369394
  0
LINE
  5
222
100
AcDbEntity
  8
0
100
AcDbLine
 62
7
  6
BYLAYER
 10
46.3010851551
 20
59.4098901398
 11
48.5020562401
 21
60.680613803
  0
LINE
  5
223
100
AcDbEntity
  8
0
100
AcDbLine
 62
7
  6
BYLAYER
 10
9.2990264985
 20
38.004515958
 11
9.157605731
 21
37.9228671273
  0
LINE
  5
224
100
AcDbEntity
  8
0
100
AcDbLine
 62
7
  6
BYLAYER
 10
21.7923973297
 20
45.1597889739
 11
15.2969374914
 21
41.409655873
  0
LINE
  5
225
100
AcDbEntity
  8
0
100
AcDbLine
 62
7
  6
BYLAYER
 10
43.2976983575
 20
57.1918648629
 11
41.1715817068
 21
55.9643581695
  0
LINE
  5
226
100
AcDbEntity
  8
0
100
AcDbLine
 62
7
  6
BYLAYER
 10
46.8284123164
 20
59.2303113496
 11
48.9545290837
 21
60.4578181103
  0
LINE
  5
227
100
AcDbEntity
  8
0
100
AcDbLine
 62
7
  6
BYLAYER
 10
51.6474393766
 20
60.8376592465
 11
49.7666179042
 21
59.751772945
  0
LINE
  5
228
100
AcDbEntity
  8
0
100
AcDbLine
 62
7
  6
BYLAYER
 10
40.1073009951
 20
54.1749970162
 11
24.6826297234
 21
45.2696120633
  0
LINE
  5
229
100
AcDbEntity
  8
0
100
AcDbLine
 62
7
  6
BYLAYER
 10
9.2990303692
 20
38.0045092409
 11
9.302840621
 21
38.0067026816
  0
LINE
  5
22A
100
AcDbEntity
  8
0
100
AcDbLine
 62
7
  6
BYLAYER
 10
8.388237003
 20
35.0860278878
 11
10.5963868129
 21
36.360896165
  0
LINE
  5
22B
100
AcDbEntity
  8
0
100
AcDbLine
 62
7
  6
BYLAYER
 10
11.0020193384
 20
36.1407948042
 11
8.7816710494
 21
34.8588837738
  0
LINE
  5
22C
100
AcDbEntity
  8
0
100
AcDbLine
 62
7
  6
BYLAYER
 10
11.8468503632
 20
35.5205047303
 11
11.6479647262
 21
35.4056787397
  0
LINE
  5
22D
100
AcDbEntity
  8
0
100
AcDbLine
 62
7
  6
BYLAYER
 10
9.0816697064
 20
33.8493663059
 11
11.900580747
 21
35.4768556392
  0
LINE
  5
22E
100
AcDbEntity
  8
0
100
AcDbLine
 62
7
  6
BYLAYER
 10
9.2990532875
 20
38.0044695438
 11
9.3030554513
 21
38.0063298709
  0
LINE
  5
22F
100
AcDbEntity
  8
0
100
AcDbLine
 62
7
  6
BYLAYER
 10
28.61399372
 20
38.0717752599
 11
28.2664459383
 21
37.221775034
  0
LINE
  5
230
100
AcDbEntity
  8
0
100
AcDbLine
 62
7
  6
BYLAYER
 10
42.7803754047
 20
57.6185314835
 11
42.8936894982
 21
57.7465232586
  0
LINE
  5
231
100
AcDbEntity
  8
0
100
AcDbLine
 62
7
  6
BYLAYER
 10
48.1808344109
 20
54.9643101841
 11
48.2626971357
 21
55.0168389543
  0
LINE
  5
232
100
AcDbEntity
  8
0
100
AcDbLine
 62
7
  6
BYLAYER
 10
12.8225128968
 20
34.3807407496
 11
11.1479669646
 21
33.4139469759
  0
LINE
  5
233
100
AcDbEntity
  8
0
100
AcDbLine
 62
7
  6
BYLAYER
 10
13.2998913426
 20
33.5016548634
 11
11.6479647262
 21
32.5479202797
  0
LINE
  5
234
100
AcDbEntity
  8
0
100
AcDbLine
 62
7
  6
BYLAYER
 10
48.1764681008
 20
47.7890882117
 11
48.5935130382
 21
47.874080363
  0
LINE
  5
235
100
AcDbEntity
  8
0
100
AcDbLine
 62
7
  6
BYLAYER
 10
24.4148204949
 20
45.3450000507
 11
23.5049254563
 21
45.4690196592
  0
LINE
  5
236
100
AcDbEntity
  8
0
100
AcDbLine
 62
7
  6
BYLAYER
 10
48.9489195884
 20
54.8407776798
 11
48.6297210101
 21
54.6359578577
  0
LINE
  5
237
100
AcDbEntity
  8
0
100
AcDbLine
 62
7
  6
BYLAYER
 10
48.7760556085
 20
54.1589497364
 11
48.6941928836
 21
54.1064209663
  0
LINE
  5
238
100
AcDbEntity
  8
0
100
AcDbLine
 62
7
  6
BYLAYER
 10
47.5264865782
 20
51.9312275142
 11
45.4003698141
 21
50.7037207553
  0
LINE
  5
239
100
AcDbEntity
  8
0
100
AcDbLine
 62
7
  6
BYLAYER
 10
51.0572005403
 20
53.9696740027
 11
53.1833171883
 21
55.1971806946
  0
LINE
  5
23A
100
AcDbEntity
  8
0
100
AcDbLine
 62
7
  6
BYLAYER
 10
13.8158073824
 20
32.0965070878
 11
13.6228510026
 21
31.985104335
  0
LINE
  5
23B
100
AcDbEntity
  8
0
100
AcDbLine
 62
7
  6
BYLAYER
 10
47.7476260044
 20
51.3160452033
 11
45.5466554649
 21
50.045321855
  0
LINE
  5
23C
100
AcDbEntity
  8
0
100
AcDbLine
 62
7
  6
BYLAYER
 10
51.2034861052
 20
53.3112750528
 11
53.4044566917
 21
54.5819984282
  0
LINE
  5
23D
100
AcDbEntity
  8
0
100
AcDbLine
 62
7
  6
BYLAYER
 10
8.9694335202
 20
36.3708529801
 11
9.5176127621
 21
36.5520459601
  0
LINE
  5
23E
100
AcDbEntity
  8
0
100
AcDbLine
 62
7
  6
BYLAYER
 10
55.647421469
 20
53.9094456773
 11
53.6760005938
 21
52.7712520984
  0
LINE
  5
23F
100
AcDbEntity
  8
0
100
AcDbLine
 62
7
  6
BYLAYER
 10
43.9997227114
 20
47.1846838055
 11
28.6928837063
 21
38.3473289374
  0
LINE
  5
240
100
AcDbEntity
  8
0
100
AcDbLine
 62
7
  6
BYLAYER
 10
47.4739866292
 20
55.8819679262
 11
47.5353564133
 21
55.9643136413
  0
LINE
  5
241
100
AcDbEntity
  8
0
100
AcDbLine
 62
7
  6
BYLAYER
 10
27.1423733784
 20
35.8933033252
 11
20.6352433004
 21
32.1364324485
  0
LINE
  5
242
100
AcDbEntity
  8
0
100
AcDbLine
 62
7
  6
BYLAYER
 10
14.6990023233
 20
28.6514276397
 11
14.5575815559
 21
28.5697788089
  0
LINE
  5
243
100
AcDbEntity
  8
0
100
AcDbLine
 62
7
  6
BYLAYER
 10
19.6658863059
 20
30.8262230375
 11
15.7768152012
 21
28.5808801913
  0
LINE
  5
244
100
AcDbEntity
  8
0
100
AcDbLine
 62
7
  6
BYLAYER
 10
49.2716382263
 20
53.0627623773
 11
49.173111354
 21
53.0425080584
  0
LINE
  5
245
100
AcDbEntity
  8
0
100
AcDbLine
 62
7
  6
BYLAYER
 10
49.5182399742
 20
53.7381408251
 11
49.1340646661
 21
53.6591653232
  0
LINE
  5
246
100
AcDbEntity
  8
0
100
AcDbLine
 62
7
  6
BYLAYER
 10
48.7762905225
 20
53.947417557
 11
48.8748173948
 21
53.9676718759
  0
LINE
  5
247
100
AcDbEntity
  8
0
100
AcDbLine
 62
7
  6
BYLAYER
 10
48.2488244181
 20
55.8595004136
 11
48.0095279403
 21
55.5384134184
  0
LINE
  5
248
100
AcDbEntity
  8
0
100
AcDbLine
 62
7
  6
BYLAYER
 10
48.141249439
 20
55.1935599701
 11
48.0798786715
 21
55.1112129355
  0
LINE
  5
249
100
AcDbEntity
  8
0
100
AcDbLine
 62
7
  6
BYLAYER
 10
47.7476260044
 20
46.0042450462
 11
45.5466554179
 21
44.7335216708
  0
LINE
  5
24A
100
AcDbEntity
  8
0
100
AcDbLine
 62
7
  6
BYLAYER
 10
51.2034861052
 20
47.9994748957
 11
53.4044566448
 21
49.270198244
  0
LINE
  5
24B
100
AcDbEntity
  8
0
100
AcDbLine
 62
7
  6
BYLAYER
 10
47.5264865798
 20
45.5579742158
 11
45.400369841
 21
44.3304674715
  0
LINE
  5
24C
100
AcDbEntity
  8
0
100
AcDbLine
 62
7
  6
BYLAYER
 10
51.0572005387
 20
47.5964207025
 11
53.183317306
 21
48.8239274632
  0
LINE
  5
24D
100
AcDbEntity
  8
0
100
AcDbLine
 62
7
  6
BYLAYER
 10
14.199860735
 20
28.4119076435
 11
14.5575815559
 21
28.5697788089
  0
LINE
  5
24E
100
AcDbEntity
  8
0
100
AcDbLine
 62
7
  6
BYLAYER
 10
13.6960724521
 20
32.0077070933
 11
13.6228510026
 21
31.985104335
  0
LINE
  5
24F
100
AcDbEntity
  8
0
100
AcDbLine
 62
7
  6
BYLAYER
 10
46.6887985941
 20
56.6574821272
 11
46.7268077753
 21
56.7657969703
  0
LINE
  5
250
100
AcDbEntity
  8
0
100
AcDbLine
 62
7
  6
BYLAYER
 10
13.1811986449
 20
28.0864067647
 11
14.199860735
 21
28.4119076435
  0
LINE
  5
251
100
AcDbEntity
  8
0
100
AcDbLine
 62
7
  6
BYLAYER
 10
49.6048244
 20
51.9562543951
 11
49.4942403874
 21
51.969221597
  0
LINE
  5
252
100
AcDbEntity
  8
0
100
AcDbLine
 62
7
  6
BYLAYER
 10
47.4506901353
 20
56.7466746837
 11
47.3024849955
 21
56.3243341864
  0
LINE
  5
253
100
AcDbEntity
  8
0
100
AcDbLine
 62
7
  6
BYLAYER
 10
47.3969025487
 20
56.1182158535
 11
47.3588933675
 21
56.0099010104
  0
LINE
  5
254
100
AcDbEntity
  8
0
100
AcDbLine
 62
7
  6
BYLAYER
 10
49.930164787
 20
52.6031479232
 11
49.4989763596
 21
52.6537095483
  0
LINE
  5
255
100
AcDbEntity
  8
0
100
AcDbLine
 62
7
  6
BYLAYER
 10
49.2325120981
 20
52.878838814
 11
49.3430961107
 21
52.8658716121
  0
LINE
  5
256
100
AcDbEntity
  8
0
100
AcDbLine
 62
7
  6
BYLAYER
 10
45.8619848255
 20
57.2545906049
 11
45.8748551533
 21
57.3838085749
  0
LINE
  5
257
100
AcDbEntity
  8
0
100
AcDbLine
 62
7
  6
BYLAYER
 10
46.5918366121
 20
57.4608172071
 11
46.5416527178
 21
56.9569713801
  0
LINE
  5
258
100
AcDbEntity
  8
0
100
AcDbLine
 62
7
  6
BYLAYER
 10
46.577819771
 20
56.8896815053
 11
46.5649494432
 21
56.7604635353
  0
LINE
  5
259
100
AcDbEntity
  8
0
100
AcDbLine
 62
7
  6
BYLAYER
 10
49.7600347144
 20
50.8911648734
 11
49.642564347
 21
50.936747264
  0
LINE
  5
25A
100
AcDbEntity
  8
0
100
AcDbLine
 62
7
  6
BYLAYER
 10
50.1654328804
 20
51.4888699808
 11
49.7073932252
 21
51.6666045276
  0
LINE
  5
25B
100
AcDbEntity
  8
0
100
AcDbLine
 62
7
  6
BYLAYER
 10
49.5281667239
 20
51.8085395093
 11
49.6456370913
 21
51.7629571187
  0
LINE
  5
25C
100
AcDbEntity
  8
0
100
AcDbLine
 62
7
  6
BYLAYER
 10
45.0322062163
 20
57.6453732306
 11
45.0193358885
 21
57.7894522388
  0
LINE
  5
25D
100
AcDbEntity
  8
0
100
AcDbLine
 62
7
  6
BYLAYER
 10
45.7223005061
 20
57.471884049
 11
45.7351708339
 21
57.3278050407
  0
LINE
  5
25E
100
AcDbEntity
  8
0
100
AcDbLine
 62
7
  6
BYLAYER
 10
49.7300117077
 20
49.9172962144
 11
49.611149456
 21
49.9933613326
  0
LINE
  5
25F
100
AcDbEntity
  8
0
100
AcDbLine
 62
7
  6
BYLAYER
 10
49.6494299181
 20
50.7865656491
 11
49.7682938565
 21
50.7104994515
  0
LINE
  5
260
100
AcDbEntity
  8
0
100
AcDbLine
 62
7
  6
BYLAYER
 10
49.5161592224
 20
49.0801854343
 11
49.4014596586
 21
49.1831786679
  0
LINE
  5
261
100
AcDbEntity
  8
0
100
AcDbLine
 62
7
  6
BYLAYER
 10
49.5906315486
 20
49.860703595
 11
49.7053311123
 21
49.7577103615
  0
LINE
  5
262
100
AcDbEntity
  8
0
100
AcDbLine
 62
7
  6
BYLAYER
 10
49.128476763
 20
48.4189749028
 11
49.023304798
 21
48.5440793232
  0
LINE
  5
263
100
AcDbEntity
  8
0
100
AcDbLine
 62
7
  6
BYLAYER
 10
48.5850919303
 20
47.9645820894
 11
48.4943652883
 21
48.105947953
  0
LINE
  5
264
100
AcDbEntity
  8
0
100
AcDbLine
 62
7
  6
BYLAYER
 10
42.9029627759
 20
57.449913588
 11
42.821100051
 21
57.5969671522
  0
LINE
  5
265
100
AcDbEntity
  8
0
100
AcDbLine
 62
7
  6
BYLAYER
 10
43.517276988
 20
57.7453726531
 11
43.4559062205
 21
57.8985829427
  0
LINE
  5
266
100
AcDbEntity
  8
0
100
AcDbLine
 62
7
  6
BYLAYER
 10
44.2382622919
 20
57.811557443
 11
44.2002531108
 21
57.9637605152
  0
LINE
  5
267
100
AcDbEntity
  8
0
100
AcDbLine
 62
7
  6
BYLAYER
 10
44.8703478842
 20
57.8376003407
 11
44.9083570653
 21
57.6853972685
  0
LINE
  5
268
100
AcDbEntity
  8
0
100
AcDbLine
 62
7
  6
BYLAYER
 10
49.7487582177
 20
50.7110523989
 11
49.7490555829
 21
50.7228632962
  0
LINE
  5
269
100
AcDbEntity
  8
0
100
AcDbLine
 62
7
  6
BYLAYER
 10
44.9094338781
 20
57.6881875636
 11
44.8597318879
 21
57.7071173119
  0
LINE
  5
26A
100
AcDbEntity
  8
0
100
AcDbLine
 62
7
  6
BYLAYER
 10
45.7264731414
 20
57.4251727951
 11
45.7042557973
 21
57.4365042878
  0
LINE
  5
26B
100
AcDbEntity
  8
0
100
AcDbLine
 62
7
  6
BYLAYER
 10
49.3545209617
 20
49.0742456278
 11
49.4596929267
 21
48.9491412074
  0
LINE
  5
26C
100
AcDbEntity
  8
0
100
AcDbLine
 62
7
  6
BYLAYER
 10
42.7223382647
 20
57.5197269996
 11
42.7975281698
 21
57.4174502368
  0
LINE
  5
26D
100
AcDbEntity
  8
0
100
AcDbLine
 62
7
  6
BYLAYER
 10
48.9521384262
 20
48.4639656479
 11
49.0428650682
 21
48.3225997843
  0
LINE
  5
26E
100
AcDbEntity
  8
0
100
AcDbLine
 62
7
  6
BYLAYER
 10
43.3344585237
 20
57.8620944753
 11
43.4163212486
 21
57.7150409111
  0
LINE
  5
26F
100
AcDbEntity
  8
0
100
AcDbLine
 62
7
  6
BYLAYER
 10
48.402298902
 20
48.0583996689
 11
48.4743379442
 21
47.9073824727
  0
LINE
  5
270
100
AcDbEntity
  8
0
100
AcDbLine
 62
7
  6
BYLAYER
 10
44.0617992462
 20
57.9697274383
 11
44.1231690303
 21
57.8165196035
  0
LINE
  5
271
100
AcDbEntity
  8
0
100
AcDbLine
 62
7
  6
BYLAYER
 10
49.3778905055
 20
49.1507479431
 11
49.3827356362
 21
49.1380366269
  0
LINE
  5
272
100
AcDbEntity
  8
0
100
AcDbLine
 62
7
  6
BYLAYER
 10
44.9989290302
 20
57.6565682355
 11
45.0017745012
 21
57.6526199598
  0
LINE
  5
273
100
AcDbEntity
  8
0
100
AcDbLine
 62
7
  6
BYLAYER
 10
44.9989177015
 20
57.65663221
 11
45.0017745012
 21
57.6526199598
  0
ARC
  5
274
100
AcDbEntity
  8
0
100
AcDbCircle
 62
7
  6
BYLAYER
 10
13.6319777209
 20
39.810266202
 40
35.7660129359
100
AcDbArc
 50
13.5221140651
 51
14.0210542632
  0
ARC
  5
275
100
AcDbEntity
  8
0
100
AcDbCircle
 62
7
  6
BYLAYER
 10
28.1464415862
 20
43.0399293582
 40
21.2160790135
100
AcDbArc
 50
42.9538919685
 51
43.6680604628
  0
ARC
  5
276
100
AcDbEntity
  8
0
100
AcDbCircle
 62
7
  6
BYLAYER
 10
35.9991375253
 20
40.4785637126
 40
19.5622735346
100
AcDbArc
 50
57.3897999599
 51
58.6427301454
  0
ARC
  5
277
100
AcDbEntity
  8
0
100
AcDbCircle
 62
7
  6
BYLAYER
 10
30.2778899655
 20
50.3561540888
 40
19.4736457108
100
AcDbArc
 50
2.6224271785
 51
3.8585514191
  0
ARC
  5
278
100
AcDbEntity
  8
0
100
AcDbCircle
 62
7
  6
BYLAYER
 10
32.1079416264
 20
43.3042344603
 40
17.6565892259
100
AcDbArc
 50
17.2212841815
 51
18.0248361164
  0
ARC
  5
279
100
AcDbEntity
  8
0
100
AcDbCircle
 62
7
  6
BYLAYER
 10
32.5212077295
 20
50.0855649833
 40
17.1709054555
100
AcDbArc
 50
7.326584771
 51
8.6016445826
  0
ARC
  5
27A
100
AcDbEntity
  8
0
100
AcDbCircle
 62
7
  6
BYLAYER
 10
34.4465063373
 20
46.8820327776
 40
14.0207079204
100
AcDbArc
 50
18.436134621
 51
21.1078172528
  0
ARC
  5
27B
100
AcDbEntity
  8
0
100
AcDbCircle
 62
7
  6
BYLAYER
 10
35.5459165675
 20
50.5329860594
 40
13.9431261036
100
AcDbArc
 50
11.5900609946
 51
12.9563895634
  0
ARC
  5
27C
100
AcDbEntity
  8
0
100
AcDbCircle
 62
7
  6
BYLAYER
 10
5.9890987824
 20
29.8738172797
 40
8.692184342
100
AcDbArc
 50
31.5735508237
 51
39.550928617
  0
ARC
  5
27D
100
AcDbEntity
  8
0
100
AcDbCircle
 62
7
  6
BYLAYER
 10
9.1633233119
 20
32.9103301633
 40
3.7594481385
100
AcDbArc
 50
60.6153201532
 51
61.8690809778
  0
ARC
  5
27E
100
AcDbEntity
  8
0
100
AcDbCircle
 62
7
  6
BYLAYER
 10
10.2237949629
 20
36.3868395632
 40
1.8638907175
100
AcDbArc
 50
108.3527092353
 51
109.8940292336
  0
ARC
  5
27F
100
AcDbEntity
  8
0
100
AcDbCircle
 62
7
  6
BYLAYER
 10
13.7862404264
 20
30.2300576803
 40
1.8235164472
100
AcDbArc
 50
300.4015609824
 51
311.4707024726
  0
ARC
  5
280
100
AcDbEntity
  8
0
100
AcDbCircle
 62
7
  6
BYLAYER
 10
10.2056058819
 20
36.4335462637
 40
1.8137822999
100
AcDbArc
 50
109.8558003025
 51
119.8496179653
  0
ARC
  5
281
100
AcDbEntity
  8
0
100
AcDbCircle
 62
7
  6
BYLAYER
 10
10.0609651972
 20
36.3578446859
 40
1.807022322
100
AcDbArc
 50
114.8349035718
 51
119.9943252143
  0
ARC
  5
282
100
AcDbEntity
  8
0
100
AcDbCircle
 62
7
  6
BYLAYER
 10
13.6548850312
 20
30.1331865776
 40
1.8052924957
100
AcDbArc
 50
300.0017213873
 51
305.0435206906
  0
ARC
  5
283
100
AcDbEntity
  8
0
100
AcDbCircle
 62
7
  6
BYLAYER
 10
13.798917123
 20
30.2102262108
 40
1.7999968966
100
AcDbArc
 50
300.0030990576
 51
300.3729833809
  0
ARC
  5
284
100
AcDbEntity
  8
0
100
AcDbCircle
 62
7
  6
BYLAYER
 10
12.3453299858
 20
30.2998955612
 40
1.5053321265
100
AcDbArc
 50
286.7546654612
 51
287.3679274885
  0
ARC
  5
285
100
AcDbEntity
  8
0
100
AcDbCircle
 62
7
  6
BYLAYER
 10
11.3979658454
 20
32.9809336278
 40
0.5
100
AcDbArc
 50
119.9998519061
 51
299.9998519061
  0
ARC
  5
286
100
AcDbEntity
  8
0
100
AcDbCircle
 62
7
  6
BYLAYER
 10
11.3979658454
 20
35.8386920877
 40
0.5
100
AcDbArc
 50
134.521519979
 51
299.9998519061
  0
ARC
  5
287
100
AcDbEntity
  8
0
100
AcDbCircle
 62
7
  6
BYLAYER
 10
13.8728498834
 20
31.552090987
 40
0.5
100
AcDbArc
 50
119.9998519061
 51
282.5673203079
  0
ARC
  5
288
100
AcDbEntity
  8
0
100
AcDbCircle
 62
7
  6
BYLAYER
 10
11.3157638136
 20
35.6340366709
 40
0.4357572228
100
AcDbArc
 50
355.4845087214
 51
0.0703499896
  0
ARC
  5
289
100
AcDbEntity
  8
0
100
AcDbCircle
 62
7
  6
BYLAYER
 10
20.2191180137
 20
56.1260103116
 40
26.3534696881
100
AcDbArc
 50
1.3795149132
 51
1.7157707323
  0
ARC
  5
28A
100
AcDbEntity
  8
0
100
AcDbCircle
 62
7
  6
BYLAYER
 10
28.5659780043
 20
52.6041500181
 40
21.2268184862
100
AcDbArc
 50
351.5148719191
 51
352.5215652773
  0
ARC
  5
28B
100
AcDbEntity
  8
0
100
AcDbCircle
 62
7
  6
BYLAYER
 10
28.94299407
 20
51.2459869132
 40
20.8126398303
100
AcDbArc
 50
357.3892294527
 51
358.527199538
  0
ARC
  5
28C
100
AcDbEntity
  8
0
100
AcDbCircle
 62
7
  6
BYLAYER
 10
29.4114916005
 20
54.164264224
 40
20.5184448296
100
AcDbArc
 50
344.8682233917
 51
346.1710320218
  0
ARC
  5
28D
100
AcDbEntity
  8
0
100
AcDbCircle
 62
7
  6
BYLAYER
 10
30.509550768
 20
55.9389136113
 40
19.7372993242
100
AcDbArc
 50
337.3471767328
 51
338.6949641631
  0
ARC
  5
28E
100
AcDbEntity
  8
0
100
AcDbCircle
 62
7
  6
BYLAYER
 10
31.8855862909
 20
57.8734835104
 40
18.9424939664
100
AcDbArc
 50
328.8722592306
 51
330.2559025557
  0
ARC
  5
28F
100
AcDbEntity
  8
0
100
AcDbCircle
 62
7
  6
BYLAYER
 10
30.3169768477
 20
55.5341834737
 40
17.0485549488
100
AcDbArc
 50
1.5989710262
 51
2.2646530141
  0
ARC
  5
290
100
AcDbEntity
  8
0
100
AcDbCircle
 62
7
  6
BYLAYER
 10
32.2411190021
 20
54.9558866857
 40
16.4749880777
100
AcDbArc
 50
357.0444657299
 51
357.978027541
  0
ARC
  5
291
100
AcDbEntity
  8
0
100
AcDbCircle
 62
7
  6
BYLAYER
 10
31.6777841362
 20
55.1381467602
 40
16.4021166493
100
AcDbArc
 50
359.9059148764
 51
0.7317981373
  0
ARC
  5
292
100
AcDbEntity
  8
0
100
AcDbCircle
 62
7
  6
BYLAYER
 10
32.9141520155
 20
54.952878101
 40
16.3708054924
100
AcDbArc
 50
353.2986746475
 51
354.3258082125
  0
ARC
  5
293
100
AcDbEntity
  8
0
100
AcDbCircle
 62
7
  6
BYLAYER
 10
33.8841947621
 20
55.0694931568
 40
15.9149366373
100
AcDbArc
 50
348.7668058088
 51
349.8880745586
  0
ARC
  5
294
100
AcDbEntity
  8
0
100
AcDbCircle
 62
7
  6
BYLAYER
 10
35.1222283059
 20
55.2481273735
 40
15.1468860561
100
AcDbArc
 50
343.4627856886
 51
344.6838386125
  0
ARC
  5
295
100
AcDbEntity
  8
0
100
AcDbCircle
 62
7
  6
BYLAYER
 10
34.5443887556
 20
52.2688851435
 40
14.6140750441
100
AcDbArc
 50
332.6639395435
 51
334.6167088979
  0
ARC
  5
296
100
AcDbEntity
  8
0
100
AcDbCircle
 62
7
  6
BYLAYER
 10
37.3311292926
 20
37.8580011421
 40
21.2289253086
100
AcDbArc
 50
69.2286853346
 51
70.0689525625
  0
ARC
  5
297
100
AcDbEntity
  8
0
100
AcDbCircle
 62
7
  6
BYLAYER
 10
38.4004925982
 20
33.7839051972
 40
21.1828367678
100
AcDbArc
 50
57.8617995174
 51
58.3105098083
  0
ARC
  5
298
100
AcDbEntity
  8
0
100
AcDbCircle
 62
7
  6
BYLAYER
 10
36.2557861972
 20
38.9267000769
 40
20.7820125899
100
AcDbArc
 50
62.9575671651
 51
64.0206727523
  0
ARC
  5
299
100
AcDbEntity
  8
0
100
AcDbCircle
 62
7
  6
BYLAYER
 10
39.239100834
 20
37.9758448254
 40
20.3454036594
100
AcDbArc
 50
75.6118198815
 51
76.9257985172
  0
ARC
  5
29A
100
AcDbEntity
  8
0
100
AcDbCircle
 62
7
  6
BYLAYER
 10
37.8401535301
 20
39.1967275688
 40
19.796686058
100
AcDbArc
 50
68.7917644215
 51
68.952430985
  0
ARC
  5
29B
100
AcDbEntity
  8
0
100
AcDbCircle
 62
7
  6
BYLAYER
 10
41.4043464419
 20
38.1044875776
 40
19.5247113836
100
AcDbArc
 50
83.3229587715
 51
84.6812901779
  0
ARC
  5
29C
100
AcDbEntity
  8
0
100
AcDbCircle
 62
7
  6
BYLAYER
 10
40.5689296832
 20
38.6371038828
 40
16.6698732482
100
AcDbArc
 50
57.9712521091
 51
58.6868668553
  0
ARC
  5
29D
100
AcDbEntity
  8
0
100
AcDbCircle
 62
7
  6
BYLAYER
 10
40.9193003219
 20
40.1967586158
 40
16.4563196569
100
AcDbArc
 50
62.8568841048
 51
63.8156265524
  0
ARC
  5
29E
100
AcDbEntity
  8
0
100
AcDbCircle
 62
7
  6
BYLAYER
 10
40.7596103551
 20
39.6523846264
 40
16.3894822186
100
AcDbArc
 50
59.8595077126
 51
60.716213304
  0
ARC
  5
29F
100
AcDbEntity
  8
0
100
AcDbCircle
 62
7
  6
BYLAYER
 10
41.3171187003
 20
40.8229407227
 40
16.2690295657
100
AcDbArc
 50
66.7111575838
 51
67.7628515838
  0
ARC
  5
2A0
100
AcDbEntity
  8
0
100
AcDbCircle
 62
7
  6
BYLAYER
 10
41.9561406651
 20
41.6591187216
 40
15.7273314939
100
AcDbArc
 50
71.3400278022
 51
72.4871719106
  0
ARC
  5
2A1
100
AcDbEntity
  8
0
100
AcDbCircle
 62
7
  6
BYLAYER
 10
36.6470381326
 20
42.4216913993
 40
17.5163359272
100
AcDbArc
 50
52.532246509
 51
53.816887161
  0
ARC
  5
2A2
100
AcDbEntity
  8
0
100
AcDbCircle
 62
7
  6
BYLAYER
 10
42.7607090071
 20
42.6804620439
 40
14.9004407658
100
AcDbArc
 50
76.7384678784
 51
77.9870269667
  0
ARC
  5
2A3
100
AcDbEntity
  8
0
100
AcDbCircle
 62
7
  6
BYLAYER
 10
38.3124821592
 20
44.7358268483
 40
14.5164931538
100
AcDbArc
 50
48.0869587281
 51
49.4524377413
  0
ARC
  5
2A4
100
AcDbEntity
  8
0
100
AcDbCircle
 62
7
  6
BYLAYER
 10
40.1298161236
 20
50.1575054467
 40
13.9925773308
100
AcDbArc
 50
18.4334446759
 51
21.1104994507
  0
ARC
  5
2A5
100
AcDbEntity
  8
0
100
AcDbCircle
 62
7
  6
BYLAYER
 10
43.6452194996
 20
43.7852741223
 40
13.9293244432
100
AcDbArc
 50
82.9315999974
 51
84.2854088869
  0
ARC
  5
2A6
100
AcDbEntity
  8
0
100
AcDbCircle
 62
7
  6
BYLAYER
 10
44.5541608218
 20
44.8157243767
 40
12.9996718793
100
AcDbArc
 50
89.9397229093
 51
91.3924531719
  0
ARC
  5
2A7
100
AcDbEntity
  8
0
100
AcDbCircle
 62
7
  6
BYLAYER
 10
45.4867180527
 20
45.683119351
 40
12.221974179
100
AcDbArc
 50
97.736200704
 51
99.2730347728
  0
ARC
  5
2A8
100
AcDbEntity
  8
0
100
AcDbCircle
 62
7
  6
BYLAYER
 10
46.4981191936
 20
46.2550372929
 40
11.7579932357
100
AcDbArc
 50
106.217962968
 51
107.8040590161
  0
ARC
  5
2A9
100
AcDbEntity
  8
0
100
AcDbCircle
 62
7
  6
BYLAYER
 10
40.839196213
 20
47.1234083552
 40
10.8226926705
100
AcDbArc
 50
43.9593555179
 51
45.4852045568
  0
ARC
  5
2AA
100
AcDbEntity
  8
0
100
AcDbCircle
 62
7
  6
BYLAYER
 10
38.7535771237
 20
48.5341283829
 40
9.7778033701
100
AcDbArc
 50
62.306703364
 51
65.2624150839
  0
ARC
  5
2AB
100
AcDbEntity
  8
0
100
AcDbCircle
 62
7
  6
BYLAYER
 10
38.3953458379
 20
48.5657964545
 40
9.6698672738
100
AcDbArc
 50
26.6707253455
 51
27.9462660013
  0
ARC
  5
2AC
100
AcDbEntity
  8
0
100
AcDbCircle
 62
7
  6
BYLAYER
 10
40.2427482315
 20
49.6318432961
 40
9.6598150869
100
AcDbArc
 50
26.6700616422
 51
27.9469297047
  0
ARC
  5
2AD
100
AcDbEntity
  8
0
100
AcDbCircle
 62
7
  6
BYLAYER
 10
40.323355694
 20
49.6907898854
 40
9.5603316476
100
AcDbArc
 50
33.8553953433
 51
35.1405121473
  0
ARC
  5
2AE
100
AcDbEntity
  8
0
100
AcDbCircle
 62
7
  6
BYLAYER
 10
38.4985348449
 20
48.6387351532
 40
9.5437711583
100
AcDbArc
 50
33.8542803198
 51
35.1416271708
  0
ARC
  5
2AF
100
AcDbEntity
  8
0
100
AcDbCircle
 62
7
  6
BYLAYER
 10
40.40035955
 20
49.7234005623
 40
9.3807536599
100
AcDbArc
 50
26.7620003637
 51
27.8549909831
  0
ARC
  5
2B0
100
AcDbEntity
  8
0
100
AcDbCircle
 62
7
  6
BYLAYER
 10
40.498894838
 20
49.7932045242
 40
9.2602661596
100
AcDbArc
 50
33.9465097302
 51
35.0493977603
  0
ARC
  5
2B1
100
AcDbEntity
  8
0
100
AcDbCircle
 62
7
  6
BYLAYER
 10
40.9551422412
 20
49.9330304693
 40
8.8859061038
100
AcDbArc
 50
19.2721370497
 51
20.6227337589
  0
ARC
  5
2B2
100
AcDbEntity
  8
0
100
AcDbCircle
 62
7
  6
BYLAYER
 10
41.0708272769
 20
50.0093191445
 40
8.6514300699
100
AcDbArc
 50
19.3708700859
 51
20.5240007227
  0
ARC
  5
2B3
100
AcDbEntity
  8
0
100
AcDbCircle
 62
7
  6
BYLAYER
 10
41.0729487627
 20
50.2898167004
 40
8.6001527995
100
AcDbArc
 50
41.2856509857
 51
42.6648582701
  0
ARC
  5
2B4
100
AcDbEntity
  8
0
100
AcDbCircle
 62
7
  6
BYLAYER
 10
39.2574382544
 20
49.2490367506
 40
8.5692720389
100
AcDbArc
 50
41.2831657666
 51
42.6673434893
  0
ARC
  5
2B5
100
AcDbEntity
  8
0
100
AcDbCircle
 62
7
  6
BYLAYER
 10
41.2294552264
 20
50.3798976475
 40
8.3226768406
100
AcDbArc
 50
41.3833476553
 51
42.5680547293
  0
ARC
  5
2B6
100
AcDbEntity
  8
0
100
AcDbCircle
 62
7
  6
BYLAYER
 10
42.3406170232
 20
50.32153602
 40
7.4458722108
100
AcDbArc
 50
11.162168622
 51
12.6824233372
  0
ARC
  5
2B7
100
AcDbEntity
  8
0
100
AcDbCircle
 62
7
  6
BYLAYER
 10
42.4484255671
 20
46.5010639627
 40
7.4187808654
100
AcDbArc
 50
20.925819556
 51
21.8307322243
  0
ARC
  5
2B8
100
AcDbEntity
  8
0
100
AcDbCircle
 62
7
  6
BYLAYER
 10
42.400646324
 20
50.3875610177
 40
7.2677869344
100
AcDbArc
 50
11.2749477184
 51
12.5696442407
  0
ARC
  5
2B9
100
AcDbEntity
  8
0
100
AcDbCircle
 62
7
  6
BYLAYER
 10
43.8672403932
 20
49.2288805037
 40
6.8823587165
100
AcDbArc
 50
40.0694779965
 51
41.9090858848
  0
ARC
  5
2BA
100
AcDbEntity
  8
0
100
AcDbCircle
 62
7
  6
BYLAYER
 10
44.0656467939
 20
50.5403237307
 40
5.7051856497
100
AcDbArc
 50
1.7092865351
 51
3.5256360111
  0
ARC
  5
2BB
100
AcDbEntity
  8
0
100
AcDbCircle
 62
7
  6
BYLAYER
 10
44.0705949607
 20
50.6067762569
 40
5.5817312464
100
AcDbArc
 50
1.8458351008
 51
3.3890874454
  0
ARC
  5
2BC
100
AcDbEntity
  8
0
100
AcDbCircle
 62
7
  6
BYLAYER
 10
45.7082929145
 20
50.457569833
 40
4.0578464282
100
AcDbArc
 50
350.0685000882
 51
352.3487509963
  0
ARC
  5
2BD
100
AcDbEntity
  8
0
100
AcDbCircle
 62
7
  6
BYLAYER
 10
45.6636883563
 20
50.5359916605
 40
3.984582388
100
AcDbArc
 50
350.2426900573
 51
352.1729972308
  0
ARC
  5
2BE
100
AcDbEntity
  8
0
100
AcDbCircle
 62
7
  6
BYLAYER
 10
45.2610689272
 20
48.2321891027
 40
3.1460337764
100
AcDbArc
 50
356.8333231615
 51
358.9237734661
  0
ARC
  5
2BF
100
AcDbEntity
  8
0
100
AcDbCircle
 62
7
  6
BYLAYER
 10
46.9171112355
 20
50.122414454
 40
2.8002306633
100
AcDbArc
 50
335.2290579388
 51
338.1490099725
  0
ARC
  5
2C0
100
AcDbEntity
  8
0
100
AcDbCircle
 62
7
  6
BYLAYER
 10
46.8589948671
 20
50.2141345649
 40
2.7435373659
100
AcDbArc
 50
335.4503594147
 51
337.9277084966
  0
ARC
  5
2C1
100
AcDbEntity
  8
0
100
AcDbCircle
 62
7
  6
BYLAYER
 10
47.5395855438
 20
49.744201882
 40
2.0690098726
100
AcDbArc
 50
316.5995710457
 51
320.1699434691
  0
ARC
  5
2C2
100
AcDbEntity
  8
0
100
AcDbCircle
 62
7
  6
BYLAYER
 10
47.478383106
 20
49.8447941438
 40
2.0195648241
100
AcDbArc
 50
316.8645223209
 51
319.9049921938
  0
ARC
  5
2C3
100
AcDbEntity
  8
0
100
AcDbCircle
 62
7
  6
BYLAYER
 10
47.6852629681
 20
50.0466986961
 40
2.0089178393
100
AcDbArc
 50
279.4693267221
 51
281.934132904
  0
ARC
  5
2C4
100
AcDbEntity
  8
0
100
AcDbCircle
 62
7
  6
BYLAYER
 10
47.6684064129
 20
49.6037094077
 40
1.8780443827
100
AcDbArc
 50
295.4125747426
 51
299.2161977635
  0
ARC
  5
2C5
100
AcDbEntity
  8
0
100
AcDbCircle
 62
7
  6
BYLAYER
 10
47.6128396809
 20
49.6999139402
 40
1.8214870202
100
AcDbArc
 50
295.684460583
 51
298.9443119231
  0
ARC
  5
2C6
100
AcDbEntity
  8
0
100
AcDbCircle
 62
7
  6
BYLAYER
 10
47.745425493
 20
49.8428004471
 40
1.7958254077
100
AcDbArc
 50
291.6012043813
 51
303.027568125
  0
ARC
  5
2C7
100
AcDbEntity
  8
0
100
AcDbCircle
 62
7
  6
BYLAYER
 10
49.4385140933
 20
41.8197134822
 40
18.9313059696
100
AcDbArc
 50
132.4519609655
 51
133.5643176894
  0
ARC
  5
2C8
100
AcDbEntity
  8
0
100
AcDbCircle
 62
7
  6
BYLAYER
 10
54.2427990973
 20
41.3492456113
 40
9.3314650157
100
AcDbArc
 50
158.7355176587
 51
161.3684845954
  0
ARC
  5
2C9
100
AcDbEntity
  8
0
100
AcDbCircle
 62
7
  6
BYLAYER
 10
55.6022682611
 20
44.5422138254
 40
19.6744495479
100
AcDbArc
 50
132.4729720799
 51
133.5433114089
  0
ARC
  5
2CA
100
AcDbEntity
  8
0
100
AcDbCircle
 62
7
  6
BYLAYER
 10
59.6791216791
 20
44.6952313256
 40
9.0969458585
100
AcDbArc
 50
158.7015764976
 51
161.402433488
  0
ARC
  5
2CB
100
AcDbEntity
  8
0
100
AcDbCircle
 62
7
  6
BYLAYER
 10
48.1662184556
 20
49.9704309324
 40
2.1394505484
100
AcDbArc
 50
281.5206355633
 51
282.1364778946
  0
ARC
  5
2CC
100
AcDbEntity
  8
0
100
AcDbCircle
 62
7
  6
BYLAYER
 10
53.05991894
 20
59.3673240717
 40
19.5270605296
100
AcDbArc
 50
227.9712974258
 51
230.5192905265
  0
ARC
  5
2CD
100
AcDbEntity
  8
0
100
AcDbCircle
 62
7
  6
BYLAYER
 10
60.5233790539
 20
53.7183584506
 40
15.4205528079
100
AcDbArc
 50
191.2736291475
 51
193.7797952433
  0
ARC
  5
2CE
100
AcDbEntity
  8
0
100
AcDbCircle
 62
7
  6
BYLAYER
 10
66.0355981789
 20
56.9521803364
 40
15.2724503551
100
AcDbArc
 50
191.2614719192
 51
193.7919451933
  0
ARC
  5
2CF
100
AcDbEntity
  8
0
100
AcDbCircle
 62
7
  6
BYLAYER
 10
48.7472811063
 20
56.1805966811
 40
14.3844565551
100
AcDbArc
 50
235.7144125052
 51
238.2200250927
  0
ARC
  5
2D0
100
AcDbEntity
  8
0
100
AcDbCircle
 62
7
  6
BYLAYER
 10
40.5721273646
 20
55.3510425591
 40
14.2001881401
100
AcDbArc
 50
332.6354813327
 51
334.6451728358
  0
ARC
  5
2D1
100
AcDbEntity
  8
0
100
AcDbCircle
 62
7
  6
BYLAYER
 10
36.5089352913
 20
55.4563289269
 40
14.1954913604
100
AcDbArc
 50
337.3663077322
 51
338.6920105324
  0
ARC
  5
2D2
100
AcDbEntity
  8
0
100
AcDbCircle
 62
7
  6
BYLAYER
 10
50.8956814001
 20
72.0377408636
 40
13.4377426882
100
AcDbArc
 50
250.006272586
 51
252.3816577033
  0
ARC
  5
2D3
100
AcDbEntity
  8
0
100
AcDbCircle
 62
7
  6
BYLAYER
 10
37.8929077437
 20
55.705017686
 40
13.2280441244
100
AcDbArc
 50
330.4599882373
 51
331.8883330258
  0
ARC
  5
2D4
100
AcDbEntity
  8
0
100
AcDbCircle
 62
7
  6
BYLAYER
 10
45.1506554986
 20
68.5128001312
 40
13.1642100608
100
AcDbArc
 50
249.9815833241
 51
252.4063324204
  0
ARC
  5
2D5
100
AcDbEntity
  8
0
100
AcDbCircle
 62
7
  6
BYLAYER
 10
39.1574312773
 20
56.0422157063
 40
12.3918323724
100
AcDbArc
 50
322.7648991049
 51
324.2832594984
  0
ARC
  5
2D6
100
AcDbEntity
  8
0
100
AcDbCircle
 62
7
  6
BYLAYER
 10
40.2145844928
 20
56.5670177694
 40
11.8382630676
100
AcDbArc
 50
314.3795602145
 51
315.9575734297
  0
ARC
  5
2D7
100
AcDbEntity
  8
0
100
AcDbCircle
 62
7
  6
BYLAYER
 10
41.0977058376
 20
57.3427478604
 40
11.6111107947
100
AcDbArc
 50
306.5502967409
 51
307.094187965
  0
ARC
  5
2D8
100
AcDbEntity
  8
0
100
AcDbCircle
 62
7
  6
BYLAYER
 10
46.2423487774
 20
52.5130358566
 40
10.2018424525
100
AcDbArc
 50
179.9865824125
 51
183.78960095
  0
ARC
  5
2D9
100
AcDbEntity
  8
0
100
AcDbCircle
 62
7
  6
BYLAYER
 10
38.9741431785
 20
51.6816787724
 40
10.0974228482
100
AcDbArc
 50
15.4676519661
 51
17.0123324553
  0
ARC
  5
2DA
100
AcDbEntity
  8
0
100
AcDbCircle
 62
7
  6
BYLAYER
 10
44.3478569802
 20
51.6730444921
 40
9.9193586181
100
AcDbArc
 50
62.32780656
 51
65.2413296304
  0
ARC
  5
2DB
100
AcDbEntity
  8
0
100
AcDbCircle
 62
7
  6
BYLAYER
 10
36.9987534509
 20
51.7530454722
 40
9.4019618065
100
AcDbArc
 50
39.1036772218
 51
39.9244146958
  0
ARC
  5
2DC
100
AcDbEntity
  8
0
100
AcDbCircle
 62
7
  6
BYLAYER
 10
37.1556030617
 20
51.8837928214
 40
9.1977645695
100
AcDbArc
 50
39.9268648537
 51
40.1508203268
  0
ARC
  5
2DD
100
AcDbEntity
  8
0
100
AcDbCircle
 62
7
  6
BYLAYER
 10
42.1302460216
 20
51.3893376679
 40
7.0735206641
100
AcDbArc
 50
49.4714718475
 51
51.0410231034
  0
ARC
  5
2DE
100
AcDbEntity
  8
0
100
AcDbCircle
 62
7
  6
BYLAYER
 10
42.2688206551
 20
51.4678208723
 40
6.8168019571
100
AcDbArc
 50
49.5793253468
 51
50.9331696041
  0
ARC
  5
2DF
100
AcDbEntity
  8
0
100
AcDbCircle
 62
7
  6
BYLAYER
 10
50.0010064998
 20
55.317812084
 40
6.4927887257
100
AcDbArc
 50
37.5968079123
 51
39.1004339784
  0
ARC
  5
2E0
100
AcDbEntity
  8
0
100
AcDbCircle
 62
7
  6
BYLAYER
 10
50.085553013
 20
55.3863365096
 40
6.3839600131
100
AcDbArc
 50
39.1017275437
 51
39.6143943562
  0
ARC
  5
2E1
100
AcDbEntity
  8
0
100
AcDbCircle
 62
7
  6
BYLAYER
 10
42.2855199614
 20
53.3592606658
 40
6.1247835931
100
AcDbArc
 50
18.9439953246
 51
20.842029554
  0
ARC
  5
2E2
100
AcDbEntity
  8
0
100
AcDbCircle
 62
7
  6
BYLAYER
 10
50.3700657596
 20
55.5386065047
 40
6.1100507242
100
AcDbArc
 50
38.0252977683
 51
39.6127237426
  0
ARC
  5
2E3
100
AcDbEntity
  8
0
100
AcDbCircle
 62
7
  6
BYLAYER
 10
43.1637782716
 20
52.8641363669
 40
5.2704245299
100
AcDbArc
 50
59.0430153465
 51
60.9581071798
  0
ARC
  5
2E4
100
AcDbEntity
  8
0
100
AcDbCircle
 62
7
  6
BYLAYER
 10
43.2193893933
 20
52.8238113452
 40
5.1589839568
100
AcDbArc
 50
59.1873991726
 51
60.8137233538
  0
ARC
  5
2E5
100
AcDbEntity
  8
0
100
AcDbCircle
 62
7
  6
BYLAYER
 10
52.5491484698
 20
55.7391140383
 40
3.9267175067
100
AcDbArc
 50
0.0219554796
 51
2.2227669426
  0
ARC
  5
2E6
100
AcDbEntity
  8
0
100
AcDbCircle
 62
7
  6
BYLAYER
 10
51.7038985154
 20
57.2744787238
 40
3.8860119598
100
AcDbArc
 50
57.6445898201
 51
59.9898124416
  0
ARC
  5
2E7
100
AcDbEntity
  8
0
100
AcDbCircle
 62
7
  6
BYLAYER
 10
43.7951161195
 20
54.2558502695
 40
3.7396600006
100
AcDbArc
 50
70.8913079194
 51
73.2903843283
  0
ARC
  5
2E8
100
AcDbEntity
  8
0
100
AcDbCircle
 62
7
  6
BYLAYER
 10
43.8661675268
 20
54.2488485237
 40
3.5911037732
100
AcDbArc
 50
71.052476377
 51
73.1292158707
  0
ARC
  5
2E9
100
AcDbEntity
  8
0
100
AcDbCircle
 62
7
  6
BYLAYER
 10
44.4456952948
 20
54.076015305
 40
3.5603119186
100
AcDbArc
 50
68.6263525207
 51
68.891421113
  0
ARC
  5
2EA
100
AcDbEntity
  8
0
100
AcDbCircle
 62
7
  6
BYLAYER
 10
44.0195520032
 20
55.3801461479
 40
2.5899258848
100
AcDbArc
 50
85.9991792313
 51
89.0653415636
  0
ARC
  5
2EB
100
AcDbEntity
  8
0
100
AcDbCircle
 62
7
  6
BYLAYER
 10
44.0734373268
 20
55.3258051471
 40
2.4912108995
100
AcDbArc
 50
86.2063916494
 51
88.856136183
  0
ARC
  5
2EC
100
AcDbEntity
  8
0
100
AcDbCircle
 62
7
  6
BYLAYER
 10
43.9649333603
 20
55.983987613
 40
1.9811067376
100
AcDbArc
 50
104.8886168512
 51
108.5567475076
  0
ARC
  5
2ED
100
AcDbEntity
  8
0
100
AcDbCircle
 62
7
  6
BYLAYER
 10
44.0170531535
 20
55.8987490673
 40
1.9130590382
100
AcDbArc
 50
105.1439196095
 51
108.3014447492
  0
ARC
  5
2EE
100
AcDbEntity
  8
0
100
AcDbCircle
 62
7
  6
BYLAYER
 10
43.9459863021
 20
56.0568906869
 40
1.9071456675
100
AcDbArc
 50
126.1447416176
 51
129.9121468169
  0
ARC
  5
2EF
100
AcDbEntity
  8
0
100
AcDbCircle
 62
7
  6
BYLAYER
 10
44.0023821937
 20
55.9596734514
 40
1.8519027873
100
AcDbArc
 50
127.4910773698
 51
128.3856884708
  0
ARC
  5
2F0
100
AcDbEntity
  8
0
100
AcDbCircle
 62
7
  6
BYLAYER
 10
43.9973768897
 20
55.9662022732
 40
1.8436760882
100
AcDbArc
 50
126.4132019573
 51
127.4911469541
  0
ARC
  5
2F1
100
AcDbEntity
  8
0
100
AcDbCircle
 62
7
  6
BYLAYER
 10
44.1849093001
 20
56.0126731937
 40
1.8140312955
100
AcDbArc
 50
122.3513500566
 51
132.1524168453
  0
SPLINE
  5
2F2
100
AcDbEntity
  8
0
100
AcDbSpline
 62
7
  6
BYLAYER
 70
0
 71
3
 72
9
 73
5
 74
0
 42
0.0000001
 43
0.0000001
 44
0.0000000001
 40
0.0
 40
0.0
 40
0.0
 40
0.0
 40
0.257442094
 40
1.0
 40
1.0
 40
1.0
 40
1.0
 10
48.9729585343
 20
48.5316953917
 30
0.0
 10
48.9714513379
 20
48.5258031516
 30
0.0
 10
48.96533543
 20
48.5029837882
 30
0.0
 10
48.9581468621
 20
48.4804471882
 30
0.0
 10
48.9521384262
 20
48.4639656479
 30
0.0
  0
SPLINE
  5
2F3
100
AcDbEntity
  8
0
100
AcDbSpline
 62
7
  6
BYLAYER
 70
0
 71
3
 72
9
 73
5
 74
0
 42
0.0000001
 43
0.0000001
 44
0.0000000001
 40
0.0
 40
0.0
 40
0.0
 40
0.0
 40
0.2697221736
 40
1.0
 40
1.0
 40
1.0
 40
1.0
 10
46.5607722972
 20
56.9150693777
 30
0.0
 10
46.5592445348
 20
56.9189194519
 30
0.0
 10
46.553427743
 20
56.9331304958
 30
0.0
 10
46.5469544146
 20
56.9470888173
 30
0.0
 10
46.5416527178
 20
56.9569713801
 30
0.0
  0
SPLINE
  5
2F4
100
AcDbEntity
  8
0
100
AcDbSpline
 62
7
  6
BYLAYER
 70
0
 71
3
 72
9
 73
5
 74
0
 42
0.0000001
 43
0.0000001
 44
0.0000000001
 40
0.0
 40
0.0
 40
0.0
 40
0.0
 40
0.2565028995
 40
1.0
 40
1.0
 40
1.0
 40
1.0
 10
47.3522162465
 20
56.207863271
 30
0.0
 10
47.3481957868
 20
56.2179180174
 30
0.0
 10
47.3323137953
 20
56.2570335011
 30
0.0
 10
47.3155486088
 20
56.2957937269
 30
0.0
 10
47.3024849955
 20
56.3243341864
 30
0.0
  0
SPLINE
  5
2F5
100
AcDbEntity
  8
0
100
AcDbSpline
 62
7
  6
BYLAYER
 70
0
 71
3
 72
9
 73
5
 74
0
 42
0.0000001
 43
0.0000001
 44
0.0000000001
 40
0.0
 40
0.0
 40
0.0
 40
0.0
 40
0.2444772862
 40
1.0
 40
1.0
 40
1.0
 40
1.0
 10
49.4989763595
 20
52.6537095483
 30
0.0
 10
49.4919180834
 20
52.6633111172
 30
0.0
 10
49.4628047646
 20
52.7024065564
 30
0.0
 10
49.43279092
 20
52.7408284054
 30
0.0
 10
49.4097086384
 20
52.7695241134
 30
0.0
  0
SPLINE
  5
2F6
100
AcDbEntity
  8
0
100
AcDbSpline
 62
7
  6
BYLAYER
 70
0
 71
3
 72
9
 73
5
 74
0
 42
0.0000001
 43
0.0000001
 44
0.0000000001
 40
0.0
 40
0.0
 40
0.0
 40
0.0
 40
0.2366510168
 40
1.0
 40
1.0
 40
1.0
 40
1.0
 10
49.7073932252
 20
51.6666045275
 30
0.0
 10
49.7045613696
 20
51.6710175988
 30
0.0
 10
49.6923504975
 20
51.6895086205
 30
0.0
 10
49.6792794689
 20
51.7074227518
 30
0.0
 10
49.6689834599
 20
51.720841592
 30
0.0
  0
LINE
  5
2F7
100
AcDbEntity
  8
0
100
AcDbLine
 62
7
  6
BYLAYER
 10
49.9438291995
 20
50.6064785429
 11
50.2130433798
 21
50.4474093962
  0
LINE
  5
2F8
100
AcDbEntity
  8
0
100
AcDbLine
 62
7
  6
BYLAYER
 10
49.7682938565
 20
50.7104994515
 11
49.9438291995
 21
50.6064785429
  0
SPLINE
  5
2F9
100
AcDbEntity
  8
0
100
AcDbSpline
 62
7
  6
BYLAYER
 70
0
 71
3
 72
11
 73
7
 74
0
 42
0.0000001
 43
0.0000001
 44
0.0000000001
 40
0.0
 40
0.0
 40
0.0
 40
0.0
 40
0.2372760266
 40
0.4823032088
 40
0.736293522
 40
1.0
 40
1.0
 40
1.0
 40
1.0
 10
53.4044566448
 20
54.5819984011
 30
0.0
 10
53.453683741
 20
54.390417068
 30
0.0
 10
53.5430067994
 20
53.9981283738
 30
0.0
 10
53.6426962643
 20
53.3920592251
 30
0.0
 10
53.704707993
 20
52.7587909963
 30
0.0
 10
53.7181790781
 20
52.3270634091
 30
0.0
 10
53.7181790781
 20
52.1072249727
 30
0.0
  0
SPLINE
  5
2FA
100
AcDbEntity
  8
0
100
AcDbSpline
 62
7
  6
BYLAYER
 70
0
 71
3
 72
11
 73
7
 74
0
 42
0.0000001
 43
0.0000001
 44
0.0000000001
 40
0.0
 40
0.0
 40
0.0
 40
0.0
 40
0.2542941747
 40
0.505719691
 40
0.7542226087
 40
1.0
 40
1.0
 40
1.0
 40
1.0
 10
51.4200711779
 20
58.0302334953
 30
0.0
 10
51.5976570071
 20
57.809317793
 30
0.0
 10
51.9368184653
 20
57.3584999732
 30
0.0
 10
52.3988367765
 20
56.6555504396
 30
0.0
 10
52.8139863982
 20
55.934985511
 30
0.0
 10
53.0642826026
 20
55.4439191331
 30
0.0
 10
53.1833171883
 20
55.1971806946
 30
0.0
  0
SPLINE
  5
2FB
100
AcDbEntity
  8
0
100
AcDbSpline
 62
7
  6
BYLAYER
 70
0
 71
3
 72
9
 73
5
 74
0
 42
0.0000001
 43
0.0000001
 44
0.0000000001
 40
0.0
 40
0.0
 40
0.0
 40
0.0
 40
0.5046644551
 40
1.0
 40
1.0
 40
1.0
 40
1.0
 10
42.048486673
 20
58.8033137015
 30
0.0
 10
42.0016428756
 20
58.5765563798
 30
0.0
 10
41.9152989091
 20
58.1258604195
 30
0.0
 10
41.8449585806
 20
57.6723344025
 30
0.0
 10
41.8149827786
 20
57.4470548542
 30
0.0
  0
SPLINE
  5
2FC
100
AcDbEntity
  8
0
100
AcDbSpline
 62
7
  6
BYLAYER
 70
0
 71
3
 72
11
 73
7
 74
0
 42
0.0000001
 43
0.0000001
 44
0.0000000001
 40
0.0
 40
0.0
 40
0.0
 40
0.0
 40
0.2392513397
 40
0.486421467
 40
0.7404233412
 40
1.0
 40
1.0
 40
1.0
 40
1.0
 10
53.7181790781
 20
52.1072249727
 30
0.0
 10
53.7181790781
 20
51.8792500266
 30
0.0
 10
53.70319412
 20
51.4156564652
 30
0.0
 10
53.6400605825
 20
50.7126467426
 30
0.0
 10
53.5398201028
 20
49.9944744849
 30
0.0
 10
53.4525346413
 20
49.5128228839
 30
0.0
 10
53.4044566448
 20
49.270198244
 30
0.0
  0
SPLINE
  5
2FD
100
AcDbEntity
  8
0
100
AcDbSpline
 62
7
  6
BYLAYER
 70
0
 71
3
 72
11
 73
7
 74
0
 42
0.0000001
 43
0.0000001
 44
0.0000000001
 40
0.0
 40
0.0
 40
0.0
 40
0.0
 40
0.225160535
 40
0.4687224518
 40
0.728006833
 40
1.0
 40
1.0
 40
1.0
 40
1.0
 10
48.5916584676
 20
47.2048046614
 30
0.0
 10
48.7783734177
 20
47.221484029
 30
0.0
 10
49.1663011242
 20
47.2649804361
 30
0.0
 10
49.7659926671
 20
47.3535180811
 30
0.0
 10
50.4014185674
 20
47.4651589837
 30
0.0
 10
50.8353906812
 20
47.5508178386
 30
0.0
 10
51.0572005387
 20
47.5964207025
 30
0.0
  0
SPLINE
  5
2FE
100
AcDbEntity
  8
0
100
AcDbSpline
 62
7
  6
BYLAYER
 70
0
 71
3
 72
9
 73
5
 74
0
 42
0.0000001
 43
0.0000001
 44
0.0000000001
 40
0.0
 40
0.0
 40
0.0
 40
0.0
 40
0.2375398704
 40
1.0
 40
1.0
 40
1.0
 40
1.0
 10
47.9243415355
 20
47.1655786137
 30
0.0
 10
47.9772599365
 20
47.1668873825
 30
0.0
 10
48.1999862244
 20
47.1743980807
 30
0.0
 10
48.42242194
 20
47.1896863822
 30
0.0
 10
48.5916584676
 20
47.2048046614
 30
0.0
  0
SPLINE
  5
2FF
100
AcDbEntity
  8
0
100
AcDbSpline
 62
7
  6
BYLAYER
 70
0
 71
3
 72
11
 73
7
 74
0
 42
0.0000001
 43
0.0000001
 44
0.0000000001
 40
0.0
 40
0.0
 40
0.0
 40
0.0
 40
0.2517029826
 40
0.5026261046
 40
0.7522558745
 40
1.0
 40
1.0
 40
1.0
 40
1.0
 10
48.9545289671
 20
60.457818043
 30
0.0
 10
49.1805096386
 20
60.2747525283
 30
0.0
 10
49.6248829951
 20
59.9005454916
 30
0.0
 10
50.2635364551
 20
59.3104332612
 30
0.0
 10
50.8660550514
 20
58.6896930053
 30
0.0
 10
51.2407277204
 20
58.2533399479
 30
0.0
 10
51.4200711779
 20
58.0302334953
 30
0.0
  0
SPLINE
  5
300
100
AcDbEntity
  8
0
100
AcDbSpline
 62
7
  6
BYLAYER
 70
0
 71
3
 72
11
 73
7
 74
0
 42
0.0000001
 43
0.0000001
 44
0.0000000001
 40
0.0
 40
0.0
 40
0.0
 40
0.0
 40
0.2876242009
 40
0.5487941665
 40
0.785250127
 40
1.0
 40
1.0
 40
1.0
 40
1.0
 10
46.8238579128
 20
60.6837984773
 30
0.0
 10
46.9843868074
 20
60.6981388642
 30
0.0
 10
47.2912690965
 20
60.7195557773
 30
0.0
 10
47.7313565951
 20
60.729277268
 30
0.0
 10
48.1305314183
 20
60.7168635753
 30
0.0
 10
48.3825542039
 20
60.6947356124
 30
0.0
 10
48.5020562401
 20
60.680613803
 30
0.0
  0
SPLINE
  5
301
100
AcDbEntity
  8
0
100
AcDbSpline
 62
7
  6
BYLAYER
 70
0
 71
3
 72
11
 73
7
 74
0
 42
0.0000001
 43
0.0000001
 44
0.0000000001
 40
0.0
 40
0.0
 40
0.0
 40
0.0
 40
0.2714006589
 40
0.5302668125
 40
0.7739155656
 40
1.0
 40
1.0
 40
1.0
 40
1.0
 10
44.5182180174
 20
60.3247317678
 30
0.0
 10
44.7252524052
 20
60.3664432829
 30
0.0
 10
45.1304169171
 20
60.4447408929
 30
0.0
 10
45.7240072285
 20
60.5467378245
 30
0.0
 10
46.2852143054
 20
60.6279027831
 30
0.0
 10
46.6486247599
 20
60.6681447645
 30
0.0
 10
46.8238579128
 20
60.6837984773
 30
0.0
  0
SPLINE
  5
302
100
AcDbEntity
  8
0
100
AcDbSpline
 62
7
  6
BYLAYER
 70
0
 71
3
 72
9
 73
5
 74
0
 42
0.0000001
 43
0.0000001
 44
0.0000000001
 40
0.0
 40
0.0
 40
0.0
 40
0.0
 40
0.257414368
 40
1.0
 40
1.0
 40
1.0
 40
1.0
 10
43.493138295
 20
57.6891924398
 30
0.0
 10
43.486632499
 20
57.6916524556
 30
0.0
 10
43.4612745856
 20
57.700983493
 30
0.0
 10
43.4355770216
 20
57.7094009718
 30
0.0
 10
43.4163212486
 20
57.7150409111
 30
0.0
  0
SPLINE
  5
303
100
AcDbEntity
  8
0
100
AcDbSpline
 62
7
  6
BYLAYER
 70
0
 71
3
 72
17
 73
13
 74
0
 42
0.0000001
 43
0.0000001
 44
0.0000000001
 40
0.0
 40
0.0
 40
0.0
 40
0.0
 40
0.1447930659
 40
0.2141627813
 40
0.2815860624
 40
0.4109354408
 40
0.5340247578
 40
0.6524137338
 40
0.7104939624
 40
0.7681536659
 40
0.8832309407
 40
1.0
 40
1.0
 40
1.0
 40
1.0
 10
45.7278935505
 20
57.3974289485
 30
0.0
 10
45.6178964467
 20
57.4398918572
 30
0.0
 10
45.4518512586
 20
57.4946942105
 30
0.0
 10
45.2285445216
 20
57.5472864419
 30
0.0
 10
45.0148522639
 20
57.5840760045
 30
0.0
 10
44.7542554858
 20
57.6036945459
 30
0.0
 10
44.4518928465
 20
57.5830068036
 30
0.0
 10
44.2130000461
 20
57.5280630716
 30
0.0
 10
44.0338875183
 20
57.462133682
 30
0.0
 10
43.8634820697
 20
57.3823353284
 30
0.0
 10
43.6636453554
 20
57.2549620896
 30
0.0
 10
43.5234106357
 20
57.1270390854
 30
0.0
 10
43.4585205679
 20
57.0575335945
 30
0.0
  0
SPLINE
  5
304
100
AcDbEntity
  8
0
100
AcDbSpline
 62
7
  6
BYLAYER
 70
0
 71
3
 72
15
 73
11
 74
0
 42
0.0000001
 43
0.0000001
 44
0.0000000001
 40
0.0
 40
0.0
 40
0.0
 40
0.0
 40
0.1235889408
 40
0.243990018
 40
0.3630040191
 40
0.4825398818
 40
0.6044642669
 40
0.7304657971
 40
0.8619538616
 40
1.0
 40
1.0
 40
1.0
 40
1.0
 10
48.0730195825
 20
48.672313173
 30
0.0
 10
48.1604649456
 20
48.6823476501
 30
0.0
 10
48.3320342642
 20
48.7140797394
 30
0.0
 10
48.5773379258
 20
48.7987269676
 30
0.0
 10
48.8041015104
 20
48.9190334117
 30
0.0
 10
49.0101486728
 20
49.0738991155
 30
0.0
 10
49.1936847863
 20
49.2618117289
 30
0.0
 10
49.3531801423
 20
49.4810249452
 30
0.0
 10
49.4874585804
 20
49.729496916
 30
0.0
 10
49.5577384342
 20
49.9086655807
 30
0.0
 10
49.5887036514
 20
50.0019774215
 30
0.0
  0
SPLINE
  5
305
100
AcDbEntity
  8
0
100
AcDbSpline
 62
7
  6
BYLAYER
 70
0
 71
3
 72
9
 73
5
 74
0
 42
0.0000001
 43
0.0000001
 44
0.0000000001
 40
0.0
 40
0.0
 40
0.0
 40
0.0
 40
0.2390863464
 40
1.0
 40
1.0
 40
1.0
 40
1.0
 10
49.5887036514
 20
50.0019774215
 30
0.0
 10
49.6073470818
 20
50.0581582902
 30
0.0
 10
49.6777306546
 20
50.2956446795
 30
0.0
 10
49.7187768559
 20
50.5413869229
 30
0.0
 10
49.736482847
 20
50.7289415367
 30
0.0
  0
SPLINE
  5
306
100
AcDbEntity
  8
0
100
AcDbSpline
 62
7
  6
BYLAYER
 70
0
 71
3
 72
9
 73
5
 74
0
 42
0.0000001
 43
0.0000001
 44
0.0000000001
 40
0.0
 40
0.0
 40
0.0
 40
0.0
 40
0.4950254062
 40
1.0
 40
1.0
 40
1.0
 40
1.0
 10
48.9729588552
 20
48.53169513
 30
0.0
 10
49.0176717333
 20
48.5733049284
 30
0.0
 10
49.103943549
 20
48.6618115196
 30
0.0
 10
49.1815618114
 20
48.7579698812
 30
0.0
 10
49.2185211923
 20
48.8081304863
 30
0.0
  0
SPLINE
  5
307
100
AcDbEntity
  8
0
100
AcDbSpline
 62
7
  6
BYLAYER
 70
0
 71
3
 72
15
 73
11
 74
0
 42
0.0000001
 43
0.0000001
 44
0.0000000001
 40
0.0
 40
0.0
 40
0.0
 40
0.0
 40
0.1108410465
 40
0.2280578197
 40
0.3507094003
 40
0.477625969
 40
0.6074737799
 40
0.7388131745
 40
0.8701524765
 40
1.0
 40
1.0
 40
1.0
 40
1.0
 10
50.8897637292
 20
50.4742483572
 30
0.0
 10
50.8897637292
 20
50.7130878774
 30
0.0
 10
50.8611559014
 20
51.2047842436
 30
0.0
 10
50.7422080721
 20
51.9521246911
 30
0.0
 10
50.548008013
 20
52.719277931
 30
0.0
 10
50.2818494294
 20
53.493237258
 30
0.0
 10
49.9482317202
 20
54.2609982325
 30
0.0
 10
49.5527818143
 20
55.0095956407
 30
0.0
 10
49.1022313352
 20
55.7263162029
 30
0.0
 10
48.7669558109
 20
56.1791858059
 30
0.0
 10
48.5916571349
 20
56.3972577246
 30
0.0
  0
SPLINE
  5
308
100
AcDbEntity
  8
0
100
AcDbSpline
 62
7
  6
BYLAYER
 70
0
 71
3
 72
20
 73
16
 74
0
 42
0.0000001
 43
0.0000001
 44
0.0000000001
 40
0.0
 40
0.0
 40
0.0
 40
0.0
 40
0.0583200591
 40
0.1153282926
 40
0.1714029076
 40
0.2269993598
 40
0.2825983525
 40
0.3386705242
 40
0.3956661586
 40
0.4539997056
 40
0.5759539228
 40
0.6402638416
 40
0.707012973
 40
0.848202604
 40
1.0
 40
1.0
 40
1.0
 40
1.0
 10
48.5916571101
 20
47.2048038777
 30
0.0
 10
48.677272288
 20
47.2124516815
 30
0.0
 10
48.8459706952
 20
47.2359711029
 30
0.0
 10
49.0915753042
 20
47.2970903921
 30
0.0
 10
49.3252625865
 20
47.3834468548
 30
0.0
 10
49.5459025962
 20
47.4946122688
 30
0.0
 10
49.752483319
 20
47.6301244735
 30
0.0
 10
49.9440959728
 20
47.7893023379
 30
0.0
 10
50.1198524214
 20
47.9714679765
 30
0.0
 10
50.3351845304
 20
48.247711595
 30
0.0
 10
50.5122776233
 20
48.5646430103
 30
0.0
 10
50.6507329679
 20
48.9111850927
 30
0.0
 10
50.769008138
 20
49.2950634345
 30
0.0
 10
50.8662337145
 20
49.818177484
 30
0.0
 10
50.8897637292
 20
50.250519005
 30
0.0
 10
50.8897637292
 20
50.4742483572
 30
0.0
  0
SPLINE
  5
309
100
AcDbEntity
  8
0
100
AcDbSpline
 62
7
  6
BYLAYER
 70
0
 71
3
 72
9
 73
5
 74
0
 42
0.0000001
 43
0.0000001
 44
0.0000000001
 40
0.0
 40
0.0
 40
0.0
 40
0.0
 40
0.5098176449
 40
1.0
 40
1.0
 40
1.0
 40
1.0
 10
47.961807686
 20
47.2193373542
 30
0.0
 10
48.0681667011
 20
47.2057713107
 30
0.0
 10
48.2782496436
 20
47.1893323568
 30
0.0
 10
48.4889748764
 20
47.1956307372
 30
0.0
 10
48.5916571101
 20
47.2048038777
 30
0.0
  0
SPLINE
  5
30A
100
AcDbEntity
  8
0
100
AcDbSpline
 62
7
  6
BYLAYER
 70
0
 71
3
 72
15
 73
11
 74
0
 42
0.0000001
 43
0.0000001
 44
0.0000000001
 40
0.0
 40
0.0
 40
0.0
 40
0.0
 40
0.1255082175
 40
0.2476256952
 40
0.3678842297
 40
0.4880398294
 40
0.6098239726
 40
0.734851256
 40
0.8645311776
 40
1.0
 40
1.0
 40
1.0
 40
1.0
 10
43.9954439091
 20
59.0508226445
 30
0.0
 10
43.8840138664
 20
59.0408687939
 30
0.0
 10
43.6650976014
 20
59.0070228707
 30
0.0
 10
43.350153418
 20
58.9118704555
 30
0.0
 10
43.0567022891
 20
58.7737144745
 30
0.0
 10
42.7872820693
 20
58.5936790051
 30
0.0
 10
42.5440268188
 20
58.3732981843
 30
0.0
 10
42.3288083094
 20
58.1144292131
 30
0.0
 10
42.1431692827
 20
57.819264631
 30
0.0
 10
42.0422781796
 20
57.6048494536
 30
0.0
 10
41.9968514351
 20
57.4929677098
 30
0.0
  0
SPLINE
  5
30B
100
AcDbEntity
  8
0
100
AcDbSpline
 62
7
  6
BYLAYER
 70
0
 71
3
 72
16
 73
12
 74
0
 42
0.0000001
 43
0.0000001
 44
0.0000000001
 40
0.0
 40
0.0
 40
0.0
 40
0.0
 40
0.1491232978
 40
0.2932350965
 40
0.4309609541
 40
0.5611954105
 40
0.683190549
 40
0.7966605172
 40
0.8503030701
 40
0.9019889225
 40
1.0
 40
1.0
 40
1.0
 40
1.0
 10
48.5916571349
 20
56.3972577246
 30
0.0
 10
48.4203166653
 20
56.6104069221
 30
0.0
 10
48.0669005785
 20
57.0166460629
 30
0.0
 10
47.4996698882
 20
57.5683541129
 30
0.0
 10
46.9118552252
 20
58.0450764127
 30
0.0
 10
46.3132150889
 20
58.4387566905
 30
0.0
 10
45.713655912
 20
58.7427023847
 30
0.0
 10
45.211973891
 20
58.9200725298
 30
0.0
 10
44.8203888201
 20
59.0095890667
 30
0.0
 10
44.4510841003
 20
59.0629347269
 30
0.0
 10
44.1744738732
 20
59.0668162218
 30
0.0
 10
43.9954439091
 20
59.0508226445
 30
0.0
  0
SPLINE
  5
30C
100
AcDbEntity
  8
0
100
AcDbSpline
 62
7
  6
BYLAYER
 70
0
 71
3
 72
15
 73
11
 74
0
 42
0.0000001
 43
0.0000001
 44
0.0000000001
 40
0.0
 40
0.0
 40
0.0
 40
0.0
 40
0.147851959
 40
0.2884145834
 40
0.4216140072
 40
0.5477962188
 40
0.6675861806
 40
0.7819509676
 40
0.8922141774
 40
1.0
 40
1.0
 40
1.0
 40
1.0
 10
50.3983224703
 20
50.7579756816
 30
0.0
 10
50.3983224703
 20
50.6129047216
 30
0.0
 10
50.3870788672
 20
50.3297379006
 30
0.0
 10
50.3337149737
 20
49.9189153796
 30
0.0
 10
50.244557989
 20
49.5360097068
 30
0.0
 10
50.1202702674
 20
49.1844425675
 30
0.0
 10
49.9617610924
 20
48.8672942273
 30
0.0
 10
49.7701531342
 20
48.5874992875
 30
0.0
 10
49.5470480333
 20
48.3478951877
 30
0.0
 10
49.3774363246
 20
48.215688386
 30
0.0
 10
49.2889676182
 20
48.1577389604
 30
0.0
  0
SPLINE
  5
30D
100
AcDbEntity
  8
0
100
AcDbSpline
 62
7
  6
BYLAYER
 70
0
 71
3
 72
11
 73
7
 74
0
 42
0.0000001
 43
0.0000001
 44
0.0000000001
 40
0.0
 40
0.0
 40
0.0
 40
0.0
 40
0.2477168629
 40
0.4960103274
 40
0.7463142261
 40
1.0
 40
1.0
 40
1.0
 40
1.0
 10
49.2889676182
 20
48.1577389604
 30
0.0
 10
49.2383800746
 20
48.1246027339
 30
0.0
 10
49.1339156384
 20
48.0629554075
 30
0.0
 10
48.9687859438
 20
47.9853636526
 30
0.0
 10
48.7957967276
 20
47.9229529405
 30
0.0
 10
48.6765656897
 20
47.8918188314
 30
0.0
 10
48.6160187537
 20
47.878797996
 30
0.0
  0
SPLINE
  5
30E
100
AcDbEntity
  8
0
100
AcDbSpline
 62
7
  6
BYLAYER
 70
0
 71
3
 72
11
 73
7
 74
0
 42
0.0000001
 43
0.0000001
 44
0.0000000001
 40
0.0
 40
0.0
 40
0.0
 40
0.0
 40
0.2392509699
 40
0.4864215928
 40
0.7404218192
 40
1.0
 40
1.0
 40
1.0
 40
1.0
 10
50.8897637292
 20
50.4742483572
 30
0.0
 10
50.8897637292
 20
50.7022229818
 30
0.0
 10
50.9047438859
 20
51.1658170504
 30
0.0
 10
50.9678875817
 20
51.86882428
 30
0.0
 10
51.0681069574
 20
52.5869999996
 30
0.0
 10
51.1554078169
 20
53.0686489584
 30
0.0
 10
51.2034861052
 20
53.3112750528
 30
0.0
  0
SPLINE
  5
30F
100
AcDbEntity
  8
0
100
AcDbSpline
 62
7
  6
BYLAYER
 70
0
 71
3
 72
11
 73
7
 74
0
 42
0.0000001
 43
0.0000001
 44
0.0000000001
 40
0.0
 40
0.0
 40
0.0
 40
0.0
 40
0.251702859
 40
0.5026260331
 40
0.7522561495
 40
1.0
 40
1.0
 40
1.0
 40
1.0
 10
51.0572005403
 20
53.9696740027
 30
0.0
 10
50.8312199998
 20
54.1527394027
 30
0.0
 10
50.3868512608
 20
54.5269519479
 30
0.0
 10
49.7482003626
 20
55.1170663746
 30
0.0
 10
49.1456640854
 20
55.7377900942
 30
0.0
 10
48.7710025156
 20
56.1741529575
 30
0.0
 10
48.5916584924
 20
56.3972585084
 30
0.0
  0
SPLINE
  5
310
100
AcDbEntity
  8
0
100
AcDbSpline
 62
7
  6
BYLAYER
 70
0
 71
3
 72
11
 73
7
 74
0
 42
0.0000001
 43
0.0000001
 44
0.0000000001
 40
0.0
 40
0.0
 40
0.0
 40
0.0
 40
0.254294458
 40
0.5057192509
 40
0.75422222
 40
1.0
 40
1.0
 40
1.0
 40
1.0
 10
48.5916584924
 20
56.3972585084
 30
0.0
 10
48.414073246
 20
56.6181750663
 30
0.0
 10
48.0748999519
 20
57.0689836045
 30
0.0
 10
47.6129022149
 20
57.7719465825
 30
0.0
 10
47.1977505018
 20
58.4925091199
 30
0.0
 10
46.9474470779
 20
58.98357253
 30
0.0
 10
46.8284123163
 20
59.2303113496
 30
0.0
  0
SPLINE
  5
311
100
AcDbEntity
  8
0
100
AcDbSpline
 62
7
  6
BYLAYER
 70
0
 71
3
 72
11
 73
7
 74
0
 42
0.0000001
 43
0.0000001
 44
0.0000000001
 40
0.0
 40
0.0
 40
0.0
 40
0.0
 40
0.2714006581
 40
0.5302668124
 40
0.7739155673
 40
1.0
 40
1.0
 40
1.0
 40
1.0
 10
46.3010851551
 20
59.4098901398
 30
0.0
 10
46.0940507711
 20
59.3681786181
 30
0.0
 10
45.6888862604
 20
59.289881019
 30
0.0
 10
45.0952959536
 20
59.187884083
 30
0.0
 10
44.534088881
 20
59.1067191208
 30
0.0
 10
44.1706784291
 20
59.0664771422
 30
0.0
 10
43.995445279
 20
59.0508234293
 30
0.0
  0
SPLINE
  5
312
100
AcDbEntity
  8
0
100
AcDbSpline
 62
7
  6
BYLAYER
 70
0
 71
3
 72
11
 73
7
 74
0
 42
0.0000001
 43
0.0000001
 44
0.0000000001
 40
0.0
 40
0.0
 40
0.0
 40
0.0
 40
0.2876241978
 40
0.5487941659
 40
0.7852501287
 40
1.0
 40
1.0
 40
1.0
 40
1.0
 10
43.995445279
 20
59.0508234293
 30
0.0
 10
43.8349163832
 20
59.0364830421
 30
0.0
 10
43.5280340888
 20
59.0150661322
 30
0.0
 10
43.0879465812
 20
59.0053446336
 30
0.0
 10
42.68877175
 20
59.0177583313
 30
0.0
 10
42.4367489571
 20
59.0398862745
 30
0.0
 10
42.3172469214
 20
59.0540080982
 30
0.0
  0
SPLINE
  5
313
100
AcDbEntity
  8
0
100
AcDbSpline
 62
7
  6
BYLAYER
 70
0
 71
3
 72
9
 73
5
 74
0
 42
0.0000001
 43
0.0000001
 44
0.0000000001
 40
0.0
 40
0.0
 40
0.0
 40
0.0
 40
0.5043283783
 40
1.0
 40
1.0
 40
1.0
 40
1.0
 10
42.8936915097
 20
57.7465205142
 30
0.0
 10
42.957336204
 20
57.8184033905
 30
0.0
 10
43.0933021123
 20
57.9526355099
 30
0.0
 10
43.2471104376
 20
58.0660957641
 30
0.0
 10
43.3269455244
 20
58.1163990878
 30
0.0
  0
SPLINE
  5
314
100
AcDbEntity
  8
0
100
AcDbSpline
 62
7
  6
BYLAYER
 70
0
 71
3
 72
19
 73
15
 74
0
 42
0.0000001
 43
0.0000001
 44
0.0000000001
 40
0.0
 40
0.0
 40
0.0
 40
0.0
 40
0.0500743528
 40
0.1004631878
 40
0.1516195407
 40
0.2039624102
 40
0.2578620412
 40
0.3136295522
 40
0.3715135898
 40
0.4316979502
 40
0.5593224358
 40
0.6969457631
 40
0.844165282
 40
1.0
 40
1.0
 40
1.0
 40
1.0
 10
43.3269455244
 20
58.1163990878
 30
0.0
 10
43.3916646853
 20
58.1571780115
 30
0.0
 10
43.5265020754
 20
58.2313622719
 30
0.0
 10
43.74169804
 20
58.3183869053
 30
0.0
 10
43.9688611243
 20
58.3808678549
 30
0.0
 10
44.2068224556
 20
58.4185030233
 30
0.0
 10
44.4544224095
 20
58.431186335
 30
0.0
 10
44.7104724935
 20
58.4189154848
 30
0.0
 10
44.9737808293
 20
58.3817996396
 30
0.0
 10
45.3399938081
 20
58.2978542529
 30
0.0
 10
45.8096170743
 20
58.1288258331
 30
0.0
 10
46.3700018717
 20
57.837377988
 30
0.0
 10
46.9283615263
 20
57.4589921491
 30
0.0
 10
47.2836593735
 20
57.1608695819
 30
0.0
 10
47.458919924
 20
56.9997634703
 30
0.0
  0
SPLINE
  5
315
100
AcDbEntity
  8
0
100
AcDbSpline
 62
7
  6
BYLAYER
 70
0
 71
3
 72
15
 73
11
 74
0
 42
0.0000001
 43
0.0000001
 44
0.0000000001
 40
0.0
 40
0.0
 40
0.0
 40
0.0
 40
0.1205126336
 40
0.2447961489
 40
0.3716688195
 40
0.4998654005
 40
0.6280796692
 40
0.7550040106
 40
0.879372354
 40
1.0
 40
1.0
 40
1.0
 40
1.0
 10
47.458919924
 20
56.9997634703
 30
0.0
 10
47.6246134453
 20
56.847451733
 30
0.0
 10
47.9480554239
 20
56.5235148636
 30
0.0
 10
48.3990386916
 20
55.9950541039
 30
0.0
 10
48.8180600914
 20
55.4230039399
 30
0.0
 10
49.1987135253
 20
54.8160924759
 30
0.0
 10
49.5352278912
 20
54.1835305547
 30
0.0
 10
49.8224947377
 20
53.5349125637
 30
0.0
 10
50.0561353551
 20
52.8801451957
 30
0.0
 10
50.1759880811
 20
52.4379629909
 30
0.0
 10
50.2255871543
 20
52.2182134308
 30
0.0
  0
SPLINE
  5
316
100
AcDbEntity
  8
0
100
AcDbSpline
 62
7
  6
BYLAYER
 70
0
 71
3
 72
10
 73
6
 74
0
 42
0.0000001
 43
0.0000001
 44
0.0000000001
 40
0.0
 40
0.0
 40
0.0
 40
0.0
 40
0.5151133832
 40
0.7616851521
 40
1.0
 40
1.0
 40
1.0
 40
1.0
 10
50.2255871543
 20
52.2182134308
 30
0.0
 10
50.281271229
 20
51.9715041652
 30
0.0
 10
50.3462331742
 20
51.6022816046
 30
0.0
 10
50.3906800203
 20
51.1131221311
 30
0.0
 10
50.3983224703
 20
50.8749858135
 30
0.0
 10
50.3983224703
 20
50.7579756816
 30
0.0
  0
SPLINE
  5
317
100
AcDbEntity
  8
0
100
AcDbSpline
 62
7
  6
BYLAYER
 70
0
 71
3
 72
11
 73
7
 74
0
 42
0.0000001
 43
0.0000001
 44
0.0000000001
 40
0.0
 40
0.0
 40
0.0
 40
0.0
 40
0.2372739408
 40
0.4823033129
 40
0.7362930756
 40
1.0
 40
1.0
 40
1.0
 40
1.0
 10
51.2034861052
 20
47.9994748957
 30
0.0
 10
51.1542594228
 20
48.1910546
 30
0.0
 10
51.0649176624
 20
48.5833395423
 30
0.0
 10
50.9652536473
 20
49.1894129438
 30
0.0
 10
50.9032292474
 20
49.8226813717
 30
0.0
 10
50.8897637292
 20
50.254409484
 30
0.0
 10
50.8897637292
 20
50.4742483572
 30
0.0
  0
SPLINE
  5
318
100
AcDbEntity
  8
0
100
AcDbSpline
 62
7
  6
BYLAYER
 70
0
 71
3
 72
9
 73
5
 74
0
 42
0.0000001
 43
0.0000001
 44
0.0000000001
 40
0.0
 40
0.0
 40
0.0
 40
0.0
 40
0.5037145681
 40
1.0
 40
1.0
 40
1.0
 40
1.0
 10
43.8414899214
 20
57.7938537109
 30
0.0
 10
43.7815295287
 20
57.7818825598
 30
0.0
 10
43.6635179204
 20
57.7526056043
 30
0.0
 10
43.5488674606
 20
57.712069555
 30
0.0
 10
43.4931382116
 20
57.6891928539
 30
0.0
  0
SPLINE
  5
319
100
AcDbEntity
  8
0
100
AcDbSpline
 62
7
  6
BYLAYER
 70
0
 71
3
 72
11
 73
7
 74
0
 42
0.0000001
 43
0.0000001
 44
0.0000000001
 40
0.0
 40
0.0
 40
0.0
 40
0.0
 40
0.2598711419
 40
0.514076029
 40
0.761200212
 40
1.0
 40
1.0
 40
1.0
 40
1.0
 10
36.3916559753
 20
55.5373604705
 30
0.0
 10
36.3382541407
 20
55.278857574
 30
0.0
 10
36.2410021057
 20
54.7656890922
 30
0.0
 10
36.1286430423
 20
54.0004393874
 30
0.0
 10
36.0574963979
 20
53.251669692
 30
0.0
 10
36.0405066046
 20
52.7579831232
 30
0.0
 10
36.0405066046
 20
52.515424935
 30
0.0
  0
SPLINE
  5
31A
100
AcDbEntity
  8
0
100
AcDbSpline
 62
7
  6
BYLAYER
 70
0
 71
3
 72
11
 73
7
 74
0
 42
0.0000001
 43
0.0000001
 44
0.0000000001
 40
0.0
 40
0.0
 40
0.0
 40
0.0
 40
0.2128417143
 40
0.4483100178
 40
0.7099792858
 40
1.0
 40
1.0
 40
1.0
 40
1.0
 10
41.1715816203
 20
43.9527036963
 30
0.0
 10
41.2958345461
 20
43.9362097892
 30
0.0
 10
41.5587171768
 20
43.9098305242
 30
0.0
 10
41.9767302399
 20
43.8932646083
 30
0.0
 10
42.4404436504
 20
43.9013990544
 30
0.0
 10
42.7647114649
 20
43.9236545588
 30
0.0
 10
42.9348277699
 20
43.9388514304
 30
0.0
  0
SPLINE
  5
31B
100
AcDbEntity
  8
0
100
AcDbSpline
 62
7
  6
BYLAYER
 70
0
 71
3
 72
11
 73
7
 74
0
 42
0.0000001
 43
0.0000001
 44
0.0000000001
 40
0.0
 40
0.0
 40
0.0
 40
0.0
 40
0.2714006591
 40
0.5302668125
 40
0.7739155656
 40
1.0
 40
1.0
 40
1.0
 40
1.0
 10
38.8613873197
 20
57.0587785368
 30
0.0
 10
39.0684217062
 20
57.1004900591
 30
0.0
 10
39.4735862201
 20
57.1787876592
 30
0.0
 10
40.0671765308
 20
57.2807845941
 30
0.0
 10
40.6283836077
 20
57.361949552
 30
0.0
 10
40.9917940622
 20
57.4021915336
 30
0.0
 10
41.1670272151
 20
57.4178452464
 30
0.0
  0
SPLINE
  5
31C
100
AcDbEntity
  8
0
100
AcDbSpline
 62
7
  6
BYLAYER
 70
0
 71
3
 72
11
 73
7
 74
0
 42
0.0000001
 43
0.0000001
 44
0.0000000001
 40
0.0
 40
0.0
 40
0.0
 40
0.0
 40
0.2876242009
 40
0.5487941664
 40
0.7852501274
 40
1.0
 40
1.0
 40
1.0
 40
1.0
 10
41.1670272151
 20
57.4178452464
 30
0.0
 10
41.3275561097
 20
57.4321856332
 30
0.0
 10
41.6344383987
 20
57.4536025457
 30
0.0
 10
42.0745258979
 20
57.4633240389
 30
0.0
 10
42.47370072
 20
57.4509103377
 30
0.0
 10
42.7257235081
 20
57.4287823956
 30
0.0
 10
42.8452255424
 20
57.4146605721
 30
0.0
  0
SPLINE
  5
31D
100
AcDbEntity
  8
0
100
AcDbSpline
 62
7
  6
BYLAYER
 70
0
 71
3
 72
11
 73
7
 74
0
 42
0.0000001
 43
0.0000001
 44
0.0000000001
 40
0.0
 40
0.0
 40
0.0
 40
0.0
 40
0.2517028591
 40
0.5026260331
 40
0.7522561493
 40
1.0
 40
1.0
 40
1.0
 40
1.0
 10
43.2976983575
 20
57.1918648629
 30
0.0
 10
43.5236789007
 20
57.0087994608
 30
0.0
 10
43.9680476495
 20
56.6345869171
 30
0.0
 10
44.606698551
 20
56.0444724791
 30
0.0
 10
45.2092348242
 20
55.4237487426
 30
0.0
 10
45.583896404
 20
54.9873858794
 30
0.0
 10
45.7632404286
 20
54.7642803254
 30
0.0
  0
SPLINE
  5
31E
100
AcDbEntity
  8
0
100
AcDbSpline
 62
7
  6
BYLAYER
 70
0
 71
3
 72
11
 73
7
 74
0
 42
0.0000001
 43
0.0000001
 44
0.0000000001
 40
0.0
 40
0.0
 40
0.0
 40
0.0
 40
0.2542944582
 40
0.5057192507
 40
0.7542222196
 40
1.0
 40
1.0
 40
1.0
 40
1.0
 10
45.7632404286
 20
54.7642803254
 30
0.0
 10
45.9408256724
 20
54.5433637694
 30
0.0
 10
46.2799989687
 20
54.0925552414
 30
0.0
 10
46.7419966877
 20
53.3895922636
 30
0.0
 10
47.1571483897
 20
52.6690297321
 30
0.0
 10
47.4074518178
 20
52.1779663312
 30
0.0
 10
47.5264865782
 20
51.9312275142
 30
0.0
  0
SPLINE
  5
31F
100
AcDbEntity
  8
0
100
AcDbSpline
 62
7
  6
BYLAYER
 70
0
 71
3
 72
11
 73
7
 74
0
 42
0.0000001
 43
0.0000001
 44
0.0000000001
 40
0.0
 40
0.0
 40
0.0
 40
0.0
 40
0.2372739408
 40
0.4823033129
 40
0.7362930756
 40
1.0
 40
1.0
 40
1.0
 40
1.0
 10
47.7476260044
 20
51.3160452033
 30
0.0
 10
47.7968526868
 20
51.1244654991
 30
0.0
 10
47.8861944472
 20
50.7321805567
 30
0.0
 10
47.9858584623
 20
50.1261071552
 30
0.0
 10
48.0478828622
 20
49.4928387273
 30
0.0
 10
48.0613483804
 20
49.061110615
 30
0.0
 10
48.0613483804
 20
48.8412717418
 30
0.0
  0
SPLINE
  5
320
100
AcDbEntity
  8
0
100
AcDbSpline
 62
7
  6
BYLAYER
 70
0
 71
3
 72
11
 73
7
 74
0
 42
0.0000001
 43
0.0000001
 44
0.0000000001
 40
0.0
 40
0.0
 40
0.0
 40
0.0
 40
0.225160535
 40
0.4687224518
 40
0.7280068329
 40
1.0
 40
1.0
 40
1.0
 40
1.0
 10
42.9348277699
 20
43.9388514304
 30
0.0
 10
43.12154272
 20
43.955530798
 30
0.0
 10
43.5094704265
 20
43.999027205
 30
0.0
 10
44.1091619692
 20
44.0875648506
 30
0.0
 10
44.7445878698
 20
44.1992057514
 30
0.0
 10
45.178559983
 20
44.2848646096
 30
0.0
 10
45.400369841
 20
44.3304674715
 30
0.0
  0
SPLINE
  5
321
100
AcDbEntity
  8
0
100
AcDbSpline
 62
7
  6
BYLAYER
 70
0
 71
3
 72
11
 73
7
 74
0
 42
0.0000001
 43
0.0000001
 44
0.0000000001
 40
0.0
 40
0.0
 40
0.0
 40
0.0
 40
0.2392509699
 40
0.4864215928
 40
0.7404218192
 40
1.0
 40
1.0
 40
1.0
 40
1.0
 10
48.0613483804
 20
48.8412717418
 30
0.0
 10
48.0613483804
 20
48.6132971172
 30
0.0
 10
48.0463682237
 20
48.1497030486
 30
0.0
 10
47.9832245279
 20
47.446695819
 30
0.0
 10
47.8830051522
 20
46.7285200994
 30
0.0
 10
47.7957042927
 20
46.2468711406
 30
0.0
 10
47.7476260044
 20
46.0042450462
 30
0.0
  0
SPLINE
  5
322
100
AcDbEntity
  8
0
100
AcDbSpline
 62
7
  6
BYLAYER
 70
0
 71
3
 72
11
 73
7
 74
0
 42
0.0000001
 43
0.0000001
 44
0.0000000001
 40
0.0
 40
0.0
 40
0.0
 40
0.0
 40
0.2517029823
 40
0.5026261045
 40
0.7522558749
 40
1.0
 40
1.0
 40
1.0
 40
1.0
 10
45.4003699302
 20
50.7037208223
 30
0.0
 10
45.1743892719
 20
50.8867863263
 30
0.0
 10
44.7300159502
 20
51.2609933526
 30
0.0
 10
44.0913625153
 20
51.8511055363
 30
0.0
 10
43.4888439271
 20
52.4718457329
 30
0.0
 10
43.1141712931
 20
52.9081987776
 30
0.0
 10
42.9348278428
 20
53.1313052144
 30
0.0
  0
SPLINE
  5
323
100
AcDbEntity
  8
0
100
AcDbSpline
 62
7
  6
BYLAYER
 70
0
 71
3
 72
11
 73
7
 74
0
 42
0.0000001
 43
0.0000001
 44
0.0000000001
 40
0.0
 40
0.0
 40
0.0
 40
0.0
 40
0.2392513397
 40
0.486421467
 40
0.7404233412
 40
1.0
 40
1.0
 40
1.0
 40
1.0
 10
45.2329330315
 20
47.2082951263
 30
0.0
 10
45.2329330315
 20
47.4362700725
 30
0.0
 10
45.2479179896
 20
47.8998636338
 30
0.0
 10
45.3110515271
 20
48.6028733564
 30
0.0
 10
45.4112920068
 20
49.3210456141
 30
0.0
 10
45.4985774684
 20
49.8026972151
 30
0.0
 10
45.5466554649
 20
50.045321855
 30
0.0
  0
SPLINE
  5
324
100
AcDbEntity
  8
0
100
AcDbSpline
 62
7
  6
BYLAYER
 70
0
 71
3
 72
16
 73
12
 74
0
 42
0.0000001
 43
0.0000001
 44
0.0000000001
 40
0.0
 40
0.0
 40
0.0
 40
0.0
 40
0.1491232978
 40
0.2932350965
 40
0.4309609541
 40
0.5611954105
 40
0.683190549
 40
0.7966605172
 40
0.85030307
 40
0.9019889225
 40
1.0
 40
1.0
 40
1.0
 40
1.0
 10
42.9348264372
 20
53.1313044937
 30
0.0
 10
42.7634869159
 20
53.3444544534
 30
0.0
 10
42.4100694552
 20
53.7506924898
 30
0.0
 10
41.8428392976
 20
54.302400968
 30
0.0
 10
41.255024501
 20
54.7791231604
 30
0.0
 10
40.6563843977
 20
55.1728034647
 30
0.0
 10
40.0568252127
 20
55.4767491525
 30
0.0
 10
39.5551431934
 20
55.6541192988
 30
0.0
 10
39.1635581224
 20
55.743635836
 30
0.0
 10
38.7942534026
 20
55.7969814957
 30
0.0
 10
38.5176431755
 20
55.8008629909
 30
0.0
 10
38.3386132113
 20
55.7848694135
 30
0.0
  0
SPLINE
  5
325
100
AcDbEntity
  8
0
100
AcDbSpline
 62
7
  6
BYLAYER
 70
0
 71
3
 72
20
 73
16
 74
0
 42
0.0000001
 43
0.0000001
 44
0.0000000001
 40
0.0
 40
0.0
 40
0.0
 40
0.0
 40
0.0583200565
 40
0.1153282914
 40
0.1714029064
 40
0.226999359
 40
0.2825983519
 40
0.3386705234
 40
0.3956661577
 40
0.453999705
 40
0.5759539223
 40
0.6402638412
 40
0.7070129727
 40
0.8482026039
 40
1.0
 40
1.0
 40
1.0
 40
1.0
 10
38.3386132113
 20
55.7848694135
 30
0.0
 10
38.2529980419
 20
55.7772215604
 30
0.0
 10
38.0842996448
 20
55.7537021229
 30
0.0
 10
37.8386950191
 20
55.6925829093
 30
0.0
 10
37.605007731
 20
55.6062264499
 30
0.0
 10
37.3843677316
 20
55.4950610162
 30
0.0
 10
37.1777870109
 20
55.3595488102
 30
0.0
 10
36.9861743548
 20
55.2003709498
 30
0.0
 10
36.8104179072
 20
55.0182053114
 30
0.0
 10
36.5950858009
 20
54.7419616919
 30
0.0
 10
36.4179927083
 20
54.4250302773
 30
0.0
 10
36.2795373645
 20
54.0784881956
 30
0.0
 10
36.1612621952
 20
53.6946098546
 30
0.0
 10
36.0640366192
 20
53.1714958064
 30
0.0
 10
36.0405066046
 20
52.7391542866
 30
0.0
 10
36.0405066046
 20
52.515424935
 30
0.0
  0
SPLINE
  5
326
100
AcDbEntity
  8
0
100
AcDbSpline
 62
7
  6
BYLAYER
 70
0
 71
3
 72
9
 73
5
 74
0
 42
0.0000001
 43
0.0000001
 44
0.0000000001
 40
0.0
 40
0.0
 40
0.0
 40
0.0
 40
0.2447987463
 40
1.0
 40
1.0
 40
1.0
 40
1.0
 10
36.0405066046
 20
52.515424935
 30
0.0
 10
36.0405066046
 20
52.4638417936
 30
0.0
 10
36.0431754752
 20
52.2531302239
 30
0.0
 10
36.0562357033
 20
52.0425788726
 30
0.0
 10
36.0713183361
 20
51.8841618647
 30
0.0
  0
SPLINE
  5
327
100
AcDbEntity
  8
0
100
AcDbSpline
 62
7
  6
BYLAYER
 70
0
 71
3
 72
15
 73
11
 74
0
 42
0.0000001
 43
0.0000001
 44
0.0000000001
 40
0.0
 40
0.0
 40
0.0
 40
0.0
 40
0.1443365137
 40
0.2832258398
 40
0.4164557696
 40
0.5439349169
 40
0.6657147217
 40
0.7820173476
 40
0.8932667098
 40
1.0
 40
1.0
 40
1.0
 40
1.0
 10
40.1053601643
 20
44.8969557843
 30
0.0
 10
40.2248122744
 20
44.8119396921
 30
0.0
 10
40.4643653981
 20
44.6521913501
 30
0.0
 10
40.831455766
 20
44.4412911671
 30
0.0
 10
41.1974316488
 20
44.2648247898
 30
0.0
 10
41.5600049502
 20
44.1239757581
 30
0.0
 10
41.9169006724
 20
44.0196301853
 30
0.0
 10
42.2659537553
 20
43.9525382692
 30
0.0
 10
42.6048795837
 20
43.9232486713
 30
0.0
 10
42.8268368286
 20
43.9292033729
 30
0.0
 10
42.9348264124
 20
43.9388506467
 30
0.0
  0
SPLINE
  5
328
100
AcDbEntity
  8
0
100
AcDbSpline
 62
7
  6
BYLAYER
 70
0
 71
3
 72
20
 73
16
 74
0
 42
0.0000001
 43
0.0000001
 44
0.0000000001
 40
0.0
 40
0.0
 40
0.0
 40
0.0
 40
0.0583200591
 40
0.1153282926
 40
0.1714029076
 40
0.2269993598
 40
0.2825983525
 40
0.3386705242
 40
0.3956661586
 40
0.4539997056
 40
0.5759539228
 40
0.6402638416
 40
0.707012973
 40
0.848202604
 40
1.0
 40
1.0
 40
1.0
 40
1.0
 10
42.9348264124
 20
43.9388506467
 30
0.0
 10
43.0204415903
 20
43.9464984505
 30
0.0
 10
43.1891399975
 20
43.9700178719
 30
0.0
 10
43.4347446065
 20
44.0311371611
 30
0.0
 10
43.6684318888
 20
44.1174936238
 30
0.0
 10
43.8890718985
 20
44.2286590378
 30
0.0
 10
44.0956526213
 20
44.3641712425
 30
0.0
 10
44.2872652751
 20
44.5233491069
 30
0.0
 10
44.4630217237
 20
44.7055147455
 30
0.0
 10
44.6783538326
 20
44.9817583641
 30
0.0
 10
44.8554469256
 20
45.2986897794
 30
0.0
 10
44.9939022702
 20
45.6452318617
 30
0.0
 10
45.1121774403
 20
46.0291102035
 30
0.0
 10
45.2094030168
 20
46.5522242531
 30
0.0
 10
45.2329330315
 20
46.984565774
 30
0.0
 10
45.2329330315
 20
47.2082951263
 30
0.0
  0
SPLINE
  5
329
100
AcDbEntity
  8
0
100
AcDbSpline
 62
7
  6
BYLAYER
 70
0
 71
3
 72
11
 73
7
 74
0
 42
0.0000001
 43
0.0000001
 44
0.0000000001
 40
0.0
 40
0.0
 40
0.0
 40
0.0
 40
0.2714006579
 40
0.5302668124
 40
0.7739155673
 40
1.0
 40
1.0
 40
1.0
 40
1.0
 10
40.6442544574
 20
56.1439369089
 30
0.0
 10
40.4372200721
 20
56.1022253942
 30
0.0
 10
40.0320555633
 20
56.0239277854
 30
0.0
 10
39.4384652559
 20
55.9219308526
 30
0.0
 10
38.8772581833
 20
55.8407658897
 30
0.0
 10
38.5138477314
 20
55.8005239113
 30
0.0
 10
38.3386145813
 20
55.7848701984
 30
0.0
  0
SPLINE
  5
32A
100
AcDbEntity
  8
0
100
AcDbSpline
 62
7
  6
BYLAYER
 70
0
 71
3
 72
15
 73
11
 74
0
 42
0.0000001
 43
0.0000001
 44
0.0000000001
 40
0.0
 40
0.0
 40
0.0
 40
0.0
 40
0.1108410465
 40
0.2280578197
 40
0.3507094003
 40
0.477625969
 40
0.6074737799
 40
0.7388131745
 40
0.8701524765
 40
1.0
 40
1.0
 40
1.0
 40
1.0
 10
45.2329330315
 20
47.2082951263
 30
0.0
 10
45.2329330315
 20
47.4471346464
 30
0.0
 10
45.2043252036
 20
47.9388310125
 30
0.0
 10
45.085377375
 20
48.6861714605
 30
0.0
 10
44.8911773132
 20
49.4533246983
 30
0.0
 10
44.6250187402
 20
50.2272840339
 30
0.0
 10
44.2914009901
 20
50.9950449755
 30
0.0
 10
43.8959512391
 20
51.7436425081
 30
0.0
 10
43.445400183
 20
52.4603626067
 30
0.0
 10
43.1101260807
 20
52.9132333527
 30
0.0
 10
42.9348264372
 20
53.1313044937
 30
0.0
  0
SPLINE
  5
32B
100
AcDbEntity
  8
0
100
AcDbSpline
 62
7
  6
BYLAYER
 70
0
 71
3
 72
11
 73
7
 74
0
 42
0.0000001
 43
0.0000001
 44
0.0000000001
 40
0.0
 40
0.0
 40
0.0
 40
0.0
 40
0.2542941742
 40
0.5057196914
 40
0.7542226096
 40
1.0
 40
1.0
 40
1.0
 40
1.0
 10
42.9348278428
 20
53.1313052144
 30
0.0
 10
42.7572420001
 20
53.3522209267
 30
0.0
 10
42.4180805365
 20
53.8030387847
 30
0.0
 10
41.9560621679
 20
54.5059883403
 30
0.0
 10
41.5409125043
 20
55.2265533036
 30
0.0
 10
41.2906162991
 20
55.7176197173
 30
0.0
 10
41.1715817068
 20
55.9643581695
 30
0.0
  0
SPLINE
  5
32C
100
AcDbEntity
  8
0
100
AcDbSpline
 62
7
  6
BYLAYER
 70
0
 71
3
 72
11
 73
7
 74
0
 42
0.0000001
 43
0.0000001
 44
0.0000000001
 40
0.0
 40
0.0
 40
0.0
 40
0.0
 40
0.2372760266
 40
0.4823032088
 40
0.736293522
 40
1.0
 40
1.0
 40
1.0
 40
1.0
 10
45.5466554649
 20
44.7335216979
 30
0.0
 10
45.4974283687
 20
44.925103031
 30
0.0
 10
45.4081053102
 20
45.3173917252
 30
0.0
 10
45.3084158453
 20
45.9234608739
 30
0.0
 10
45.2464041166
 20
46.5567291028
 30
0.0
 10
45.2329330315
 20
46.9884566899
 30
0.0
 10
45.2329330315
 20
47.2082951263
 30
0.0
  0
SPLINE
  5
32D
100
AcDbEntity
  8
0
100
AcDbSpline
 62
7
  6
BYLAYER
 70
0
 71
3
 72
11
 73
7
 74
0
 42
0.0000001
 43
0.0000001
 44
0.0000000001
 40
0.0
 40
0.0
 40
0.0
 40
0.0
 40
0.2876241978
 40
0.548794166
 40
0.7852501283
 40
1.0
 40
1.0
 40
1.0
 40
1.0
 10
38.3386145813
 20
55.7848701984
 30
0.0
 10
38.1780856855
 20
55.7705298111
 30
0.0
 10
37.871203391
 20
55.7491129006
 30
0.0
 10
37.4311158839
 20
55.7393914046
 30
0.0
 10
37.0319410516
 20
55.7518050936
 30
0.0
 10
36.7799182613
 20
55.773933058
 30
0.0
 10
36.6604162237
 20
55.7880548673
 30
0.0
  0
SPLINE
  5
32E
100
AcDbEntity
  8
0
100
AcDbSpline
 62
7
  6
BYLAYER
 70
0
 71
3
 72
13
 73
9
 74
0
 42
0.0000001
 43
0.0000001
 44
0.0000000001
 40
0.0
 40
0.0
 40
0.0
 40
0.0
 40
0.2893458092
 40
0.5483207927
 40
0.6677471959
 40
0.7817619644
 40
0.8919039069
 40
1.0
 40
1.0
 40
1.0
 40
1.0
 10
8.7816710494
 20
33.8790808733
 30
0.0
 10
8.8080022881
 20
33.8638788694
 30
0.0
 10
8.8603437264
 20
33.8389566555
 30
0.0
 10
8.9292565761
 20
33.8223497212
 30
0.0
 10
8.9811270657
 20
33.8205412836
 30
0.0
 10
9.0171489011
 20
33.8245733511
 30
0.0
 10
9.0509444687
 20
33.8339077289
 30
0.0
 10
9.0718319334
 20
33.843688304
 30
0.0
 10
9.0816679495
 20
33.8493693481
 30
0.0
  0
SPLINE
  5
32F
100
AcDbEntity
  8
0
100
AcDbSpline
 62
7
  6
BYLAYER
 70
0
 71
3
 72
9
 73
5
 74
0
 42
0.0000001
 43
0.0000001
 44
0.0000000001
 40
0.0
 40
0.0
 40
0.0
 40
0.0
 40
0.2437233801
 40
1.0
 40
1.0
 40
1.0
 40
1.0
 10
8.3574052143
 20
34.6139267763
 30
0.0
 10
8.3574052143
 20
34.5725909881
 30
0.0
 10
8.3600935769
 20
34.4029951579
 30
0.0
 10
8.3732156663
 20
34.2336078207
 30
0.0
 10
8.388237003
 20
34.1062249872
 30
0.0
  0
SPLINE
  5
330
100
AcDbEntity
  8
0
100
AcDbSpline
 62
7
  6
BYLAYER
 70
0
 71
3
 72
9
 73
5
 74
0
 42
0.0000001
 43
0.0000001
 44
0.0000000001
 40
0.0
 40
0.0
 40
0.0
 40
0.0
 40
0.242802869
 40
1.0
 40
1.0
 40
1.0
 40
1.0
 10
8.388237003
 20
35.0860278878
 30
0.0
 10
8.3830557053
 20
35.0480725406
 30
0.0
 10
8.3646115218
 20
34.8913616716
 30
0.0
 10
8.3574052143
 20
34.7333908794
 30
0.0
 10
8.3574052143
 20
34.6139267763
 30
0.0
  0
SPLINE
  5
331
100
AcDbEntity
  8
0
100
AcDbSpline
 62
7
  6
BYLAYER
 70
0
 71
3
 72
10
 73
6
 74
0
 42
0.0000001
 43
0.0000001
 44
0.0000000001
 40
0.0
 40
0.0
 40
0.0
 40
0.0
 40
0.2758783979
 40
0.5340358829
 40
1.0
 40
1.0
 40
1.0
 40
1.0
 10
13.8550128788
 20
31.9701200104
 30
0.0
 10
13.8415362285
 20
31.9771160229
 30
0.0
 10
13.8146894502
 20
31.9893141724
 30
0.0
 10
13.762156858
 20
32.0058678017
 30
0.0
 10
13.7216173885
 20
32.0099890595
 30
0.0
 10
13.6960724521
 20
32.0077070933
 30
0.0
  0
SPLINE
  5
332
100
AcDbEntity
  8
0
100
AcDbSpline
 62
7
  6
BYLAYER
 70
0
 71
3
 72
12
 73
8
 74
0
 42
0.0000001
 43
0.0000001
 44
0.0000000001
 40
0.0
 40
0.0
 40
0.0
 40
0.0
 40
0.1107321365
 40
0.2231111773
 40
0.4582798086
 40
0.7155187351
 40
1.0
 40
1.0
 40
1.0
 40
1.0
 10
11.6479651302
 20
35.40567804
 30
0.0
 10
11.6552470136
 20
35.4098824634
 30
0.0
 10
11.669296983
 20
35.4194881107
 30
0.0
 10
11.6948588359
 20
35.4432622628
 30
0.0
 10
11.7212441521
 20
35.481602368
 30
0.0
 10
11.7419931068
 20
35.53730528
 30
0.0
 10
11.748458366
 20
35.5781956497
 30
0.0
 10
11.7501684826
 20
35.5997301004
 30
0.0
  0
SPLINE
  5
333
100
AcDbEntity
  8
0
100
AcDbSpline
 62
7
  6
BYLAYER
 70
0
 71
3
 72
20
 73
16
 74
0
 42
0.0000001
 43
0.0000001
 44
0.0000000001
 40
0.0
 40
0.0
 40
0.0
 40
0.0
 40
0.0623905849
 40
0.128806762
 40
0.2702975723
 40
0.4173613603
 40
0.5616147669
 40
0.6302508569
 40
0.6953778332
 40
0.756360748
 40
0.8128308048
 40
0.8647637883
 40
0.9125655836
 40
0.9571671477
 40
1.0
 40
1.0
 40
1.0
 40
1.0
 10
11.751520708
 20
32.7768132505
 30
0.0
 10
11.751520708
 20
32.7975465595
 30
0.0
 10
11.7487011356
 20
32.8403810848
 30
0.0
 10
11.7329627122
 20
32.9289515797
 30
0.0
 10
11.6949188438
 20
33.0414044921
 30
0.0
 10
11.6261854532
 20
33.168425802
 30
0.0
 10
11.5521425214
 20
33.2632585192
 30
0.0
 10
11.4855066456
 20
33.3274388682
 30
0.0
 10
11.4344493126
 20
33.3674165172
 30
0.0
 10
11.382560813
 20
33.3991574059
 30
0.0
 10
11.3308982077
 20
33.4219885955
 30
0.0
 10
11.2804897578
 20
33.4353885737
 30
0.0
 10
11.2323227806
 20
33.4389240441
 30
0.0
 10
11.187466504
 20
33.432360508
 30
0.0
 10
11.1602961942
 20
33.4210600967
 30
0.0
 10
11.1479679267
 20
33.4139453092
 30
0.0
  0
SPLINE
  5
334
100
AcDbEntity
  8
0
100
AcDbSpline
 62
7
  6
BYLAYER
 70
0
 71
3
 72
12
 73
8
 74
0
 42
0.0000001
 43
0.0000001
 44
0.0000000001
 40
0.0
 40
0.0
 40
0.0
 40
0.0
 40
0.1081588022
 40
0.2183521463
 40
0.4513532897
 40
0.710426048
 40
1.0
 40
1.0
 40
1.0
 40
1.0
 10
11.6479651302
 20
32.54791958
 30
0.0
 10
11.6561624974
 20
32.5526525866
 30
0.0
 10
11.6719234245
 20
32.563652098
 30
0.0
 10
11.700193726
 20
32.5914649261
 30
0.0
 10
11.7281994074
 20
32.6371138451
 30
0.0
 10
11.7476789473
 20
32.7032841748
 30
0.0
 10
11.751520708
 20
32.751470881
 30
0.0
 10
11.751520708
 20
32.7768132505
 30
0.0
  0
SPLINE
  5
335
100
AcDbEntity
  8
0
100
AcDbSpline
 62
7
  6
BYLAYER
 70
0
 71
3
 72
22
 73
18
 74
0
 42
0.0000001
 43
0.0000001
 44
0.0000000001
 40
0.0
 40
0.0
 40
0.0
 40
0.0
 40
0.0428186525
 40
0.0874063919
 40
0.1351938875
 40
0.1871111084
 40
0.2435637162
 40
0.3045271639
 40
0.3696335679
 40
0.4382483887
 40
0.5095559505
 40
0.5825992351
 40
0.7296215911
 40
0.8016160375
 40
0.8712278323
 40
0.9376272973
 40
1.0
 40
1.0
 40
1.0
 40
1.0
 10
9.0816679495
 20
33.8493693481
 30
0.0
 10
9.0964583811
 20
33.8579119425
 30
0.0
 10
9.1245036114
 20
33.8793674625
 30
0.0
 10
9.1582378913
 20
33.9220445677
 30
0.0
 10
9.1834643161
 20
33.9742217091
 30
0.0
 10
9.1997845429
 20
34.0346470668
 30
0.0
 10
9.2070552948
 20
34.1020339079
 30
0.0
 10
9.2052039275
 20
34.1750021667
 30
0.0
 10
9.1942920288
 20
34.2520439475
 30
0.0
 10
9.1745900281
 20
34.3315518684
 30
0.0
 10
9.1464945986
 20
34.4118535187
 30
0.0
 10
9.0985791358
 20
34.5178601334
 30
0.0
 10
9.0372106365
 20
34.6176888938
 30
0.0
 10
8.9646817377
 20
34.7072512251
 30
0.0
 10
8.9066989876
 20
34.7667902686
 30
0.0
 10
8.8460391725
 20
34.8178119879
 30
0.0
 10
8.8032180724
 20
34.8464438758
 30
0.0
 10
8.7816710494
 20
34.8588837738
 30
0.0
  0
SPLINE
  5
336
100
AcDbEntity
  8
0
100
AcDbSpline
 62
7
  6
BYLAYER
 70
0
 71
3
 72
11
 73
7
 74
0
 42
0.0000001
 43
0.0000001
 44
0.0000000001
 40
0.0
 40
0.0
 40
0.0
 40
0.0
 40
0.224337825
 40
0.4643547528
 40
0.7225623719
 40
1.0
 40
1.0
 40
1.0
 40
1.0
 10
9.5176127621
 20
36.5520459601
 30
0.0
 10
9.6271765489
 20
36.5658699568
 30
0.0
 10
9.8573086704
 20
36.5711870231
 30
0.0
 10
10.2103022238
 20
36.5167176368
 30
0.0
 10
10.5757094135
 20
36.4017163188
 30
0.0
 10
10.81541665
 20
36.2900718655
 30
0.0
 10
10.9358574035
 20
36.2256843224
 30
0.0
  0
SPLINE
  5
337
100
AcDbEntity
  8
0
100
AcDbSpline
 62
7
  6
BYLAYER
 70
0
 71
3
 72
17
 73
13
 74
0
 42
0.0000001
 43
0.0000001
 44
0.0000000001
 40
0.0
 40
0.0
 40
0.0
 40
0.0
 40
0.1533973753
 40
0.3005737136
 40
0.439868618
 40
0.57008017
 40
0.690567778
 40
0.801447941
 40
0.8536378948
 40
0.9039125951
 40
0.9525774066
 40
1.0
 40
1.0
 40
1.0
 40
1.0
 10
9.185432548
 20
30.0225251383
 30
0.0
 10
9.3380404613
 20
29.8381511446
 30
0.0
 10
9.6529333548
 20
29.4896028772
 30
0.0
 10
10.1596003692
 20
29.025096269
 30
0.0
 10
10.6826978581
 20
28.6368511061
 30
0.0
 10
11.211699542
 20
28.332896771
 30
0.0
 10
11.7360544668
 20
28.1196427572
 30
0.0
 10
12.1696272185
 20
28.0196747339
 30
0.0
 10
12.5018713832
 20
27.9923559504
 30
0.0
 10
12.7380806765
 20
27.9972344421
 30
0.0
 10
12.9649565704
 20
28.0270294699
 30
0.0
 10
13.1107141253
 20
28.0638931765
 30
0.0
 10
13.1811938238
 20
28.0864166974
 30
0.0
  0
SPLINE
  5
338
100
AcDbEntity
  8
0
100
AcDbSpline
 62
7
  6
BYLAYER
 70
0
 71
3
 72
15
 73
11
 74
0
 42
0.0000001
 43
0.0000001
 44
0.0000000001
 40
0.0
 40
0.0
 40
0.0
 40
0.0
 40
0.1293604277
 40
0.2605108447
 40
0.39184337
 40
0.5218317611
 40
0.6489507169
 40
0.7718025269
 40
0.889149738
 40
1.0
 40
1.0
 40
1.0
 40
1.0
 10
12.3960864367
 20
34.9551626975
 30
0.0
 10
12.5163824044
 20
34.8098265382
 30
0.0
 10
12.7466932709
 20
34.5070533504
 30
0.0
 10
13.0564636245
 20
34.0261771706
 30
0.0
 10
13.3287953368
 20
33.5220681066
 30
0.0
 10
13.558881267
 20
33.0037468331
 30
0.0
 10
13.7426439987
 20
32.4803025117
 30
0.0
 10
13.8768437286
 20
31.9609469248
 30
0.0
 10
13.9590992911
 20
31.454876363
 30
0.0
 10
13.9789216918
 20
31.1218717662
 30
0.0
 10
13.9789218476
 20
30.960204548
 30
0.0
  0
SPLINE
  5
339
100
AcDbEntity
  8
0
100
AcDbSpline
 62
7
  6
BYLAYER
 70
0
 71
3
 72
23
 73
19
 74
0
 42
0.0000001
 43
0.0000001
 44
0.0000000001
 40
0.0
 40
0.0
 40
0.0
 40
0.0
 40
0.0723290824
 40
0.1456172518
 40
0.2192463758
 40
0.2926629793
 40
0.3652876826
 40
0.4365649427
 40
0.5059756954
 40
0.5730445193
 40
0.6373645037
 40
0.6986124764
 40
0.7565698574
 40
0.8111500531
 40
0.8624229493
 40
0.9106433715
 40
0.9562763384
 40
1.0
 40
1.0
 40
1.0
 40
1.0
 10
13.8296492994
 20
36.1404388916
 30
0.0
 10
13.9521834318
 20
35.9923986828
 30
0.0
 10
14.1889819051
 20
35.6860261399
 30
0.0
 10
14.5153050117
 20
35.2030433817
 30
0.0
 10
14.8121358072
 20
34.698015563
 30
0.0
 10
15.0759717275
 20
34.1769736046
 30
0.0
 10
15.3037482377
 20
33.6459659179
 30
0.0
 10
15.4927920026
 20
33.1112203244
 30
0.0
 10
15.6408852523
 20
32.5789887139
 30
0.0
 10
15.7462831377
 20
32.0554784693
 30
0.0
 10
15.8077589398
 20
31.5467862586
 30
0.0
 10
15.8245522883
 20
31.0587992417
 30
0.0
 10
15.7963851666
 20
30.5971413216
 30
0.0
 10
15.7234768368
 20
30.1671074581
 30
0.0
 10
15.6064541093
 20
29.7736512809
 30
0.0
 10
15.4462729228
 20
29.4213687865
 30
0.0
 10
15.2445290388
 20
29.1147063662
 30
0.0
 10
15.0809433117
 20
28.9405750405
 30
0.0
 10
14.993840473
 20
28.8637069344
 30
0.0
  0
SPLINE
  5
33A
100
AcDbEntity
  8
0
100
AcDbSpline
 62
7
  6
BYLAYER
 70
0
 71
3
 72
13
 73
9
 74
0
 42
0.0000001
 43
0.0000001
 44
0.0000000001
 40
0.0
 40
0.0
 40
0.0
 40
0.0
 40
0.1181428928
 40
0.2370014017
 40
0.3572689461
 40
0.4795977713
 40
0.7325427082
 40
1.0
 40
1.0
 40
1.0
 40
1.0
 10
9.7768457356
 20
38.9731941829
 30
0.0
 10
9.7215954331
 20
38.9412971926
 30
0.0
 10
9.6137540739
 20
38.8719550172
 30
0.0
 10
9.4619515037
 20
38.7524534419
 30
0.0
 10
9.3203195209
 20
38.6177340834
 30
0.0
 10
9.1437400829
 20
38.4162517751
 30
0.0
 10
8.9505736766
 20
38.1258147965
 30
0.0
 10
8.8333115144
 20
37.8691569823
 30
0.0
 10
8.7823029783
 20
37.7340387317
 30
0.0
  0
SPLINE
  5
33B
100
AcDbEntity
  8
0
100
AcDbSpline
 62
7
  6
BYLAYER
 70
0
 71
3
 72
15
 73
11
 74
0
 42
0.0000001
 43
0.0000001
 44
0.0000000001
 40
0.0
 40
0.0
 40
0.0
 40
0.0
 40
0.1080124997
 40
0.2180618382
 40
0.3319996243
 40
0.4513571054
 40
0.5772778255
 40
0.7105008922
 40
0.8513943405
 40
1.0
 40
1.0
 40
1.0
 40
1.0
 10
13.6659168403
 20
41.2185370291
 30
0.0
 10
13.7642926648
 20
41.2753311566
 30
0.0
 10
13.9731538542
 20
41.3731532978
 30
0.0
 10
14.3111172752
 20
41.4665925337
 30
0.0
 10
14.6713871911
 20
41.5067697207
 30
0.0
 10
15.0501376653
 20
41.4936023707
 30
0.0
 10
15.4437155779
 20
41.4275587888
 30
0.0
 10
15.8484354678
 20
41.3095590972
 30
0.0
 10
16.2605273423
 20
41.1409197932
 30
0.0
 10
16.5306626228
 20
40.9994720278
 30
0.0
 10
16.6660083799
 20
40.9213308448
 30
0.0
  0
SPLINE
  5
33C
100
AcDbEntity
  8
0
100
AcDbSpline
 62
7
  6
BYLAYER
 70
0
 71
3
 72
17
 73
13
 74
0
 42
0.0000001
 43
0.0000001
 44
0.0000000001
 40
0.0
 40
0.0
 40
0.0
 40
0.0
 40
0.1374571411
 40
0.2766597482
 40
0.414649339
 40
0.5485261159
 40
0.67568151
 40
0.7360867773
 40
0.7940767694
 40
0.8495088204
 40
0.9023107359
 40
1.0
 40
1.0
 40
1.0
 40
1.0
 10
27.1348378052
 20
43.5620648544
 30
0.0
 10
27.307837392
 20
43.3530545612
 30
0.0
 10
27.6330698997
 20
42.9128679968
 30
0.0
 10
28.0495135993
 20
42.2067094352
 30
0.0
 10
28.3882607879
 20
41.4677420448
 30
0.0
 10
28.6385328751
 20
40.7193376435
 30
0.0
 10
28.769123164
 20
40.0966008912
 30
0.0
 10
28.8205333226
 20
39.6143053818
 30
0.0
 10
28.8324449336
 20
39.2710991254
 30
0.0
 10
28.8182215929
 20
38.9428708804
 30
0.0
 10
28.7660174736
 20
38.5395668811
 30
0.0
 10
28.6869735619
 20
38.2502566898
 30
0.0
 10
28.6139903512
 20
38.0717786917
 30
0.0
  0
SPLINE
  5
33D
100
AcDbEntity
  8
0
100
AcDbSpline
 62
7
  6
BYLAYER
 70
0
 71
3
 72
14
 73
10
 74
0
 42
0.0000001
 43
0.0000001
 44
0.0000000001
 40
0.0
 40
0.0
 40
0.0
 40
0.0
 40
0.2120165785
 40
0.3283582356
 40
0.4514128452
 40
0.5807918558
 40
0.7158849287
 40
0.8559631114
 40
1.0
 40
1.0
 40
1.0
 40
1.0
 10
24.4148232263
 20
45.3449902287
 30
0.0
 10
24.6473242481
 20
45.3133038092
 30
0.0
 10
25.0010144289
 20
45.2106299482
 30
0.0
 10
25.4531190555
 20
44.9973918427
 30
0.0
 10
25.804296202
 20
44.7880219553
 30
0.0
 10
26.1524883476
 20
44.5368158902
 30
0.0
 10
26.4939890102
 20
44.2465587452
 30
0.0
 10
26.8247352953
 20
43.9206597132
 30
0.0
 10
27.0331920202
 20
43.6848687047
 30
0.0
 10
27.1348378052
 20
43.5620648544
 30
0.0
  0
SPLINE
  5
33E
100
AcDbEntity
  8
0
100
AcDbSpline
 62
7
  6
BYLAYER
 70
0
 71
3
 72
11
 73
7
 74
0
 42
0.0000001
 43
0.0000001
 44
0.0000000001
 40
0.0
 40
0.0
 40
0.0
 40
0.0
 40
0.2535201432
 40
0.503756268
 40
0.7522480838
 40
1.0
 40
1.0
 40
1.0
 40
1.0
 10
28.2664459383
 20
37.221775034
 30
0.0
 10
28.2098166158
 20
37.0832762737
 30
0.0
 10
28.0779138416
 20
36.8154177308
 30
0.0
 10
27.821484923
 20
36.4506541339
 30
0.0
 10
27.5100002962
 20
36.1360915324
 30
0.0
 10
27.2690076074
 20
35.966415195
 30
0.0
 10
27.1423733784
 20
35.8933033252
 30
0.0
  0
SPLINE
  5
33F
100
AcDbEntity
  8
0
100
AcDbSpline
 62
7
  6
BYLAYER
 70
0
 71
3
 72
11
 73
7
 74
0
 42
0.0000001
 43
0.0000001
 44
0.0000000001
 40
0.0
 40
0.0
 40
0.0
 40
0.0
 40
0.2325810675
 40
0.4780121557
 40
0.7345771936
 40
1.0
 40
1.0
 40
1.0
 40
1.0
 10
10.9384365211
 20
36.2265166578
 30
0.0
 10
11.0689270684
 20
36.1511782134
 30
0.0
 10
11.3286518095
 20
35.9813507705
 30
0.0
 10
11.7007287599
 20
35.6836618805
 30
0.0
 10
12.0609469241
 20
35.3401730355
 30
0.0
 10
12.2864446156
 20
35.0876269975
 30
0.0
 10
12.3960864367
 20
34.9551626975
 30
0.0
  0
SPLINE
  5
340
100
AcDbEntity
  8
0
100
AcDbSpline
 62
7
  6
BYLAYER
 70
0
 71
3
 72
11
 73
7
 74
0
 42
0.0000001
 43
0.0000001
 44
0.0000000001
 40
0.0
 40
0.0
 40
0.0
 40
0.0
 40
0.2535201432
 40
0.503756268
 40
0.7522480838
 40
1.0
 40
1.0
 40
1.0
 40
1.0
 10
23.5049254563
 20
45.4690196592
 30
0.0
 10
23.3566674546
 20
45.4892273739
 30
0.0
 10
23.0587438666
 20
45.5089270322
 30
0.0
 10
22.6146346609
 20
45.4692371687
 30
0.0
 10
22.1864725621
 20
45.3567670831
 30
0.0
 10
21.9190315587
 20
45.2329008437
 30
0.0
 10
21.7923973297
 20
45.1597889739
 30
0.0
  0
SPLINE
  5
341
100
AcDbEntity
  8
0
100
AcDbSpline
 62
7
  6
BYLAYER
 70
0
 71
3
 72
15
 73
11
 74
0
 42
0.0000001
 43
0.0000001
 44
0.0000000001
 40
0.0
 40
0.0
 40
0.0
 40
0.0
 40
0.1474076531
 40
0.287371171
 40
0.4200111988
 40
0.5457549834
 40
0.6653535754
 40
0.7799198632
 40
0.8908958314
 40
1.0
 40
1.0
 40
1.0
 40
1.0
 10
13.9769263286
 20
30.958743684
 30
0.0
 10
13.9736352301
 20
30.8576543657
 30
0.0
 10
13.9591378672
 20
30.6607110557
 30
0.0
 10
13.9114015936
 20
30.3760560946
 30
0.0
 10
13.8385247439
 20
30.1120646364
 30
0.0
 10
13.7410668647
 20
29.8710359783
 30
0.0
 10
13.6196655958
 20
29.6551398612
 30
0.0
 10
13.4752741197
 20
29.4663475264
 30
0.0
 10
13.3090714841
 20
29.3066234592
 30
0.0
 10
13.1842470804
 20
29.220261185
 30
0.0
 10
13.1194129531
 20
29.1828348457
 30
0.0
  0
SPLINE
  5
342
100
AcDbEntity
  8
0
100
AcDbSpline
 62
7
  6
BYLAYER
 70
0
 71
3
 72
15
 73
11
 74
0
 42
0.0000001
 43
0.0000001
 44
0.0000000001
 40
0.0
 40
0.0
 40
0.0
 40
0.0
 40
0.1486055792
 40
0.2894991288
 40
0.4227228625
 40
0.548642728
 40
0.6680003308
 40
0.7819386355
 40
0.8919875705
 40
1.0
 40
1.0
 40
1.0
 40
1.0
 10
20.9085565238
 20
33.5729803842
 30
0.0
 10
20.9085542047
 20
33.4166970865
 30
0.0
 10
20.8959777009
 20
33.1120295113
 30
0.0
 10
20.8359763179
 20
32.6708280762
 30
0.0
 10
20.7358141425
 20
32.2613285716
 30
0.0
 10
20.5962062886
 20
31.8874635905
 30
0.0
 10
20.4182366638
 20
31.5528730833
 30
0.0
 10
20.2033138654
 20
31.2609518216
 30
0.0
 10
19.9533963108
 20
31.0150035162
 30
0.0
 10
19.7642583473
 20
30.8830234636
 30
0.0
 10
19.6658826328
 20
30.8262293997
 30
0.0
  0
SPLINE
  5
343
100
AcDbEntity
  8
0
100
AcDbSpline
 62
7
  6
BYLAYER
 70
0
 71
3
 72
18
 73
14
 74
0
 42
0.0000001
 43
0.0000001
 44
0.0000000001
 40
0.0
 40
0.0
 40
0.0
 40
0.0
 40
0.0473980383
 40
0.0960110821
 40
0.1981976033
 40
0.2524622522
 40
0.3090455539
 40
0.3680542042
 40
0.4295294312
 40
0.5597284101
 40
0.6990934228
 40
0.8464043899
 40
1.0
 40
1.0
 40
1.0
 40
1.0
 10
9.6369196205
 20
38.1559257508
 30
0.0
 10
9.7105378103
 20
38.1803498079
 30
0.0
 10
9.8628997608
 20
38.2205789539
 30
0.0
 10
10.1846355194
 20
38.265974425
 30
0.0
 10
10.5229679294
 20
38.2559000659
 30
0.0
 10
10.866774167
 20
38.1965469758
 30
0.0
 10
11.1358388705
 20
38.1253121169
 30
0.0
 10
11.4092834137
 20
38.0285978661
 30
0.0
 10
11.7850829678
 20
37.8632957855
 30
0.0
 10
12.2568667467
 20
37.5937202018
 30
0.0
 10
12.8063395442
 20
37.1871842047
 30
0.0
 10
13.3386599779
 20
36.6999659147
 30
0.0
 10
13.6693827231
 20
36.3340657362
 30
0.0
 10
13.8296492994
 20
36.1404388916
 30
0.0
  0
SPLINE
  5
344
100
AcDbEntity
  8
0
100
AcDbSpline
 62
7
  6
BYLAYER
 70
0
 71
3
 72
23
 73
19
 74
0
 42
0.0000001
 43
0.0000001
 44
0.0000000001
 40
0.0
 40
0.0
 40
0.0
 40
0.0
 40
0.0437756803
 40
0.0895061812
 40
0.1378466674
 40
0.1892422253
 40
0.2439322682
 40
0.3019759172
 40
0.3632800631
 40
0.4276232946
 40
0.494682185
 40
0.5640517807
 40
0.6352607872
 40
0.7077952089
 40
0.7811049508
 40
0.8546176239
 40
0.9277870831
 40
1.0
 40
1.0
 40
1.0
 40
1.0
 10
8.0507993176
 20
36.9725727288
 30
0.0
 10
7.9686838377
 20
36.8979109729
 30
0.0
 10
7.8146930647
 20
36.7293235005
 30
0.0
 10
7.6253486481
 20
36.4338754463
 30
0.0
 10
7.4755051555
 20
36.0954645345
 30
0.0
 10
7.3666413743
 20
35.7182975579
 30
0.0
 10
7.2996389892
 20
35.3067276114
 30
0.0
 10
7.2750672668
 20
34.865447538
 30
0.0
 10
7.2931102277
 20
34.3994691148
 30
0.0
 10
7.3534872715
 20
33.9141104459
 30
0.0
 10
7.4554608023
 20
33.4149338583
 30
0.0
 10
7.5978547953
 20
32.9076941224
 30
0.0
 10
7.7790131838
 20
32.3982484612
 30
0.0
 10
7.9968311662
 20
31.8924935043
 30
0.0
 10
8.2487753838
 20
31.3962999834
 30
0.0
 10
8.5319541273
 20
30.9153704053
 30
0.0
 10
8.8430579328
 20
30.4553935534
 30
0.0
 10
9.068696589
 20
30.1635602556
 30
0.0
 10
9.185432548
 20
30.0225251383
 30
0.0
  0
SPLINE
  5
345
100
AcDbEntity
  8
0
100
AcDbSpline
 62
7
  6
BYLAYER
 70
0
 71
3
 72
12
 73
8
 74
0
 42
0.0000001
 43
0.0000001
 44
0.0000000001
 40
0.0
 40
0.0
 40
0.0
 40
0.0
 40
0.2676335448
 40
0.5206648913
 40
0.7630255595
 40
0.8818728697
 40
1.0
 40
1.0
 40
1.0
 40
1.0
 10
14.1996180346
 20
28.3402924108
 30
0.0
 10
14.3427484458
 20
28.3164866245
 30
0.0
 10
14.6249270726
 20
28.2890516863
 30
0.0
 10
15.0396211982
 20
28.3145574644
 30
0.0
 10
15.3652769685
 20
28.3934527645
 30
0.0
 10
15.6069109341
 20
28.4899432411
 30
0.0
 10
15.7213485576
 20
28.548866786
 30
0.0
 10
15.7768115281
 20
28.5808865534
 30
0.0
  0
SPLINE
  5
346
100
AcDbEntity
  8
0
100
AcDbSpline
 62
7
  6
BYLAYER
 70
0
 71
3
 72
11
 73
7
 74
0
 42
0.0000001
 43
0.0000001
 44
0.0000000001
 40
0.0
 40
0.0
 40
0.0
 40
0.0
 40
0.2654149537
 40
0.5219907889
 40
0.7674172958
 40
1.0
 40
1.0
 40
1.0
 40
1.0
 10
18.9392017962
 20
39.0741676452
 30
0.0
 10
18.8027908923
 20
39.2389731431
 30
0.0
 10
18.5222253403
 20
39.5531868287
 30
0.0
 10
18.0740523014
 20
39.9805555424
 30
0.0
 10
17.6111117057
 20
40.3509370165
 30
0.0
 10
17.2879707106
 20
40.5622378843
 30
0.0
 10
17.1256141044
 20
40.6559722662
 30
0.0
  0
SPLINE
  5
347
100
AcDbEntity
  8
0
100
AcDbSpline
 62
7
  6
BYLAYER
 70
0
 71
3
 72
21
 73
17
 74
0
 42
0.0000001
 43
0.0000001
 44
0.0000000001
 40
0.0
 40
0.0
 40
0.0
 40
0.0
 40
0.0474935797
 40
0.095591123
 40
0.1448593944
 40
0.1957967394
 40
0.2488150687
 40
0.304227915
 40
0.3622549001
 40
0.4230212623
 40
0.4865734621
 40
0.5528824863
 40
0.6218598027
 40
0.6933525713
 40
0.8430286427
 40
1.0
 40
1.0
 40
1.0
 40
1.0
 10
9.6422246403
 20
38.1449218478
 30
0.0
 10
9.7139530252
 20
38.1863391069
 30
0.0
 10
9.864374267
 20
38.2596702664
 30
0.0
 10
10.1052286472
 20
38.3383135245
 30
0.0
 10
10.3602809039
 20
38.3854242458
 30
0.0
 10
10.6277015193
 20
38.4008245032
 30
0.0
 10
10.9057298237
 20
38.384491562
 30
0.0
 10
11.1925734407
 20
38.3366999485
 30
0.0
 10
11.4864056545
 20
38.2577845404
 30
0.0
 10
11.7853977584
 20
38.1483721948
 30
0.0
 10
12.0876510273
 20
38.0091427443
 30
0.0
 10
12.3912906011
 20
37.8410606378
 30
0.0
 10
12.6943687334
 20
37.6451576516
 30
0.0
 10
13.1013712375
 20
37.3440281192
 30
0.0
 10
13.5953708437
 20
36.9049416535
 30
0.0
 10
13.9563444184
 20
36.5089923836
 30
0.0
 10
14.1308957031
 20
36.2981073989
 30
0.0
  0
SPLINE
  5
348
100
AcDbEntity
  8
0
100
AcDbSpline
 62
7
  6
BYLAYER
 70
0
 71
3
 72
21
 73
17
 74
0
 42
0.0000001
 43
0.0000001
 44
0.0000000001
 40
0.0
 40
0.0
 40
0.0
 40
0.0
 40
0.1569727317
 40
0.3066465975
 40
0.3781409392
 40
0.4471173576
 40
0.5134265954
 40
0.5769782325
 40
0.6377454848
 40
0.6957716072
 40
0.7511852366
 40
0.8042028575
 40
0.8551408021
 40
0.9044086684
 40
0.9525063912
 40
1.0
 40
1.0
 40
1.0
 40
1.0
 10
14.8108673968
 20
36.9020038045
 30
0.0
 10
14.6151071975
 20
37.1385124427
 30
0.0
 10
14.2102804672
 20
37.5825696798
 30
0.0
 10
13.6562534129
 20
38.0749940555
 30
0.0
 10
13.1998135246
 20
38.412720824
 30
0.0
 10
12.8599034687
 20
38.6324134151
 30
0.0
 10
12.5193826684
 20
38.8209299131
 30
0.0
 10
12.1803979867
 20
38.9770567848
 30
0.0
 10
11.8450888845
 20
39.0997862397
 30
0.0
 10
11.5155489705
 20
39.1882616933
 30
0.0
 10
11.1938612299
 20
39.2418913377
 30
0.0
 10
10.8820511157
 20
39.2601742946
 30
0.0
 10
10.5821383221
 20
39.2429396345
 30
0.0
 10
10.2961050277
 20
39.1900682956
 30
0.0
 10
10.0259755937
 20
39.1019075438
 30
0.0
 10
9.8572923331
 20
39.0196374461
 30
0.0
 10
9.7768457356
 20
38.9731941829
 30
0.0
  0
SPLINE
  5
349
100
AcDbEntity
  8
0
100
AcDbSpline
 62
7
  6
BYLAYER
 70
0
 71
3
 72
21
 73
17
 74
0
 42
0.0000001
 43
0.0000001
 44
0.0000000001
 40
0.0
 40
0.0
 40
0.0
 40
0.0
 40
0.1555179589
 40
0.3041914619
 40
0.3753980552
 40
0.4442487724
 40
0.5105947209
 40
0.5743410019
 40
0.635443017
 40
0.6939186481
 40
0.7498525508
 40
0.8034081926
 40
0.8548303124
 40
0.9044496906
 40
0.9526786525
 40
1.0
 40
1.0
 40
1.0
 40
1.0
 10
13.688228532
 20
36.0587900608
 30
0.0
 10
13.5190449924
 20
36.263189978
 30
0.0
 10
13.1695061277
 20
36.6480473109
 30
0.0
 10
12.6925844671
 20
37.077486855
 30
0.0
 10
12.2996238013
 20
37.3749681115
 30
0.0
 10
12.0064679224
 20
37.570499005
 30
0.0
 10
11.7123657777
 20
37.7404453601
 30
0.0
 10
11.4190539646
 20
37.8838386384
 30
0.0
 10
11.1282165938
 20
37.9997832071
 30
0.0
 10
10.8415547213
 20
38.0876082352
 30
0.0
 10
10.5607160428
 20
38.1467156935
 30
0.0
 10
10.2873409019
 20
38.1767290094
 30
0.0
 10
10.0230364449
 20
38.1773575359
 30
0.0
 10
9.769377854
 20
38.148517522
 30
0.0
 10
9.527994266
 20
38.090283057
 30
0.0
 10
9.3752756964
 20
38.0316693233
 30
0.0
 10
9.3020067751
 20
37.9977568133
 30
0.0
  0
SPLINE
  5
34A
100
AcDbEntity
  8
0
100
AcDbSpline
 62
7
  6
BYLAYER
 70
0
 71
3
 72
18
 73
14
 74
0
 42
0.0000001
 43
0.0000001
 44
0.0000000001
 40
0.0
 40
0.0
 40
0.0
 40
0.0
 40
0.0976834141
 40
0.1504819893
 40
0.2059103822
 40
0.2638964364
 40
0.3242974454
 40
0.3869154265
 40
0.4515048727
 40
0.5853737736
 40
0.7233559347
 40
0.862550298
 40
1.0
 40
1.0
 40
1.0
 40
1.0
 10
28.2664446697
 20
37.2217763259
 30
0.0
 10
28.3492022624
 20
37.4241560856
 30
0.0
 10
28.4388315993
 20
37.7522109331
 30
0.0
 10
28.498026075
 20
38.2095240012
 30
0.0
 10
28.5141553382
 20
38.581708711
 30
0.0
 10
28.5006449961
 20
38.9708659213
 30
0.0
 10
28.457683488
 20
39.3740533181
 30
0.0
 10
28.3856171776
 20
39.7880482593
 30
0.0
 10
28.2498574417
 20
40.3567496342
 30
0.0
 10
28.0104628557
 20
41.0725752777
 30
0.0
 10
27.6263847708
 20
41.9104261588
 30
0.0
 10
27.1541593853
 20
42.7111803999
 30
0.0
 10
26.7853725567
 20
43.210313839
 30
0.0
 10
26.5892035844
 20
43.4473163382
 30
0.0
  0
SPLINE
  5
34B
100
AcDbEntity
  8
0
100
AcDbSpline
 62
7
  6
BYLAYER
 70
0
 71
3
 72
23
 73
19
 74
0
 42
0.0000001
 43
0.0000001
 44
0.0000000001
 40
0.0
 40
0.0
 40
0.0
 40
0.0
 40
0.0808867415
 40
0.1600675054
 40
0.2371140509
 40
0.3117280869
 40
0.3836520291
 40
0.4526649233
 40
0.5186223693
 40
0.5814606976
 40
0.6412116995
 40
0.6980099568
 40
0.7521169851
 40
0.8039214582
 40
0.8539425555
 40
0.9028140547
 40
0.9512505792
 40
1.0
 40
1.0
 40
1.0
 40
1.0
 10
12.6912847622
 20
35.4086859978
 30
0.0
 10
12.5979056292
 20
35.5215024521
 30
0.0
 10
12.4071241413
 20
35.7398820583
 30
0.0
 10
12.10699924
 20
36.0471575584
 30
0.0
 10
11.7977712983
 20
36.3287099306
 30
0.0
 10
11.481909891
 20
36.5823343769
 30
0.0
 10
11.161805925
 20
36.8061222572
 30
0.0
 10
10.8398798165
 20
36.9983300137
 30
0.0
 10
10.5185975315
 20
37.1574851881
 30
0.0
 10
10.200362348
 20
37.2822965564
 30
0.0
 10
9.8875918166
 20
37.371818197
 30
0.0
 10
9.5826164418
 20
37.425201177
 30
0.0
 10
9.2877666601
 20
37.441967235
 30
0.0
 10
9.0053237177
 20
37.4217628018
 30
0.0
 10
8.7375825498
 20
37.3645844847
 30
0.0
 10
8.4868029501
 20
37.2707220566
 30
0.0
 10
8.2552750223
 20
37.1409051875
 30
0.0
 10
8.1161039998
 20
37.031949624
 30
0.0
 10
8.0507993176
 20
36.9725727288
 30
0.0
  0
SPLINE
  5
34C
100
AcDbEntity
  8
0
100
AcDbSpline
 62
7
  6
BYLAYER
 70
0
 71
3
 72
21
 73
17
 74
0
 42
0.0000001
 43
0.0000001
 44
0.0000000001
 40
0.0
 40
0.0
 40
0.0
 40
0.0
 40
0.0474935797
 40
0.095591123
 40
0.1448593944
 40
0.1957967394
 40
0.2488150687
 40
0.304227915
 40
0.3622549001
 40
0.4230212623
 40
0.4865734621
 40
0.5528824863
 40
0.6218598027
 40
0.6933525713
 40
0.8430286427
 40
1.0
 40
1.0
 40
1.0
 40
1.0
 10
21.7923988567
 20
45.1597863292
 30
0.0
 10
21.8641272416
 20
45.2012035883
 30
0.0
 10
22.0145484834
 20
45.2745347478
 30
0.0
 10
22.2554028636
 20
45.3531780059
 30
0.0
 10
22.5104551203
 20
45.4002887273
 30
0.0
 10
22.7778757357
 20
45.4156889846
 30
0.0
 10
23.0559040401
 20
45.3993560435
 30
0.0
 10
23.3427476571
 20
45.35156443
 30
0.0
 10
23.6365798709
 20
45.2726490218
 30
0.0
 10
23.9355719748
 20
45.1632366763
 30
0.0
 10
24.2378252437
 20
45.0240072257
 30
0.0
 10
24.5414648175
 20
44.8559251192
 30
0.0
 10
24.8445429498
 20
44.660022133
 30
0.0
 10
25.251545454
 20
44.3588926007
 30
0.0
 10
25.7455450601
 20
43.9198061349
 30
0.0
 10
26.1065186348
 20
43.523856865
 30
0.0
 10
26.2810699195
 20
43.3129718803
 30
0.0
  0
SPLINE
  5
34D
100
AcDbEntity
  8
0
100
AcDbSpline
 62
7
  6
BYLAYER
 70
0
 71
3
 72
25
 73
21
 74
0
 42
0.0000001
 43
0.0000001
 44
0.0000000001
 40
0.0
 40
0.0
 40
0.0
 40
0.0
 40
0.0738306431
 40
0.1486570337
 40
0.2237742122
 40
0.2985348691
 40
0.3722690156
 40
0.4443424947
 40
0.514169968
 40
0.5812324627
 40
0.6451029805
 40
0.7054734357
 40
0.7621838969
 40
0.8152570973
 40
0.8649373173
 40
0.9117230465
 40
0.9342834414
 40
0.956427469
 40
0.9782861549
 40
1.0
 40
1.0
 40
1.0
 40
1.0
 10
14.1308957031
 20
36.2981073989
 30
0.0
 10
14.2604707357
 20
36.1415606923
 30
0.0
 10
14.5102097077
 20
35.8169533181
 30
0.0
 10
14.8520196237
 20
35.3040442285
 30
0.0
 10
15.1600575986
 20
34.7671849942
 30
0.0
 10
15.4302171346
 20
34.2136478204
 30
0.0
 10
15.658892834
 20
33.6507321726
 30
0.0
 10
15.8430485426
 20
33.0859523662
 30
0.0
 10
15.980241096
 20
32.5268040816
 30
0.0
 10
16.0686253709
 20
31.9806819043
 30
0.0
 10
16.1069956804
 20
31.4547818028
 30
0.0
 10
16.094787059
 20
30.9559888295
 30
0.0
 10
16.0320263398
 20
30.4908024137
 30
0.0
 10
15.9192352947
 20
30.0652590994
 30
0.0
 10
15.7575507372
 20
29.6850712096
 30
0.0
 10
15.5810431332
 20
29.4069122225
 30
0.0
 10
15.4178799159
 20
29.21467724
 30
0.0
 10
15.2864185888
 20
29.0866402226
 30
0.0
 10
15.1448653817
 20
28.9735803723
 30
0.0
 10
15.0439553294
 20
28.9083273118
 30
0.0
 10
14.992197635
 20
28.8784414884
 30
0.0
  0
SPLINE
  5
34E
100
AcDbEntity
  8
0
100
AcDbSpline
 62
7
  6
BYLAYER
 70
0
 71
3
 72
21
 73
17
 74
0
 42
0.0000001
 43
0.0000001
 44
0.0000000001
 40
0.0
 40
0.0
 40
0.0
 40
0.0
 40
0.0474937594
 40
0.0955911404
 40
0.1448595599
 40
0.1957967317
 40
0.2488152288
 40
0.3042279469
 40
0.3622551225
 40
0.4230210505
 40
0.4865734884
 40
0.5528829295
 40
0.6218605143
 40
0.6933512284
 40
0.8430310187
 40
1.0
 40
1.0
 40
1.0
 40
1.0
 10
13.1194129531
 20
29.1828348457
 30
0.0
 10
13.0637692458
 20
29.1507137952
 30
0.0
 10
12.947093796
 20
29.0938191003
 30
0.0
 10
12.7602594263
 20
29.0328221817
 30
0.0
 10
12.5624165626
 20
28.9962752031
 30
0.0
 10
12.3549776528
 20
28.9843308883
 30
0.0
 10
12.1393111469
 20
28.996999519
 30
0.0
 10
11.9168060242
 20
29.0340720274
 30
0.0
 10
11.6888808513
 20
29.0952871323
 30
0.0
 10
11.4569518514
 20
29.1801567632
 30
0.0
 10
11.2224940251
 20
29.2881584902
 30
0.0
 10
10.9869593712
 20
29.4185403424
 30
0.0
 10
10.7518642609
 20
29.5705032608
 30
0.0
 10
10.4361462275
 20
29.8040861034
 30
0.0
 10
10.0529555927
 20
30.1446907113
 30
0.0
 10
9.7729449302
 20
30.4518279841
 30
0.0
 10
9.6375474182
 20
30.6154091476
 30
0.0
  0
SPLINE
  5
34F
100
AcDbEntity
  8
0
100
AcDbSpline
 62
7
  6
BYLAYER
 70
0
 71
3
 72
15
 73
11
 74
0
 42
0.0000001
 43
0.0000001
 44
0.0000000001
 40
0.0
 40
0.0
 40
0.0
 40
0.0
 40
0.1293672771
 40
0.2605099173
 40
0.3918460899
 40
0.52183356
 40
0.6489544628
 40
0.7718007184
 40
0.8891544134
 40
1.0
 40
1.0
 40
1.0
 40
1.0
 10
9.4806308735
 20
30.4760484386
 30
0.0
 10
9.3603275743
 20
30.6213934554
 30
0.0
 10
9.1300119947
 20
30.924165419
 30
0.0
 10
8.8202450317
 20
31.4050539126
 30
0.0
 10
8.5479107116
 20
31.9091582284
 30
0.0
 10
8.3178253979
 20
32.4274926882
 30
0.0
 10
8.1340734025
 20
32.9509379682
 30
0.0
 10
7.999860334
 20
33.470298895
 30
0.0
 10
7.9176132935
 20
33.9763696875
 30
0.0
 10
7.897786837
 20
34.3093791205
 30
0.0
 10
7.897786837
 20
34.4710408125
 30
0.0
  0
SPLINE
  5
350
100
AcDbEntity
  8
0
100
AcDbSpline
 62
7
  6
BYLAYER
 70
0
 71
3
 72
14
 73
10
 74
0
 42
0.0000001
 43
0.0000001
 44
0.0000000001
 40
0.0
 40
0.0
 40
0.0
 40
0.0
 40
0.1474636402
 40
0.2877988011
 40
0.5470134079
 40
0.6670951619
 40
0.7817702366
 40
0.8922407095
 40
1.0
 40
1.0
 40
1.0
 40
1.0
 10
13.9789218476
 20
30.960204548
 30
0.0
 10
13.9789219485
 20
30.8554650656
 30
0.0
 10
13.971021173
 20
30.6508744032
 30
0.0
 10
13.9222971609
 20
30.265184535
 30
0.0
 10
13.8244169794
 20
29.9057457627
 30
0.0
 10
13.6719545419
 20
29.588833089
 30
0.0
 10
13.5371077108
 20
29.3830727838
 30
0.0
 10
13.3799881648
 20
29.2052707356
 30
0.0
 10
13.2602356245
 20
29.1056827078
 30
0.0
 10
13.1976749146
 20
29.0615884191
 30
0.0
  0
SPLINE
  5
351
100
AcDbEntity
  8
0
100
AcDbSpline
 62
7
  6
BYLAYER
 70
0
 71
3
 72
9
 73
5
 74
0
 42
0.0000001
 43
0.0000001
 44
0.0000000001
 40
0.0
 40
0.0
 40
0.0
 40
0.0
 40
0.498287977
 40
1.0
 40
1.0
 40
1.0
 40
1.0
 10
13.1976749146
 20
29.0615884191
 30
0.0
 10
13.1365070369
 20
29.0184758319
 30
0.0
 10
13.0067697369
 20
28.9414454716
 30
0.0
 10
12.8665948527
 20
28.8856876222
 30
0.0
 10
12.7946815448
 20
28.8631951793
 30
0.0
  0
SPLINE
  5
352
100
AcDbEntity
  8
0
100
AcDbSpline
 62
7
  6
BYLAYER
 70
0
 71
3
 72
16
 73
12
 74
0
 42
0.0000001
 43
0.0000001
 44
0.0000000001
 40
0.0
 40
0.0
 40
0.0
 40
0.0
 40
0.047468534
 40
0.0962152559
 40
0.1987701621
 40
0.3098650434
 40
0.4304869159
 40
0.5607220818
 40
0.699915131
 40
0.8468934908
 40
1.0
 40
1.0
 40
1.0
 40
1.0
 10
12.7792784604
 20
28.858467959
 30
0.0
 10
12.7206933266
 20
28.8408303305
 30
0.0
 10
12.5996507285
 20
28.8122959461
 30
0.0
 10
12.3447391705
 20
28.7824309919
 30
0.0
 10
12.004351507
 20
28.7990313903
 30
0.0
 10
11.5834165211
 20
28.8998034869
 30
0.0
 10
11.150713908
 20
29.0785425276
 30
0.0
 10
10.7146517857
 20
29.3312787707
 30
0.0
 10
10.2835549658
 20
29.6527632987
 30
0.0
 10
9.8660584096
 20
30.0364813266
 30
0.0
 10
9.6064595885
 20
30.3240278638
 30
0.0
 10
9.4806308735
 20
30.4760484386
 30
0.0
  0
SPLINE
  5
353
100
AcDbEntity
  8
0
100
AcDbSpline
 62
7
  6
BYLAYER
 70
0
 71
3
 72
23
 73
19
 74
0
 42
0.0000001
 43
0.0000001
 44
0.0000000001
 40
0.0
 40
0.0
 40
0.0
 40
0.0
 40
0.0457630328
 40
0.0913681994
 40
0.137879883
 40
0.1862616827
 40
0.2372899911
 40
0.2915124254
 40
0.3492476068
 40
0.4106093656
 40
0.4755349461
 40
0.5438139978
 40
0.6151192752
 40
0.6890284921
 40
0.7650413532
 40
0.8426069366
 40
0.921134345
 40
1.0
 40
1.0
 40
1.0
 40
1.0
 10
13.1811938238
 20
28.0864166974
 30
0.0
 10
13.2850125282
 20
28.1195945174
 30
0.0
 10
13.4868030441
 20
28.2049865
 30
0.0
 10
13.7610228284
 20
28.3890723876
 30
0.0
 10
14.0006107755
 20
28.6253468158
 30
0.0
 10
14.2025097609
 20
28.9102143281
 30
0.0
 10
14.3646410553
 20
29.2397682693
 30
0.0
 10
14.4855052491
 20
29.6098441036
 30
0.0
 10
14.5640682502
 20
30.0160400592
 30
0.0
 10
14.5996396276
 20
30.4536538992
 30
0.0
 10
14.5919354875
 20
30.9176366346
 30
0.0
 10
14.5411460464
 20
31.4026204818
 30
0.0
 10
14.4478976596
 20
31.9029692204
 30
0.0
 10
14.3132809043
 20
32.4128302745
 30
0.0
 10
14.1389092733
 20
32.9262313771
 30
0.0
 10
13.9268241472
 20
33.4371472651
 30
0.0
 10
13.6795312297
 20
33.9395244758
 30
0.0
 10
13.4930302128
 20
34.2650273445
 30
0.0
 10
13.394568024
 20
34.4249813008
 30
0.0
  0
SPLINE
  5
354
100
AcDbEntity
  8
0
100
AcDbSpline
 62
7
  6
BYLAYER
 70
0
 71
3
 72
15
 73
11
 74
0
 42
0.0000001
 43
0.0000001
 44
0.0000000001
 40
0.0
 40
0.0
 40
0.0
 40
0.0
 40
0.1293679291
 40
0.260508229
 40
0.3918455681
 40
0.5218335887
 40
0.6489536195
 40
0.7718037832
 40
0.8891499055
 40
1.0
 40
1.0
 40
1.0
 40
1.0
 10
18.6999385015
 20
39.1473466508
 30
0.0
 10
18.8678032911
 20
38.9445399877
 30
0.0
 10
19.1891717729
 20
38.5220745935
 30
0.0
 10
19.6213995784
 20
37.8510718546
 30
0.0
 10
20.0014042506
 20
37.147679637
 30
0.0
 10
20.322447871
 20
36.4244238518
 30
0.0
 10
20.5788568679
 20
35.6940364132
 30
0.0
 10
20.7661143217
 20
34.9693571249
 30
0.0
 10
20.8808914402
 20
34.2632180373
 30
0.0
 10
20.9085598713
 20
33.7985625001
 30
0.0
 10
20.9085565238
 20
33.5729803842
 30
0.0
  0
SPLINE
  5
355
100
AcDbEntity
  8
0
100
AcDbSpline
 62
7
  6
BYLAYER
 70
0
 71
3
 72
23
 73
19
 74
0
 42
0.0000001
 43
0.0000001
 44
0.0000000001
 40
0.0
 40
0.0
 40
0.0
 40
0.0
 40
0.0434970663
 40
0.0885076046
 40
0.1358861875
 40
0.1862576425
 40
0.2400049122
 40
0.2972873995
 40
0.3580736741
 40
0.4221744865
 40
0.4892721143
 40
0.5589463332
 40
0.6306977402
 40
0.7039689346
 40
0.7781611996
 40
0.8526444427
 40
0.9268095452
 40
1.0
 40
1.0
 40
1.0
 40
1.0
 10
14.6914812414
 20
28.6551644899
 30
0.0
 10
14.7885286909
 20
28.7232234346
 30
0.0
 10
14.9727227284
 20
28.8816435609
 30
0.0
 10
15.2048123749
 20
29.1725960482
 30
0.0
 10
15.3931158463
 20
29.5149767451
 30
0.0
 10
15.535604391
 20
29.9039219381
 30
0.0
 10
15.6310006658
 20
30.3344501507
 30
0.0
 10
15.6784463572
 20
30.8011938069
 30
0.0
 10
15.6775519685
 20
31.2984041911
 30
0.0
 10
15.6284274187
 20
31.8199394107
 30
0.0
 10
15.5317323383
 20
32.3593199709
 30
0.0
 10
15.38871164
 20
32.9098105723
 30
0.0
 10
15.2011748062
 20
33.4645123569
 30
0.0
 10
14.9714774255
 20
34.0164547242
 30
0.0
 10
14.7025080016
 20
34.5586634325
 30
0.0
 10
14.3976658892
 20
35.0843676316
 30
0.0
 10
14.0607965505
 20
35.5868340858
 30
0.0
 10
13.8154031795
 20
35.9051433911
 30
0.0
 10
13.688228532
 20
36.0587900608
 30
0.0
  0
SPLINE
  5
356
100
AcDbEntity
  8
0
100
AcDbSpline
 62
7
  6
BYLAYER
 70
0
 71
3
 72
14
 73
10
 74
0
 42
0.0000001
 43
0.0000001
 44
0.0000000001
 40
0.0
 40
0.0
 40
0.0
 40
0.0
 40
0.1440382399
 40
0.2841137795
 40
0.4192068327
 40
0.5485868468
 40
0.6716413888
 40
0.7879832046
 40
1.0
 40
1.0
 40
1.0
 40
1.0
 10
26.5892035844
 20
43.4473163382
 30
0.0
 10
26.4739443771
 20
43.5865673108
 30
0.0
 10
26.2375734939
 20
43.8539351395
 30
0.0
 10
25.8625337953
 20
44.2234760501
 30
0.0
 10
25.475301117
 20
44.5526026018
 30
0.0
 10
25.0804807428
 20
44.8374541827
 30
0.0
 10
24.6822717525
 20
45.0748613636
 30
0.0
 10
24.169621483
 20
45.3166574681
 30
0.0
 10
23.768564608
 20
45.4330779635
 30
0.0
 10
23.50492752
 20
45.4690122286
 30
0.0
  0
SPLINE
  5
357
100
AcDbEntity
  8
0
100
AcDbSpline
 62
7
  6
BYLAYER
 70
0
 71
3
 72
24
 73
20
 74
0
 42
0.0000001
 43
0.0000001
 44
0.0000000001
 40
0.0
 40
0.0
 40
0.0
 40
0.0
 40
0.0738332233
 40
0.1486655354
 40
0.2237864171
 40
0.2985508114
 40
0.3722890972
 40
0.4443664231
 40
0.5141977312
 40
0.5812634946
 40
0.6451373255
 40
0.7055112391
 40
0.7622245534
 40
0.815300072
 40
0.8649828906
 40
0.9117714915
 40
0.9564283643
 40
0.9782868583
 40
1.0
 40
1.0
 40
1.0
 40
1.0
 10
9.6375474182
 20
30.6154091476
 30
0.0
 10
9.5370374662
 20
30.7368407357
 30
0.0
 10
9.3433148103
 20
30.9886418674
 30
0.0
 10
9.0781694118
 20
31.3865063276
 30
0.0
 10
8.8392213736
 20
31.8029523044
 30
0.0
 10
8.6296608668
 20
32.2323337266
 30
0.0
 10
8.4522766616
 20
32.6689893214
 30
0.0
 10
8.3094254368
 20
33.1070912926
 30
0.0
 10
8.2030035611
 20
33.5408240229
 30
0.0
 10
8.1344501616
 20
33.9644532912
 30
0.0
 10
8.1046867736
 20
34.3723955385
 30
0.0
 10
8.1141518731
 20
34.7593099546
 30
0.0
 10
8.162843121
 20
35.1201594626
 30
0.0
 10
8.2503304128
 20
35.4502379601
 30
0.0
 10
8.3757965745
 20
35.7451936813
 30
0.0
 10
8.5379471631
 20
36.0008758828
 30
0.0
 10
8.7036339178
 20
36.1793416706
 30
0.0
 10
8.851008455
 20
36.2970618287
 30
0.0
 10
8.9292873415
 20
36.3476741596
 30
0.0
 10
8.9694334787
 20
36.370853052
 30
0.0
  0
SPLINE
  5
358
100
AcDbEntity
  8
0
100
AcDbSpline
 62
7
  6
BYLAYER
 70
0
 71
3
 72
11
 73
7
 74
0
 42
0.0000001
 43
0.0000001
 44
0.0000000001
 40
0.0
 40
0.0
 40
0.0
 40
0.0
 40
0.2325814167
 40
0.4780123227
 40
0.7345773375
 40
1.0
 40
1.0
 40
1.0
 40
1.0
 10
16.6660083799
 20
40.9213308448
 30
0.0
 10
16.8480888165
 20
40.8162076328
 30
0.0
 10
17.2104960702
 20
40.5792392792
 30
0.0
 10
17.7296724639
 20
40.1638577343
 30
0.0
 10
18.2323022232
 20
39.6845707136
 30
0.0
 10
18.5469499189
 20
39.332180552
 30
0.0
 10
18.6999385015
 20
39.1473466508
 30
0.0
  0
SPLINE
  5
359
100
AcDbEntity
  8
0
100
AcDbSpline
 62
7
  6
BYLAYER
 70
0
 71
3
 72
15
 73
11
 74
0
 42
0.0000001
 43
0.0000001
 44
0.0000000001
 40
0.0
 40
0.0
 40
0.0
 40
0.0
 40
0.1108497769
 40
0.2281960459
 40
0.3510464787
 40
0.4781664877
 40
0.6081551504
 40
0.7394901605
 40
0.8706350104
 40
1.0
 40
1.0
 40
1.0
 40
1.0
 10
20.9085520888
 20
34.1036915061
 30
0.0
 10
20.9085452518
 20
34.3048349736
 30
0.0
 10
20.8838939082
 20
34.7191527383
 30
0.0
 10
20.7815436909
 20
35.3487937006
 30
0.0
 10
20.6145719913
 20
35.994966083
 30
0.0
 10
20.3859387201
 20
36.6462295076
 30
0.0
 10
20.0996722984
 20
37.2911277936
 30
0.0
 10
19.7608376919
 20
37.9183266713
 30
0.0
 10
19.3754303428
 20
38.5166332326
 30
0.0
 10
19.0888778256
 20
38.8933358213
 30
0.0
 10
18.9392017962
 20
39.0741676452
 30
0.0
  0
SPLINE
  5
35A
100
AcDbEntity
  8
0
100
AcDbSpline
 62
7
  6
BYLAYER
 70
0
 71
3
 72
25
 73
21
 74
0
 42
0.0000001
 43
0.0000001
 44
0.0000000001
 40
0.0
 40
0.0
 40
0.0
 40
0.0
 40
0.0738306431
 40
0.1486570337
 40
0.2237742122
 40
0.2985348691
 40
0.3722690156
 40
0.4443424947
 40
0.514169968
 40
0.5812324627
 40
0.6451029805
 40
0.7054734357
 40
0.7621838969
 40
0.8152570973
 40
0.8649373173
 40
0.9117230465
 40
0.9342834414
 40
0.956427469
 40
0.9782861549
 40
1.0
 40
1.0
 40
1.0
 40
1.0
 10
26.2810699195
 20
43.3129718803
 30
0.0
 10
26.4106449521
 20
43.1564251737
 30
0.0
 10
26.6603839241
 20
42.8318177996
 30
0.0
 10
27.0021938401
 20
42.3189087099
 30
0.0
 10
27.310231815
 20
41.7820494756
 30
0.0
 10
27.5803913511
 20
41.2285123019
 30
0.0
 10
27.8090670504
 20
40.665596654
 30
0.0
 10
27.993222759
 20
40.1008168476
 30
0.0
 10
28.1304153124
 20
39.5416685631
 30
0.0
 10
28.2187995873
 20
38.9955463857
 30
0.0
 10
28.2571698968
 20
38.4696462842
 30
0.0
 10
28.2449612754
 20
37.970853311
 30
0.0
 10
28.1822005563
 20
37.5056668952
 30
0.0
 10
28.0694095111
 20
37.0801235809
 30
0.0
 10
27.9077249536
 20
36.6999356911
 30
0.0
 10
27.7312173496
 20
36.421776704
 30
0.0
 10
27.5680541323
 20
36.2295417214
 30
0.0
 10
27.4365928052
 20
36.1015047041
 30
0.0
 10
27.2950395981
 20
35.9884448538
 30
0.0
 10
27.1941295459
 20
35.9231917932
 30
0.0
 10
27.1423718514
 20
35.8933059699
 30
0.0
  0
SPLINE
  5
35B
100
AcDbEntity
  8
0
100
AcDbSpline
 62
7
  6
BYLAYER
 70
0
 71
3
 72
25
 73
21
 74
0
 42
0.0000001
 43
0.0000001
 44
0.0000000001
 40
0.0
 40
0.0
 40
0.0
 40
0.0
 40
0.0217137578
 40
0.0435725838
 40
0.0657165398
 40
0.0882767627
 40
0.1350625397
 40
0.1847432461
 40
0.2378164165
 40
0.2945263656
 40
0.3548967858
 40
0.4187677868
 40
0.4858302176
 40
0.5556573906
 40
0.6277310665
 40
0.7014649944
 40
0.7762258215
 40
0.8513438992
 40
0.9261670015
 40
1.0
 40
1.0
 40
1.0
 40
1.0
 10
15.7768115281
 20
28.5808865534
 30
0.0
 10
15.8348598359
 20
28.6143988824
 30
0.0
 10
15.9480411839
 20
28.6875649431
 30
0.0
 10
16.1067706235
 20
28.8143884142
 30
0.0
 10
16.2542177706
 20
28.9579652078
 30
0.0
 10
16.4372039802
 20
29.1735567546
 30
0.0
 10
16.6351629147
 20
29.4855080164
 30
0.0
 10
16.8164763869
 20
29.9118959896
 30
0.0
 10
16.9429700168
 20
30.3891397873
 30
0.0
 10
17.0133669456
 20
30.9108410552
 30
0.0
 10
17.0270622669
 20
31.4702354496
 30
0.0
 10
16.9840187909
 20
32.0600305441
 30
0.0
 10
16.8848956125
 20
32.6725040085
 30
0.0
 10
16.7310416649
 20
33.2995875336
 30
0.0
 10
16.5245127792
 20
33.932985071
 30
0.0
 10
16.2680501723
 20
34.5642914135
 30
0.0
 10
15.9650657115
 20
35.1850829648
 30
0.0
 10
15.6196056903
 20
35.7871620351
 30
0.0
 10
15.2362727552
 20
36.3623908764
 30
0.0
 10
14.9561898614
 20
36.7264317612
 30
0.0
 10
14.8108673968
 20
36.9020038045
 30
0.0
  0
SPLINE
  5
35C
100
AcDbEntity
  8
0
100
AcDbSpline
 62
7
  6
BYLAYER
 70
0
 71
3
 72
11
 73
7
 74
0
 42
0.0000001
 43
0.0000001
 44
0.0000000001
 40
0.0
 40
0.0
 40
0.0
 40
0.0
 40
0.2224605835
 40
0.4617902292
 40
0.7206799047
 40
1.0
 40
1.0
 40
1.0
 40
1.0
 10
9.3563612298
 20
36.6272624853
 30
0.0
 10
9.4783888718
 20
36.6426590846
 30
0.0
 10
9.7357280995
 20
36.6466314608
 30
0.0
 10
10.1301379553
 20
36.5782321223
 30
0.0
 10
10.5381641176
 20
36.438089313
 30
0.0
 10
10.8046944384
 20
36.3037323694
 30
0.0
 10
10.9384365211
 20
36.2265166578
 30
0.0
  0
SPLINE
  5
35D
100
AcDbEntity
  8
0
100
AcDbSpline
 62
7
  6
BYLAYER
 70
0
 71
3
 72
14
 73
10
 74
0
 42
0.0000001
 43
0.0000001
 44
0.0000000001
 40
0.0
 40
0.0
 40
0.0
 40
0.0
 40
0.1453015966
 40
0.2844524794
 40
0.543780744
 40
0.6647828738
 40
0.7805914055
 40
0.8919940685
 40
1.0
 40
1.0
 40
1.0
 40
1.0
 10
7.897786837
 20
34.4710408125
 30
0.0
 10
7.897786837
 20
34.5645390994
 30
0.0
 10
7.9041289322
 20
34.7476944894
 30
0.0
 10
7.9429586551
 20
35.0956158088
 30
0.0
 10
8.0209552876
 20
35.4230374467
 30
0.0
 10
8.1421716839
 20
35.7189566294
 30
0.0
 10
8.2498479484
 20
35.9160530844
 30
0.0
 10
8.3756509258
 20
36.0919289522
 30
0.0
 10
8.4723484393
 20
36.1954875778
 30
0.0
 10
8.5231789736
 20
36.2428839844
 30
0.0
  0
SPLINE
  5
35E
100
AcDbEntity
  8
0
100
AcDbSpline
 62
7
  6
BYLAYER
 70
0
 71
3
 72
11
 73
7
 74
0
 42
0.0000001
 43
0.0000001
 44
0.0000000001
 40
0.0
 40
0.0
 40
0.0
 40
0.0
 40
0.2485532177
 40
0.4952903941
 40
0.7444947395
 40
1.0
 40
1.0
 40
1.0
 40
1.0
 10
8.5231789736
 20
36.2428839844
 30
0.0
 10
8.5796614638
 20
36.295550499
 30
0.0
 10
8.7005425243
 20
36.3920067827
 30
0.0
 10
8.9030294797
 20
36.5058514788
 30
0.0
 10
9.1231319035
 20
36.5865472787
 30
0.0
 10
9.2775984902
 20
36.6173247506
 30
0.0
 10
9.3563612298
 20
36.6272624853
 30
0.0
  0
SPLINE
  5
35F
100
AcDbEntity
  8
0
100
AcDbSpline
 62
7
  6
BYLAYER
 70
0
 71
3
 72
11
 73
7
 74
0
 42
0.0000001
 43
0.0000001
 44
0.0000000001
 40
0.0
 40
0.0
 40
0.0
 40
0.0
 40
0.2224420291
 40
0.4618007538
 40
0.720675398
 40
1.0
 40
1.0
 40
1.0
 40
1.0
 10
52.1758049109
 20
61.0123030826
 30
0.0
 10
52.2893093062
 20
61.0266242779
 30
0.0
 10
52.5286987631
 20
61.0303046634
 30
0.0
 10
52.8955930581
 20
60.9667025098
 30
0.0
 10
53.2751542145
 20
60.8363157543
 30
0.0
 10
53.5230936793
 20
60.7113544899
 30
0.0
 10
53.6475028516
 20
60.6395182682
 30
0.0
  0
SPLINE
  5
360
100
AcDbEntity
  8
0
100
AcDbSpline
 62
7
  6
BYLAYER
 70
0
 71
3
 72
14
 73
10
 74
0
 42
0.0000001
 43
0.0000001
 44
0.0000000001
 40
0.0
 40
0.0
 40
0.0
 40
0.0
 40
0.2616990694
 40
0.3930339849
 40
0.5227729149
 40
0.6495218015
 40
0.7720130735
 40
0.8891390552
 40
1.0
 40
1.0
 40
1.0
 40
1.0
 10
55.183190055
 20
59.3024548504
 30
0.0
 10
55.3818641124
 20
59.0484492334
 30
0.0
 10
55.6514319543
 20
58.6432270454
 30
0.0
 10
55.9474942148
 20
58.0706934047
 30
0.0
 10
56.1349341123
 20
57.6305522543
 30
0.0
 10
56.2842908771
 20
57.187586117
 30
0.0
 10
56.3931995983
 20
56.7488947559
 30
0.0
 10
56.4598541341
 20
56.3216162261
 30
0.0
 10
56.4758548694
 20
56.0405274441
 30
0.0
 10
56.4758538622
 20
55.9039205314
 30
0.0
  0
SPLINE
  5
361
100
AcDbEntity
  8
0
100
AcDbSpline
 62
7
  6
BYLAYER
 70
0
 71
3
 72
11
 73
7
 74
0
 42
0.0000001
 43
0.0000001
 44
0.0000000001
 40
0.0
 40
0.0
 40
0.0
 40
0.0
 40
0.2325802766
 40
0.4780002557
 40
0.734607181
 40
1.0
 40
1.0
 40
1.0
 40
1.0
 10
53.7889199929
 20
60.557865764
 30
0.0
 10
53.9042332227
 20
60.4912817592
 30
0.0
 10
54.1337583726
 20
60.3412172189
 30
0.0
 10
54.4625821435
 20
60.0781288966
 30
0.0
 10
54.7809046448
 20
59.7745708381
 30
0.0
 10
54.9801939796
 20
59.5513929747
 30
0.0
 10
55.0770757414
 20
59.4343448024
 30
0.0
  0
SPLINE
  5
362
100
AcDbEntity
  8
0
100
AcDbSpline
 62
7
  6
BYLAYER
 70
0
 71
3
 72
15
 73
11
 74
0
 42
0.0000001
 43
0.0000001
 44
0.0000000001
 40
0.0
 40
0.0
 40
0.0
 40
0.0
 40
0.1486040989
 40
0.2895002429
 40
0.422721321
 40
0.5486433892
 40
0.6679996805
 40
0.781939048
 40
0.8919871057
 40
1.0
 40
1.0
 40
1.0
 40
1.0
 10
56.4758656882
 20
55.7406187384
 30
0.0
 10
56.4758709861
 20
55.6364309995
 30
0.0
 10
56.4674679353
 20
55.433319768
 30
0.0
 10
56.427492531
 20
55.1391828741
 30
0.0
 10
56.3606902844
 20
54.8661891703
 30
0.0
 10
56.2676444426
 20
54.6169372597
 30
0.0
 10
56.1489767314
 20
54.3938874475
 30
0.0
 10
56.0057142661
 20
54.1992592537
 30
0.0
 10
55.8390817729
 20
54.0353154988
 30
0.0
 10
55.7130058588
 20
53.9473079051
 30
0.0
 10
55.6474212905
 20
53.9094459866
 30
0.0
  0
SPLINE
  5
363
100
AcDbEntity
  8
0
100
AcDbSpline
 62
7
  6
BYLAYER
 70
0
 71
3
 72
14
 73
10
 74
0
 42
0.0000001
 43
0.0000001
 44
0.0000000001
 40
0.0
 40
0.0
 40
0.0
 40
0.0
 40
0.143209214
 40
0.2827050875
 40
0.4174119916
 40
0.5466271431
 40
0.6698044595
 40
0.7865426241
 40
1.0
 40
1.0
 40
1.0
 40
1.0
 10
27.5707364738
 20
43.5536472168
 30
0.0
 10
27.4891708084
 20
43.6521911726
 30
0.0
 10
27.3219284265
 20
43.8416789953
 30
0.0
 10
27.0569540493
 20
44.1043878417
 30
0.0
 10
26.7833729687
 20
44.3394429855
 30
0.0
 10
26.5043532061
 20
44.5442457117
 30
0.0
 10
26.222674044
 20
44.7166445995
 30
0.0
 10
25.8590061803
 20
44.8952932592
 30
0.0
 10
25.5743659057
 20
44.9852113384
 30
0.0
 10
25.3863539255
 20
45.0169396237
 30
0.0
  0
SPLINE
  5
364
100
AcDbEntity
  8
0
100
AcDbSpline
 62
7
  6
BYLAYER
 70
0
 71
3
 72
15
 73
11
 74
0
 42
0.0000001
 43
0.0000001
 44
0.0000000001
 40
0.0
 40
0.0
 40
0.0
 40
0.0
 40
0.1310604925
 40
0.2639732603
 40
0.3967763425
 40
0.52769042
 40
0.6549278232
 40
0.7768929166
 40
0.8922462602
 40
1.0
 40
1.0
 40
1.0
 40
1.0
 10
27.4893749232
 20
43.4286486793
 30
0.0
 10
27.5973231335
 20
43.2982305233
 30
0.0
 10
27.8031248665
 20
43.0257233287
 30
0.0
 10
28.0768224411
 20
42.5917174751
 30
0.0
 10
28.3133772124
 20
42.1365655399
 30
0.0
 10
28.5079116123
 20
41.6698469933
 30
0.0
 10
28.6563849908
 20
41.2011100696
 30
0.0
 10
28.7557356801
 20
40.7399887174
 30
0.0
 10
28.8039259535
 20
40.2960162429
 30
0.0
 10
28.8010572959
 20
40.0068919181
 30
0.0
 10
28.7898209669
 20
39.8681550426
 30
0.0
  0
SPLINE
  5
365
100
AcDbEntity
  8
0
100
AcDbSpline
 62
7
  6
BYLAYER
 70
0
 71
3
 72
15
 73
11
 74
0
 42
0.0000001
 43
0.0000001
 44
0.0000000001
 40
0.0
 40
0.0
 40
0.0
 40
0.0
 40
0.1525570698
 40
0.2991654663
 40
0.4381552678
 40
0.5684151213
 40
0.6892644267
 40
0.8007287889
 40
0.9036856392
 40
1.0
 40
1.0
 40
1.0
 40
1.0
 10
27.7799585334
 20
43.7394614954
 30
0.0
 10
27.6647090401
 20
43.878700732
 30
0.0
 10
27.4269861952
 20
44.142343309
 30
0.0
 10
27.0450015271
 20
44.4950005556
 30
0.0
 10
26.6504930873
 20
44.7917195568
 30
0.0
 10
26.2511807976
 20
45.0266807782
 30
0.0
 10
25.8545058863
 20
45.195169777
 30
0.0
 10
25.467741256
 20
45.2935317843
 30
0.0
 10
25.0982858318
 20
45.3191169984
 30
0.0
 10
24.8622293988
 20
45.2853872904
 30
0.0
 10
24.7520328362
 20
45.255749682
 30
0.0
  0
SPLINE
  5
366
100
AcDbEntity
  8
0
100
AcDbSpline
 62
7
  6
BYLAYER
 70
0
 71
3
 72
14
 73
10
 74
0
 42
0.0000001
 43
0.0000001
 44
0.0000000001
 40
0.0
 40
0.0
 40
0.0
 40
0.0
 40
0.2603742113
 40
0.3910068765
 40
0.5202381297
 40
0.6468269671
 40
0.7696335568
 40
0.8876424281
 40
1.0
 40
1.0
 40
1.0
 40
1.0
 10
55.1453964629
 20
59.2790691248
 30
0.0
 10
55.3408856797
 20
59.0252365517
 30
0.0
 10
55.6073768414
 20
58.6221309747
 30
0.0
 10
55.9033940582
 20
58.0541689757
 30
0.0
 10
56.0931927032
 20
57.6176847488
 30
0.0
 10
56.2476105938
 20
57.1776849799
 30
0.0
 10
56.3644798713
 20
56.7404701492
 30
0.0
 10
56.442093802
 20
56.3123855552
 30
0.0
 10
56.4675641181
 20
56.0295617651
 30
0.0
 10
56.4729114507
 20
55.8914112713
 30
0.0
  0
SPLINE
  5
367
100
AcDbEntity
  8
0
100
AcDbSpline
 62
7
  6
BYLAYER
 70
0
 71
3
 72
15
 73
11
 74
0
 42
0.0000001
 43
0.0000001
 44
0.0000000001
 40
0.0
 40
0.0
 40
0.0
 40
0.0
 40
0.0993546002
 40
0.2087952496
 40
0.3278409161
 40
0.4550875811
 40
0.5884967313
 40
0.7255898539
 40
0.8636940949
 40
1.0
 40
1.0
 40
1.0
 40
1.0
 10
28.8340595434
 20
39.1286806732
 30
0.0
 10
28.8852818081
 20
39.2782351647
 30
0.0
 10
28.9578144242
 20
39.6050027232
 30
0.0
 10
28.9811631811
 20
40.1280544984
 30
0.0
 10
28.924689486
 20
40.6929756087
 30
0.0
 10
28.7902278073
 20
41.2833596964
 30
0.0
 10
28.5817972016
 20
41.882177543
 30
0.0
 10
28.305550489
 20
42.4719406219
 30
0.0
 10
27.9696281518
 20
43.03513121
 30
0.0
 10
27.709021934
 20
43.3865769646
 30
0.0
 10
27.5707364738
 20
43.5536472168
 30
0.0
  0
SPLINE
  5
368
100
AcDbEntity
  8
0
100
AcDbSpline
 62
7
  6
BYLAYER
 70
0
 71
3
 72
11
 73
7
 74
0
 42
0.0000001
 43
0.0000001
 44
0.0000000001
 40
0.0
 40
0.0
 40
0.0
 40
0.0
 40
0.2349202977
 40
0.4809470935
 40
0.7366650774
 40
1.0
 40
1.0
 40
1.0
 40
1.0
 10
53.7835737627
 20
60.5571666189
 30
0.0
 10
53.8926830131
 20
60.488098827
 30
0.0
 10
54.1094181428
 20
60.3359952763
 30
0.0
 10
54.4204776626
 20
60.0760962654
 30
0.0
 10
54.7216895703
 20
59.7820598379
 30
0.0
 10
54.9111592468
 20
59.5683705128
 30
0.0
 10
55.0034562661
 20
59.4568614195
 30
0.0
  0
SPLINE
  5
369
100
AcDbEntity
  8
0
100
AcDbSpline
 62
7
  6
BYLAYER
 70
0
 71
3
 72
11
 73
7
 74
0
 42
0.0000001
 43
0.0000001
 44
0.0000000001
 40
0.0
 40
0.0
 40
0.0
 40
0.0
 40
0.227772265
 40
0.4719193998
 40
0.7303806601
 40
1.0
 40
1.0
 40
1.0
 40
1.0
 10
26.0509333295
 20
44.6026208422
 30
0.0
 10
26.179415363
 20
44.54215593
 30
0.0
 10
26.4366647581
 20
44.3973447774
 30
0.0
 10
26.8045126107
 20
44.1274753541
 30
0.0
 10
27.160910325
 20
43.8026279
 30
0.0
 10
27.3821985544
 20
43.5581343312
 30
0.0
 10
27.4893749232
 20
43.4286486793
 30
0.0
  0
SPLINE
  5
36A
100
AcDbEntity
  8
0
100
AcDbSpline
 62
7
  6
BYLAYER
 70
0
 71
3
 72
19
 73
15
 74
0
 42
0.0000001
 43
0.0000001
 44
0.0000000001
 40
0.0
 40
0.0
 40
0.0
 40
0.0
 40
0.0440708285
 40
0.0902758676
 40
0.1391749152
 40
0.1911264475
 40
0.2463106958
 40
0.3047414081
 40
0.3662996745
 40
0.4307537291
 40
0.5668955158
 40
0.7099003507
 40
0.8556993555
 40
1.0
 40
1.0
 40
1.0
 40
1.0
 10
28.7233381352
 20
38.4267602216
 30
0.0
 10
28.7824598543
 20
38.4879244861
 30
0.0
 10
28.8925579832
 20
38.6242511421
 30
0.0
 10
29.0261744612
 20
38.8584341863
 30
0.0
 10
29.1302026617
 20
39.1234956088
 30
0.0
 10
29.2037811538
 20
39.4162948479
 30
0.0
 10
29.2462358244
 20
39.7336566234
 30
0.0
 10
29.2572678963
 20
40.0721064961
 30
0.0
 10
29.2368225264
 20
40.4279832672
 30
0.0
 10
29.1665990222
 20
40.9295740853
 30
0.0
 10
29.0001397472
 20
41.5740656468
 30
0.0
 10
28.6925762905
 20
42.3367078399
 30
0.0
 10
28.2868899483
 20
43.0698987267
 30
0.0
 10
27.9575589878
 20
43.5248926415
 30
0.0
 10
27.7799585334
 20
43.7394614954
 30
0.0
  0
ELLIPSE
  5
36B
100
AcDbEntity
  8
0
100
AcDbEllipse
 62
7
  6
BYLAYER
 10
46.3915080534
 20
53.4431654196
 30
0.0
 11
-2.3682396375
 21
5.5280121145
 31
0.0
 40
0.2369299384
 41
-3.3289539704
 42
-3.2440951463
  0
ELLIPSE
  5
36C
100
AcDbEntity
  8
0
100
AcDbEllipse
 62
7
  6
BYLAYER
 10
46.5660907913
 20
53.1295548734
 30
0.0
 11
-3.3577514571
 21
4.9553126405
 31
0.0
 40
0.2440983979
 41
-3.5996311494
 42
-3.5147723253
  0
ELLIPSE
  5
36D
100
AcDbEntity
  8
0
100
AcDbEllipse
 62
7
  6
BYLAYER
 10
46.7762119563
 20
52.8437384127
 30
0.0
 11
4.3097929168
 21
-4.419196097
 31
0.0
 40
0.1972304896
 41
-0.7148215157
 42
-0.6299626917
  0
ELLIPSE
  5
36E
100
AcDbEntity
  8
0
100
AcDbEllipse
 62
7
  6
BYLAYER
 10
47.0120465162
 20
52.5990804975
 30
0.0
 11
5.1603537728
 21
-3.9701593084
 31
0.0
 40
0.1164016375
 41
-0.9348185211
 42
-0.8499596971
  0
ELLIPSE
  5
36F
100
AcDbEntity
  8
0
100
AcDbEllipse
 62
7
  6
BYLAYER
 10
47.9849638458
 20
54.4656365526
 30
0.0
 11
6.7254811406
 21
5.4462207245
 31
0.0
 40
0.6811984083
 41
1.8112037577
 42
1.8408200432
  0
ELLIPSE
  5
370
100
AcDbEntity
  8
0
100
AcDbEllipse
 62
7
  6
BYLAYER
 10
46.1590020495
 20
54.2512227556
 30
0.0
 11
-0.326357385
 21
6.8065949596
 31
0.0
 40
0.0470237536
 41
0.990801138
 42
1.075659962
  0
ELLIPSE
  5
371
100
AcDbEntity
  8
0
100
AcDbEllipse
 62
7
  6
BYLAYER
 10
46.2135754937
 20
53.9334301135
 30
0.0
 11
-1.0493277732
 21
6.3304379795
 31
0.0
 40
0.1384524192
 41
0.7986163522
 42
0.8834751762
  0
ELLIPSE
  5
372
100
AcDbEntity
  8
0
100
AcDbEllipse
 62
7
  6
BYLAYER
 10
46.3201705884
 20
53.6058432442
 30
0.0
 11
-1.8968112776
 21
5.8066321135
 31
0.0
 40
0.2131303253
 41
0.5687889274
 42
0.6536477514
  0
ELLIPSE
  5
373
100
AcDbEntity
  8
0
100
AcDbEllipse
 62
7
  6
BYLAYER
 10
46.4738030656
 20
53.2837797455
 30
0.0
 11
-2.860367152
 21
5.241859002
 31
0.0
 40
0.2477520092
 41
0.3053311428
 42
0.3901899668
  0
ELLIPSE
  5
374
100
AcDbEntity
  8
0
100
AcDbEllipse
 62
7
  6
BYLAYER
 10
46.6672892413
 20
52.9822989487
 30
0.0
 11
-3.8445908966
 21
4.6781475629
 31
0.0
 40
0.2264893611
 41
0.037126276
 42
0.1219851001
  0
ELLIPSE
  5
375
100
AcDbEntity
  8
0
100
AcDbEllipse
 62
7
  6
BYLAYER
 10
48.2607450338
 20
54.0047700818
 30
0.0
 11
7.9282110612
 21
3.4486793586
 31
0.0
 40
0.6860473993
 41
4.3905133558
 42
4.4650042658
  0
ELLIPSE
  5
376
100
AcDbEntity
  8
0
100
AcDbEllipse
 62
7
  6
BYLAYER
 10
47.5160596706
 20
52.2765405862
 30
0.0
 11
6.5735741753
 21
-3.2641617248
 31
0.0
 40
0.0693737973
 41
1.1906623843
 42
1.2755212083
  0
ELLIPSE
  5
377
100
AcDbEntity
  8
0
100
AcDbEllipse
 62
7
  6
BYLAYER
 10
47.7606711701
 20
52.2137401979
 30
0.0
 11
7.1555708817
 21
-2.9310994613
 31
0.0
 40
0.1575767071
 41
1.3278770264
 42
1.4127358504
  0
ELLIPSE
  5
378
100
AcDbEntity
  8
0
100
AcDbEllipse
 62
7
  6
BYLAYER
 10
47.9849638458
 20
52.2215563714
 30
0.0
 11
7.6560312181
 21
-2.5700509491
 31
0.0
 40
0.2401908586
 41
1.4502792014
 42
1.5351380254
  0
ELLIPSE
  5
379
100
AcDbEntity
  8
0
100
AcDbEllipse
 62
7
  6
BYLAYER
 10
48.1784500216
 20
52.2996236312
 30
0.0
 11
8.0712969936
 21
-2.1582844968
 31
0.0
 40
0.3176683197
 41
1.5602787553
 42
1.6451375793
  0
ELLIPSE
  5
37A
100
AcDbEntity
  8
0
100
AcDbEllipse
 62
7
  6
BYLAYER
 10
48.3320824987
 20
52.444291639
 30
0.0
 11
8.3962496348
 21
-1.6754892976
 31
0.0
 40
0.3907761315
 41
1.6585052894
 42
1.7433641134
  0
ELLIPSE
  5
37B
100
AcDbEntity
  8
0
100
AcDbEllipse
 62
7
  6
BYLAYER
 10
48.4386775935
 20
52.6487958795
 30
0.0
 11
8.6244709744
 21
-1.0998703931
 31
0.0
 40
0.4600502828
 41
1.7440093058
 42
1.8288681298
  0
ELLIPSE
  5
37C
100
AcDbEntity
  8
0
100
AcDbEllipse
 62
7
  6
BYLAYER
 10
48.4932510377
 20
52.9035739618
 30
0.0
 11
8.7465205526
 21
-0.4040017647
 31
0.0
 40
0.5253840745
 41
1.8141342005
 42
1.8989930245
  0
ELLIPSE
  5
37D
100
AcDbEntity
  8
0
100
AcDbEllipse
 62
7
  6
BYLAYER
 10
48.4932510377
 20
53.1967127458
 30
0.0
 11
8.7451548902
 21
0.4484359387
 31
0.0
 40
0.5855128108
 41
1.8642336522
 42
1.9490924762
  0
ELLIPSE
  5
37E
100
AcDbEntity
  8
0
100
AcDbEllipse
 62
7
  6
BYLAYER
 10
48.4386775935
 20
53.5145053878
 30
0.0
 11
8.5863710227
 21
1.4983742659
 31
0.0
 40
0.6372662028
 41
1.8879616503
 42
1.9728204743
  0
ELLIPSE
  5
37F
100
AcDbEntity
  8
0
100
AcDbEllipse
 62
7
  6
BYLAYER
 10
48.3320824987
 20
53.8420922572
 30
0.0
 11
8.2131921466
 21
2.7598353398
 31
0.0
 40
0.6748846374
 41
1.8804315543
 42
1.9652903783
  0
ELLIPSE
  5
380
100
AcDbEntity
  8
0
100
AcDbEllipse
 62
7
  6
BYLAYER
 10
48.1784500216
 20
54.1641557558
 30
0.0
 11
7.5767778654
 21
4.1462246655
 31
0.0
 40
0.6909951126
 41
1.8470696911
 42
1.9319285151
  0
ELLIPSE
  5
381
100
AcDbEntity
  8
0
100
AcDbEllipse
 62
7
  6
BYLAYER
 10
48.0861622958
 20
54.318380628
 30
0.0
 11
7.1695145132
 21
4.8216285508
 31
0.0
 40
0.6893336205
 41
-1.9417155745
 42
-1.8568567505
  0
ELLIPSE
  5
382
100
AcDbEntity
  8
0
100
AcDbEllipse
 62
7
  6
BYLAYER
 10
47.8760411308
 20
54.6041970887
 30
0.0
 11
6.2667550578
 21
6.0007205089
 31
0.0
 40
0.6672083696
 41
-1.9700945444
 42
-1.8852357204
  0
ELLIPSE
  5
383
100
AcDbEntity
  8
0
100
AcDbEllipse
 62
7
  6
BYLAYER
 10
47.6402065709
 20
54.8488550039
 30
0.0
 11
5.3744845444
 21
6.8778228199
 31
0.0
 40
0.6253780513
 41
-1.9697136828
 42
-1.8848548588
  0
ELLIPSE
  5
384
100
AcDbEntity
  8
0
100
AcDbEllipse
 62
7
  6
BYLAYER
 10
47.389685978
 20
55.0409144413
 30
0.0
 11
4.5683376254
 21
7.4759574119
 31
0.0
 40
0.5710965018
 41
-1.938772116
 42
-1.853913292
  0
ELLIPSE
  5
385
100
AcDbEntity
  8
0
100
AcDbEllipse
 62
7
  6
BYLAYER
 10
47.1361934166
 20
55.1713949152
 30
0.0
 11
3.8514590518
 21
7.8530809171
 31
0.0
 40
0.5094581106
 41
-1.8831165203
 42
-1.7982576962
  0
ELLIPSE
  5
386
100
AcDbEntity
  8
0
100
AcDbEllipse
 62
7
  6
BYLAYER
 10
46.8915819171
 20
55.2341953035
 30
0.0
 11
3.2025922073
 21
8.0547430151
 31
0.0
 40
0.4430764312
 41
-1.8087916777
 42
-1.7239328537
  0
ELLIPSE
  5
387
100
AcDbEntity
  8
0
100
AcDbEllipse
 62
7
  6
BYLAYER
 10
46.6672892413
 20
55.22637913
 30
0.0
 11
2.5996062414
 21
8.1105948625
 31
0.0
 40
0.372865996
 41
-1.7199283409
 42
-1.6350695169
  0
ELLIPSE
  5
388
100
AcDbEntity
  8
0
100
AcDbEllipse
 62
7
  6
BYLAYER
 10
46.4738030656
 20
55.1483118702
 30
0.0
 11
2.0244974826
 21
8.0407123571
 31
0.0
 40
0.2987317906
 41
-1.6187302155
 42
-1.5338713915
  0
ELLIPSE
  5
389
100
AcDbEntity
  8
0
100
AcDbEllipse
 62
7
  6
BYLAYER
 10
46.3201705884
 20
55.0036438624
 30
0.0
 11
1.4620509635
 21
7.8608289901
 31
0.0
 40
0.2200409908
 41
-1.5057513547
 42
-1.4208925307
  0
ELLIPSE
  5
38A
100
AcDbEntity
  8
0
100
AcDbEllipse
 62
7
  6
BYLAYER
 10
46.2135754937
 20
54.7991396218
 30
0.0
 11
0.8968782999
 21
7.5854062911
 31
0.0
 40
0.1360420365
 41
-1.379950137
 42
-1.295091313
  0
ELLIPSE
  5
38B
100
AcDbEntity
  8
0
100
AcDbEllipse
 62
7
  6
BYLAYER
 10
46.1590020495
 20
54.5443615396
 30
0.0
 11
0.3097972173
 21
7.2290810471
 31
0.0
 40
0.0464963655
 41
-1.238396949
 42
-1.1535381249
  0
ELLIPSE
  5
38C
100
AcDbEntity
  8
0
100
AcDbEllipse
 62
7
  6
BYLAYER
 10
43.4385150943
 20
49.6190060454
 30
0.0
 11
1.4620509635
 21
7.8608289901
 31
0.0
 40
0.2200409908
 41
-0.8046388332
 42
-0.7935061992
  0
ELLIPSE
  5
38D
100
AcDbEntity
  8
0
100
AcDbEllipse
 62
7
  6
BYLAYER
 10
43.2848826171
 20
49.4743380376
 30
0.0
 11
2.0244974826
 21
8.0407123571
 31
0.0
 40
0.2987317906
 41
-0.9212532823
 42
-0.90648506
  0
ELLIPSE
  5
38E
100
AcDbEntity
  8
0
100
AcDbEllipse
 62
7
  6
BYLAYER
 10
43.0913964414
 20
49.3962707778
 30
0.0
 11
2.5996062414
 21
8.1105948625
 31
0.0
 40
0.372865996
 41
-1.0138786781
 42
-1.0076831855
  0
ELLIPSE
  5
38F
100
AcDbEntity
  8
0
100
AcDbEllipse
 62
7
  6
BYLAYER
 10
41.5802356611
 20
52.3230262766
 30
0.0
 11
8.0712969936
 21
-2.1582844968
 31
0.0
 40
0.3176683197
 41
0.9328924238
 42
0.9399905535
  0
ELLIPSE
  5
390
100
AcDbEntity
  8
0
100
AcDbEllipse
 62
7
  6
BYLAYER
 10
41.426603184
 20
52.1783582688
 30
0.0
 11
8.3962496348
 21
-1.6754892976
 31
0.0
 40
0.3907761315
 41
1.0311189579
 42
1.0484731144
  0
ELLIPSE
  5
391
100
AcDbEntity
  8
0
100
AcDbEllipse
 62
7
  6
BYLAYER
 10
41.3200080892
 20
51.9738540283
 30
0.0
 11
8.6244709744
 21
-1.0998703931
 31
0.0
 40
0.4600502828
 41
1.1166229744
 42
1.1272030674
  0
ENDSEC
  0
SECTION
  2
OBJECTS
  0
DICTIONARY
  5
C
100
AcDbDictionary
280
0
281
1
  3
ACAD_GROUP
350
D
  3
ACAD_MLINESTYLE
350
17
  3
ACAD_LAYOUT
350
1A
  3
ACAD_PLOTSETTINGS
350
19
  3
ACAD_PLOTSTYLENAME
350
E
  0
DICTIONARY
  5
D
102
{ACAD_REACTORS
330
C
102
}
100
AcDbDictionary
280
0
281
1
  0
ACDBDICTIONARYWDFLT
  5
E
102
{ACAD_REACTORS
330
C
102
}
100
AcDbDictionary
281
1
  3
Normal
350
F
100
AcDbDictionaryWithDefault
340
F
  0
DICTIONARY
  5
17
102
{ACAD_REACTORS
330
C
102
}
100
AcDbDictionary
280
0
281
1
  3
Standard
350
18
  0
DICTIONARY
  5
19
102
{ACAD_REACTORS
330
C
102
}
100
AcDbDictionary
281
1
  0
DICTIONARY
  5
1A
102
{ACAD_REACTORS
330
C
102
}
100
AcDbDictionary
281
1
  3
Model
350
392
  3
Layout1
350
393
  0
ACDBPLACEHOLDER
  5
F
102
{ACAD_REACTORS
330
E
102
}
  0
MLINESTYLE
  5
18
102
{ACAD_REACTORS
330
17
102
}
100
AcDbMlineStyle
  2
STANDARD
 70
0
  3

 62
256
 51
90.0
 52
90.0
 71
2
 49
0.5
 62
256
  6
BYLAYER
 49
-0.5
 62
256
  6
BYLAYER
  0
LAYOUT
  5
392
102
{ACAD_REACTORS
330
1A
102
}
100
AcDbPlotSettings
  1

  2
none_device
  4

  6

 40
0.0
 41
0.0
 42
0.0
 43
0.0
 44
210.0
 45
297.0
 46
0.0
 47
0.0
 48
0.0
 49
0.0
140
0.0
141
0.0
142
1.0
143
1.0
 70
1024
 72
1
 73
0
 74
0
  7

 75
0
147
1.0
148
0.0
149
0.0
100
AcDbLayout
  1
Model
 70
0
 71
0
 10
0.0
 20
0.0
 11
210.0
 21
297.0
 12
0.0
 22
0.0
 32
0.0
 14
0.0
 24
0.0
 34
0.0
 15
0.0
 25
0.0
 35
0.0
146
0.0
 13
0.0
 23
0.0
 33
0.0
 16
1.0
 26
0.0
 36
0.0
 17
0.0
 27
1.0
 37
0.0
 76
0
330
210
345
0
346
0
  0
LAYOUT
  5
393
102
{ACAD_REACTORS
330
1A
102
}
100
AcDbPlotSettings
  1

  2
none_device
  4

  6

 40
0.0
 41
0.0
 42
0.0
 43
0.0
 44
210.0
 45
297.0
 46
0.0
 47
0.0
 48
0.0
 49
0.0
140
0.0
141
0.0
142
1.0
143
1.0
 70
0
 72
1
 73
0
 74
0
  7

 75
0
147
1.0
148
0.0
149
0.0
100
AcDbLayout
  1
Layout1
 70
0
 71
1
 10
0.0
 20
0.0
 11
210.0
 21
297.0
 12
0.0
 22
0.0
 32
0.0
 14
0.0
 24
0.0
 34
0.0
 15
0.0
 25
0.0
 35
0.0
146
0.0
 13
0.0
 23
0.0
 33
0.0
 16
1.0
 26
0.0
 36
0.0
 17
0.0
 27
1.0
 37
0.0
 76
0
330
211
345
0
346
0
  0
ENDSEC
  0
EOF
