999
DXF file: C:\Users\sesa63760\Dev\_Creo\CAD\MCADID0003845_3D-CAD\drw0001_1.dxf
999
Pro/ENGINEER 2019471 by Parametric Technology Corporation
  0
SECTION
  2
HEADER
  9
$ACADVER
  1
AC1024
  9
$DWGCODEPAGE
  3
ANSI_1252
  9
$EXTMAX
 10
61.5947448477
 20
87.1125677131
 30
0.0
  9
$EXTMIN
 10
0.0
 20
0.0
 30
0.0
  9
$LIMMIN
 10
0.0
 20
0.0
  9
$LIMMAX
 10
61.5947448477
 20
87.1125677131
  9
$VIEWCTR
 10
30.7973724238
 20
43.5562838566
  9
$VIEWSIZE
 40
87.1125677131
  9
$CLAYER
  8
0
  9
$LTSCALE
 40
5.6784488583
  9
$CELTYPE
  6
BYLAYER
  9
$DIMSCALE
 40
1.0
  9
$DIMASZ
 40
0.733270772
  9
$DIMEXO
 40
1.0
  9
$DIMDLI
 40
3.9232919385
  9
$DIMEXE
 40
1.0
  9
$DIMCEN
 40
0.9292007223
  9
$DIMLFAC
 40
1.0
  9
$DIMBLK
  1
_FILLED
  9
$DIMALT
 70
0
  9
$DIMALTF
 40
0.0393700787
  9
$DIMTXT
 40
1.0265790808
  9
$DIMTOL
 70
1
  9
$DIMLIM
 70
0
  9
$DIMTFAC
 40
1.0
  9
$DIMTP
 40
0.01
  9
$DIMTM
 40
0.01
  9
$DIMGAP
 40
0.625
  9
$DIMDSEP
 70
46
  9
$AUNITS
 70
0
  9
$PDMODE
 70
3
  9
$PDSIZE
 40
0.3125
  9
$HANDSEED
  5
279
  9
$TILEMODE
 70
1
  9
$MEASUREMENT
 70
1
  9
$INSUNITS
 70
4
  0
ENDSEC
  0
SECTION
  2
CLASSES
  0
CLASS
  1
ACDBDICTIONARYWDFLT
  2
AcDbDictionaryWithDefault
  3
AutoCAD 2000
 90
0
 91
1
280
0
281
0
  0
CLASS
  1
ACDBPLACEHOLDER
  2
AcDbPlaceHolder
  3
AutoCAD 2000
 90
0
 91
1
280
0
281
0
  0
CLASS
  1
LAYOUT
  2
AcDbLayout
  3
AutoCAD 2000
 90
0
 91
0
280
0
281
0
  0
ENDSEC
  0
SECTION
  2
TABLES
  0
TABLE
  2
VPORT
  5
8
100
AcDbSymbolTable
 70
2
  0
VPORT
  5
1F4
100
AcDbSymbolTableRecord
100
AcDbViewportTableRecord
  2
*ACTIVE
 70
0
 10
0.0
 20
0.0
 11
1.0
 21
1.0
 12
30.7973724238
 22
43.5562838566
 13
0.0
 23
0.0
 14
1.0
 24
1.0
 15
0.0
 25
0.0
 16
0.0
 26
0.0
 36
1.0
 17
0.0
 27
0.0
 37
0.0
 40
87.1125677131
 41
0.7070707071
 42
50.0
 43
0.0
 44
0.0
 50
0.0
 51
0.0
 71
0
 72
100
 73
1
 74
1
 75
0
 76
0
 77
0
 78
0
  0
ENDTAB
  0
TABLE
  2
LTYPE
  5
5
100
AcDbSymbolTable
 70
6
  0
LTYPE
  5
14
100
AcDbSymbolTableRecord
100
AcDbLinetypeTableRecord
  2
BYBLOCK
 70
0
  3

 72
65
 73
0
 40
0.0
  0
LTYPE
  5
15
100
AcDbSymbolTableRecord
100
AcDbLinetypeTableRecord
  2
BYLAYER
 70
0
  3

 72
65
 73
0
 40
0.0
  0
LTYPE
  5
16
100
AcDbSymbolTableRecord
100
AcDbLinetypeTableRecord
  2
CONTINUOUS
 70
64
  3
Solid line
 72
65
 73
0
 40
0.0
  0
LTYPE
  5
1F5
100
AcDbSymbolTableRecord
100
AcDbLinetypeTableRecord
  2
CENTER
 70
64
  3
____ _ ____ _ ____ _ ____ _ ____ _ ____ _ ____
 72
65
 73
4
 40
0.6
 49
0.375
 74
0
 49
-0.075
 74
0
 49
0.075
 74
0
 49
-0.075
 74
0
  0
LTYPE
  5
1F6
100
AcDbSymbolTableRecord
100
AcDbLinetypeTableRecord
  2
HIDDEN
 70
64
  3
- - - - - - - - - - - - - - - - - - - -
 72
65
 73
2
 40
0.2
 49
0.1
 74
0
 49
-0.1
 74
0
  0
LTYPE
  5
1F7
100
AcDbSymbolTableRecord
100
AcDbLinetypeTableRecord
  2
PHANTOM
 70
64
  3
_____ _ _ _____ _ _ _____ _ _ _____
 72
65
 73
6
 40
0.8
 49
0.45
 74
0
 49
-0.05
 74
0
 49
0.1
 74
0
 49
-0.05
 74
0
 49
0.1
 74
0
 49
-0.05
 74
0
  0
LTYPE
  5
1F8
100
AcDbSymbolTableRecord
100
AcDbLinetypeTableRecord
  2
DOT
 70
64
  3
. . . . . . . . . . . . . . . . . . . .
 72
65
 73
2
 40
0.2
 49
0.1
 74
0
 49
-0.1
 74
0
  0
LTYPE
  5
1F9
100
AcDbSymbolTableRecord
100
AcDbLinetypeTableRecord
  2
DASHED
 70
64
  3
- - - - - - - - - - - - - - - - - - - -
 72
65
 73
2
 40
0.2
 49
0.1
 74
0
 49
-0.1
 74
0
  0
ENDTAB
  0
TABLE
  2
LAYER
  5
2
100
AcDbSymbolTable
 70
36
  0
LAYER
  5
10
100
AcDbSymbolTableRecord
100
AcDbLayerTableRecord
  2
0
 70
0
 62
7
  6
CONTINUOUS
370
-3
390
F
  0
LAYER
  5
1FA
100
AcDbSymbolTableRecord
100
AcDbLayerTableRecord
  2
DEFAULT_1
 70
0
 62
7
  6
CENTER
370
-3
390
F
  0
LAYER
  5
1FB
100
AcDbSymbolTableRecord
100
AcDbLayerTableRecord
  2
DEFAULT_2
 70
0
 62
7
  6
HIDDEN
370
-3
390
F
  0
LAYER
  5
1FC
100
AcDbSymbolTableRecord
100
AcDbLayerTableRecord
  2
DEFAULT_3
 70
0
 62
7
  6
PHANTOM
370
-3
390
F
  0
LAYER
  5
1FD
100
AcDbSymbolTableRecord
100
AcDbLayerTableRecord
  2
00_COMPONENTS
 70
0
 62
7
  6
CONTINUOUS
370
-3
390
F
  0
LAYER
  5
1FE
100
AcDbSymbolTableRecord
100
AcDbLayerTableRecord
  2
01_1_DEFAULT_DATUMS
 70
0
 62
7
  6
CONTINUOUS
370
-3
390
F
  0
LAYER
  5
1FF
100
AcDbSymbolTableRecord
100
AcDbLayerTableRecord
  2
01_PLANES
 70
0
 62
7
  6
CONTINUOUS
370
-3
390
F
  0
LAYER
  5
200
100
AcDbSymbolTableRecord
100
AcDbLayerTableRecord
  2
02_COORD_SYS
 70
0
 62
7
  6
CONTINUOUS
370
-3
390
F
  0
LAYER
  5
201
100
AcDbSymbolTableRecord
100
AcDbLayerTableRecord
  2
03_AXES
 70
0
 62
7
  6
CONTINUOUS
370
-3
390
F
  0
LAYER
  5
202
100
AcDbSymbolTableRecord
100
AcDbLayerTableRecord
  2
04_POINTS
 70
0
 62
7
  6
CONTINUOUS
370
-3
390
F
  0
LAYER
  5
203
100
AcDbSymbolTableRecord
100
AcDbLayerTableRecord
  2
05_CURVES
 70
0
 62
7
  6
CONTINUOUS
370
-3
390
F
  0
LAYER
  5
204
100
AcDbSymbolTableRecord
100
AcDbLayerTableRecord
  2
06_SURFS
 70
0
 62
7
  6
CONTINUOUS
370
-3
390
F
  0
LAYER
  5
205
100
AcDbSymbolTableRecord
100
AcDbLayerTableRecord
  2
07_COSMETICS
 70
0
 62
7
  6
CONTINUOUS
370
-3
390
F
  0
LAYER
  5
206
100
AcDbSymbolTableRecord
100
AcDbLayerTableRecord
  2
10_NOTES
 70
0
 62
7
  6
CONTINUOUS
370
-3
390
F
  0
LAYER
  5
207
100
AcDbSymbolTableRecord
100
AcDbLayerTableRecord
  2
11_NOTES_PUB
 70
0
 62
7
  6
CONTINUOUS
370
-3
390
F
  0
LAYER
  5
208
100
AcDbSymbolTableRecord
100
AcDbLayerTableRecord
  2
13_REF_GTOL
 70
0
 62
7
  6
CONTINUOUS
370
-3
390
F
  0
LAYER
  5
209
100
AcDbSymbolTableRecord
100
AcDbLayerTableRecord
  2
16_MISC
 70
0
 62
7
  6
CONTINUOUS
370
-3
390
F
  0
LAYER
  5
20A
100
AcDbSymbolTableRecord
100
AcDbLayerTableRecord
  2
17_NO_PRINT
 70
0
 62
7
  6
CONTINUOUS
370
-3
390
F
  0
LAYER
  5
20B
100
AcDbSymbolTableRecord
100
AcDbLayerTableRecord
  2
18_DATUM_CAMS_JOINTS
 70
0
 62
7
  6
CONTINUOUS
370
-3
390
F
  0
LAYER
  5
20C
100
AcDbSymbolTableRecord
100
AcDbLayerTableRecord
  2
19_DATUM_FUNCTIONAL
 70
0
 62
7
  6
CONTINUOUS
370
-3
390
F
  0
LAYER
  5
20D
100
AcDbSymbolTableRecord
100
AcDbLayerTableRecord
  2
20_DATUM_KINEMATIC_SCHEME
 70
0
 62
7
  6
CONTINUOUS
370
-3
390
F
  0
ENDTAB
  0
TABLE
  2
STYLE
  5
3
100
AcDbSymbolTable
 70
1
  0
STYLE
  5
11
100
AcDbSymbolTableRecord
100
AcDbTextStyleTableRecord
  2
STANDARD
 70
0
 40
0.0
 41
1.0
 50
0.0
 71
0
 42
0.2
  3
ARIAL.TTF
  4

  0
STYLE
  5
20E
100
AcDbSymbolTableRecord
100
AcDbTextStyleTableRecord
  2
TEXTSTYLE_1
 70
0
 40
0.0
 41
0.8
 50
0.0
 71
0
 42
0.2
  3
gdt
  4

  0
ENDTAB
  0
TABLE
  2
VIEW
  5
6
100
AcDbSymbolTable
 70
0
  0
ENDTAB
  0
TABLE
  2
UCS
  5
7
100
AcDbSymbolTable
 70
0
  0
ENDTAB
  0
TABLE
  2
APPID
  5
9
100
AcDbSymbolTable
 70
1
  0
APPID
  5
20F
100
AcDbSymbolTableRecord
100
AcDbRegAppTableRecord
  2
ACAD
 70
0
  0
ENDTAB
  0
TABLE
  2
BLOCK_RECORD
  5
1
100
AcDbSymbolTable
 70
0
  0
BLOCK_RECORD
  5
210
100
AcDbSymbolTableRecord
100
AcDbBlockTableRecord
  2
*Model_Space
  0
BLOCK_RECORD
  5
211
100
AcDbSymbolTableRecord
100
AcDbBlockTableRecord
  2
*Paper_Space
  0
BLOCK_RECORD
  5
212
100
AcDbSymbolTableRecord
100
AcDbBlockTableRecord
  2
_FILLED
  0
ENDTAB
  0
TABLE
  2
DIMSTYLE
  5
A
100
AcDbSymbolTable
 70
1
100
AcDbDimStyleTable
 71
0
  0
DIMSTYLE
105
213
100
AcDbSymbolTableRecord
100
AcDbDimStyleTableRecord
  2
STANDARD
 70
0
  3

  4

 40
1.0
 41
0.733270772
 42
1.0
 43
0.38
 44
1.0
 45
0.0
 46
0.0
 47
0.01
 48
0.01
140
1.0265790808
141
0.09
142
0.0
143
25.4
144
1.0
145
0.0
146
1.0
147
0.625
 71
1
 72
0
 73
0
 74
0
 75
0
 76
0
 77
1
 78
8
 79
2
170
0
171
1
172
0
173
0
174
0
175
0
176
0
177
0
178
0
270
2
179
2
271
2
272
2
273
2
274
2
275
0
280
0
281
0
282
0
283
1
284
8
285
0
286
0
287
3
288
0
340
11
278
46
341
212
342
212
343
212
344
212
  0
ENDTAB
  0
ENDSEC
  0
SECTION
  2
BLOCKS
  0
BLOCK
  5
20
100
AcDbEntity
  8
0
100
AcDbBlockBegin
  2
*Model_Space
 70
0
 10
0.0
 20
0.0
 30
0.0
  3
*Model_Space
  1

  0
ENDBLK
  5
21
100
AcDbEntity
  8
0
100
AcDbBlockEnd
  0
BLOCK
  5
1C
100
AcDbEntity
  8
0
100
AcDbBlockBegin
  2
*Paper_Space
 70
0
 10
0.0
 20
0.0
 30
0.0
  3
*Paper_Space
  1

  0
ENDBLK
  5
1D
100
AcDbEntity
  8
0
100
AcDbBlockEnd
  0
BLOCK
  5
214
100
AcDbEntity
  8
0
100
AcDbBlockBegin
  2
_FILLED
 70
64
 10
0.0
 20
0.0
  3
_FILLED
  1

  0
SOLID
  5
215
100
AcDbEntity
  8
0
  6
BYBLOCK
 62
0
100
AcDbTrace
 10
0.0
 20
0.0
 11
-1.0
 21
0.25
 12
-1.0
 22
-0.25
 13
-1.0
 23
-0.25
  0
ENDBLK
  5
216
100
AcDbEntity
  8
0
  6
BYBLOCK
 62
0
100
AcDbBlockEnd
  0
ENDSEC
  0
SECTION
  2
ENTITIES
  0
LINE
  5
217
100
AcDbEntity
  8
0
100
AcDbLine
 62
7
  6
BYLAYER
 10
15.293260546
 20
28.0612701053
 11
16.8097878765
 21
27.1857224503
  0
LINE
  5
218
100
AcDbEntity
  8
0
100
AcDbLine
 62
7
  6
BYLAYER
 10
22.3431445057
 20
23.9911097827
 11
23.8596718363
 21
23.1155621277
  0
LINE
  5
219
100
AcDbEntity
  8
0
100
AcDbLine
 62
7
  6
BYLAYER
 10
23.1634150458
 20
24.1061098139
 11
21.6468877152
 21
24.9816574689
  0
LINE
  5
21A
100
AcDbEntity
  8
0
100
AcDbLine
 62
7
  6
BYLAYER
 10
16.1135310861
 20
28.1762701365
 11
14.5970037555
 21
29.0518177915
  0
LWPOLYLINE
  5
21B
100
AcDbEntity
  8
0
100
AcDbPolyline
 62
7
  6
BYLAYER
 90
4
 70
0
 10
15.4571434562
 20
48.2360255619
 10
16.4720817852
 20
51.1161899117
 10
18.4669707088
 20
54.5689866551
 10
20.6676335108
 20
57.1352495555
  0
LINE
  5
21C
100
AcDbEntity
  8
0
100
AcDbLine
 62
7
  6
BYLAYER
 10
13.6437379149
 20
40.6096810965
 11
9.7345805647
 21
42.866583087
  0
LWPOLYLINE
  5
21D
100
AcDbEntity
  8
0
100
AcDbPolyline
 62
7
  6
BYLAYER
 90
6
 70
0
 10
21.44844419
 20
41.5043648417
 10
21.7847219339
 20
43.4048138883
 10
23.361164443
 20
47.4748134754
 10
25.6753523119
 20
51.2962389151
 10
28.5240229656
 20
54.5296644875
 10
30.5199020472
 20
56.0306013955
  0
LINE
  5
21E
100
AcDbEntity
  8
0
100
AcDbLine
 62
7
  6
BYLAYER
 10
14.5970037555
 20
46.4992651242
 11
16.1135310861
 21
45.6237174692
  0
LINE
  5
21F
100
AcDbEntity
  8
0
100
AcDbLine
 62
7
  6
BYLAYER
 10
21.6468877152
 20
42.4291048016
 11
23.1634150458
 21
41.5535571466
  0
LINE
  5
220
100
AcDbEntity
  8
0
100
AcDbLine
 62
7
  6
BYLAYER
 10
23.8596718363
 20
43.3480681245
 11
22.3431445057
 21
44.2236157795
  0
LINE
  5
221
100
AcDbEntity
  8
0
100
AcDbLine
 62
7
  6
BYLAYER
 10
16.8097878765
 20
47.4182284471
 11
15.293260546
 21
48.2937761021
  0
LINE
  5
222
100
AcDbEntity
  8
0
100
AcDbLine
 62
7
  6
BYLAYER
 10
31.6610971273
 20
32.3937280735
 11
29.5496122537
 21
31.5425417594
  0
LWPOLYLINE
  5
223
100
AcDbEntity
  8
0
100
AcDbPolyline
 62
7
  6
BYLAYER
 90
8
 70
0
 10
41.9356659885
 20
53.0195476478
 10
42.2376761291
 20
51.6676947389
 10
42.2383839203
 20
49.8388653555
 10
41.5374723206
 20
45.8777147725
 10
39.9610298116
 20
41.8077151854
 10
37.6468419427
 20
37.9862897457
 10
34.7981712889
 20
34.7528641733
 10
31.6610971273
 20
32.3937280735
  0
LINE
  5
224
100
AcDbEntity
  8
0
100
AcDbLine
 62
7
  6
BYLAYER
 10
25.8973329927
 20
62.4025749223
 11
22.2343684768
 21
64.5173406292
  0
LINE
  5
225
100
AcDbEntity
  8
0
100
AcDbLine
 62
7
  6
BYLAYER
 10
28.378698032
 20
64.5723355272
 11
29.8952253626
 21
63.6967878722
  0
LINE
  5
226
100
AcDbEntity
  8
0
100
AcDbLine
 62
7
  6
BYLAYER
 10
35.4285819918
 20
60.5021752046
 11
36.9451093223
 21
59.6266275496
  0
LINE
  5
227
100
AcDbEntity
  8
0
100
AcDbLine
 62
7
  6
BYLAYER
 10
38.3376229032
 20
60.4305908414
 11
36.8210955726
 21
61.3061384964
  0
LINE
  5
228
100
AcDbEntity
  8
0
100
AcDbLine
 62
7
  6
BYLAYER
 10
31.2877389435
 20
64.500751164
 11
29.7712116129
 21
65.376298819
  0
LWPOLYLINE
  5
229
100
AcDbEntity
  8
0
100
AcDbPolyline
 62
7
  6
BYLAYER
 90
3
 70
0
 10
43.1205276893
 20
61.2397591088
 10
41.8985151633
 20
62.3731773078
 10
38.9000726608
 20
63.2987786872
  0
LINE
  5
22A
100
AcDbEntity
  8
0
100
AcDbLine
 62
7
  6
BYLAYER
 10
55.4057666263
 20
41.3428090622
 11
55.4057533783
 21
43.1799154038
  0
LINE
  5
22B
100
AcDbEntity
  8
0
100
AcDbLine
 62
7
  6
BYLAYER
 10
44.7991958205
 20
24.8086148545
 11
46.3901927021
 21
25.7272035953
  0
LINE
  5
22C
100
AcDbEntity
  8
0
100
AcDbLine
 62
7
  6
BYLAYER
 10
42.856649099
 20
64.2074109114
 11
44.3731764296
 21
63.3318632564
  0
LINE
  5
22D
100
AcDbEntity
  8
0
100
AcDbLine
 62
7
  6
BYLAYER
 10
49.9065330587
 20
60.1372505888
 11
51.4230603893
 21
59.2617029338
  0
ARC
  5
22E
100
AcDbEntity
  8
0
100
AcDbCircle
 62
7
  6
BYLAYER
 10
-22.07931854
 20
48.6127570412
 40
68.5377865284
100
AcDbArc
 50
10.376329071
 51
11.5548781003
  0
ARC
  5
22F
100
AcDbEntity
  8
0
100
AcDbCircle
 62
7
  6
BYLAYER
 10
-4.4695764018
 20
75.3135661443
 40
67.7887732501
100
AcDbArc
 50
309.1593386535
 51
310.1346689151
  0
ARC
  5
230
100
AcDbEntity
  8
0
100
AcDbCircle
 62
7
  6
BYLAYER
 10
51.3900099572
 20
32.9690351338
 40
37.4776059341
100
AcDbArc
 50
157.3226040064
 51
160.2656372865
  0
ARC
  5
231
100
AcDbEntity
  8
0
100
AcDbCircle
 62
7
  6
BYLAYER
 10
58.4398939169
 20
28.8988748113
 40
37.4776059341
100
AcDbArc
 50
157.3226040064
 51
160.2656372865
  0
ARC
  5
232
100
AcDbEntity
  8
0
100
AcDbCircle
 62
7
  6
BYLAYER
 10
49.614420543
 20
33.9450969328
 40
37.1998201265
100
AcDbArc
 50
157.3116131644
 51
160.2766281285
  0
ARC
  5
233
100
AcDbEntity
  8
0
100
AcDbCircle
 62
7
  6
BYLAYER
 10
56.6643045027
 20
29.8749366103
 40
37.1998201265
100
AcDbArc
 50
157.3116131644
 51
160.2766281285
  0
ARC
  5
234
100
AcDbEntity
  8
0
100
AcDbCircle
 62
7
  6
BYLAYER
 10
40.3752397412
 20
45.4315318424
 40
22.5895413561
100
AcDbArc
 50
120.0161512318
 51
122.077521472
  0
ARC
  5
235
100
AcDbEntity
  8
0
100
AcDbCircle
 62
7
  6
BYLAYER
 10
47.4251237009
 20
41.3613715199
 40
22.589541356
100
AcDbArc
 50
120.0161512318
 51
122.077521472
  0
ARC
  5
236
100
AcDbEntity
  8
0
100
AcDbCircle
 62
7
  6
BYLAYER
 10
41.7708787857
 20
44.7568040536
 40
22.3551813071
100
AcDbArc
 50
120.0053448831
 51
122.0883278207
  0
ARC
  5
237
100
AcDbEntity
  8
0
100
AcDbCircle
 62
7
  6
BYLAYER
 10
26.4619694802
 20
41.6906213305
 40
22.3551813071
100
AcDbArc
 50
300.0053448831
 51
302.0883278207
  0
ARC
  5
238
100
AcDbEntity
  8
0
100
AcDbCircle
 62
7
  6
BYLAYER
 10
48.8207627454
 20
40.686643731
 40
22.3551813071
100
AcDbArc
 50
120.0053448831
 51
122.0883278207
  0
ARC
  5
239
100
AcDbEntity
  8
0
100
AcDbCircle
 62
7
  6
BYLAYER
 10
39.6741758016
 20
46.6372494918
 40
21.1948264774
100
AcDbArc
 50
117.854961859
 51
120.0056430064
  0
ARC
  5
23A
100
AcDbEntity
  8
0
100
AcDbCircle
 62
7
  6
BYLAYER
 10
46.7240597613
 20
42.5670891692
 40
21.1948264774
100
AcDbArc
 50
117.854961859
 51
120.0056430064
  0
ARC
  5
23B
100
AcDbEntity
  8
0
100
AcDbCircle
 62
7
  6
BYLAYER
 10
41.0797062374
 20
45.962521264
 40
20.9654141698
100
AcDbArc
 50
117.8431936293
 51
120.0174112361
  0
ARC
  5
23C
100
AcDbEntity
  8
0
100
AcDbCircle
 62
7
  6
BYLAYER
 10
27.1531420284
 20
40.4849041201
 40
20.9654141697
100
AcDbArc
 50
297.8431936293
 51
300.0174112361
  0
ARC
  5
23D
100
AcDbEntity
  8
0
100
AcDbCircle
 62
7
  6
BYLAYER
 10
48.1295901972
 20
41.8923609414
 40
20.9654141698
100
AcDbArc
 50
117.8431936293
 51
120.0174112361
  0
ARC
  5
23E
100
AcDbEntity
  8
0
100
AcDbCircle
 62
7
  6
BYLAYER
 10
33.1198368394
 20
44.7386739189
 40
17.6109460855
100
AcDbArc
 50
131.2230057459
 51
135.0706091994
  0
SPLINE
  5
23F
100
AcDbEntity
  8
0
100
AcDbSpline
 62
7
  6
BYLAYER
 70
0
 71
3
 72
11
 73
7
 74
0
 42
0.0000001
 43
0.0000001
 44
0.0000000001
 40
0.0
 40
0.0
 40
0.0
 40
0.0
 40
0.264232161
 40
0.5183106768
 40
0.7631248077
 40
1.0
 40
1.0
 40
1.0
 40
1.0
 10
13.5273887813
 20
38.3930699808
 30
0.0
 10
13.5273887813
 20
39.1152141672
 30
0.0
 10
13.5733652139
 20
40.5323047344
 30
0.0
 10
13.7859813274
 20
42.6086757996
 30
0.0
 10
14.1260336077
 20
44.5920023443
 30
0.0
 10
14.4300264813
 20
45.8737919875
 30
0.0
 10
14.5970037555
 20
46.4992651242
 30
0.0
  0
SPLINE
  5
240
100
AcDbEntity
  8
0
100
AcDbSpline
 62
7
  6
BYLAYER
 70
0
 71
3
 72
9
 73
5
 74
0
 42
0.0000001
 43
0.0000001
 44
0.0000000001
 40
0.0
 40
0.0
 40
0.0
 40
0.0
 40
0.246619501
 40
1.0
 40
1.0
 40
1.0
 40
1.0
 10
15.293260546
 20
28.0612701053
 30
0.0
 10
15.2307270172
 20
28.1387577032
 30
0.0
 10
14.9824957876
 20
28.4572341458
 30
0.0
 10
14.755677654
 20
28.7923046795
 30
0.0
 10
14.5970037555
 20
29.0518177915
 30
0.0
  0
SPLINE
  5
241
100
AcDbEntity
  8
0
100
AcDbSpline
 62
7
  6
BYLAYER
 70
0
 71
3
 72
11
 73
7
 74
0
 42
0.0000001
 43
0.0000001
 44
0.0000000001
 40
0.0
 40
0.0
 40
0.0
 40
0.0
 40
0.238927915
 40
0.4860617964
 40
0.7402068519
 40
1.0
 40
1.0
 40
1.0
 40
1.0
 10
13.5273887813
 20
38.3930699808
 30
0.0
 10
13.5273887813
 20
37.6430572737
 30
0.0
 10
13.5789190338
 20
36.1169268731
 30
0.0
 10
13.7951912929
 20
33.802346445
 30
0.0
 10
14.1372500737
 20
31.4370581502
 30
0.0
 10
14.4339513215
 20
29.8508615084
 30
0.0
 10
14.5970037555
 20
29.0518177915
 30
0.0
  0
SPLINE
  5
242
100
AcDbEntity
  8
0
100
AcDbSpline
 62
7
  6
BYLAYER
 70
0
 71
3
 72
11
 73
7
 74
0
 42
0.0000001
 43
0.0000001
 44
0.0000000001
 40
0.0
 40
0.0
 40
0.0
 40
0.0
 40
0.2542129665
 40
0.5056172714
 40
0.7541534647
 40
1.0
 40
1.0
 40
1.0
 40
1.0
 10
20.7663643148
 20
57.0505843376
 30
0.0
 10
20.2170230283
 20
56.3671922243
 30
0.0
 10
19.1669283105
 20
54.9731242189
 30
0.0
 10
17.733797619
 20
52.8005298194
 30
0.0
 10
16.443300653
 20
50.5738973593
 30
0.0
 10
15.6641076901
 20
49.0563386103
 30
0.0
 10
15.293260546
 20
48.2937761021
 30
0.0
  0
SPLINE
  5
243
100
AcDbEntity
  8
0
100
AcDbSpline
 62
7
  6
BYLAYER
 70
0
 71
3
 72
11
 73
7
 74
0
 42
0.0000001
 43
0.0000001
 44
0.0000000001
 40
0.0
 40
0.0
 40
0.0
 40
0.0
 40
0.247759428
 40
0.4973834386
 40
0.7482956888
 40
1.0
 40
1.0
 40
1.0
 40
1.0
 10
20.7663643148
 20
57.0505843376
 30
0.0
 10
21.3210617519
 20
57.7406396148
 30
0.0
 10
22.4788685015
 20
59.0909793483
 30
0.0
 10
24.3393814423
 20
61.013540247
 30
0.0
 10
26.3100317545
 20
62.8433958789
 30
0.0
 10
27.6813650051
 20
64.00422226
 30
0.0
 10
28.378698032
 20
64.5723355272
 30
0.0
  0
SPLINE
  5
244
100
AcDbEntity
  8
0
100
AcDbSpline
 62
7
  6
BYLAYER
 70
0
 71
3
 72
11
 73
7
 74
0
 42
0.0000001
 43
0.0000001
 44
0.0000000001
 40
0.0
 40
0.0
 40
0.0
 40
0.0
 40
0.2892845845
 40
0.5508099545
 40
0.7865899745
 40
1.0
 40
1.0
 40
1.0
 40
1.0
 10
35.2443153817
 20
65.4093833881
 30
0.0
 10
34.7176624183
 20
65.4564279199
 30
0.0
 10
33.7128719814
 20
65.5257339979
 30
0.0
 10
32.274743508
 20
65.5529650449
 30
0.0
 10
30.9759000366
 20
65.5049372691
 30
0.0
 10
30.1581076474
 20
65.4259394714
 30
0.0
 10
29.7712116129
 20
65.376298819
 30
0.0
  0
SPLINE
  5
245
100
AcDbEntity
  8
0
100
AcDbSpline
 62
7
  6
BYLAYER
 70
0
 71
3
 72
9
 73
5
 74
0
 42
0.0000001
 43
0.0000001
 44
0.0000000001
 40
0.0
 40
0.0
 40
0.0
 40
0.0
 40
0.2536628551
 40
1.0
 40
1.0
 40
1.0
 40
1.0
 10
45.06943322
 20
62.3413155702
 30
0.0
 10
45.0160081931
 20
62.4286928586
 30
0.0
 10
44.8000530896
 20
62.7698507854
 30
0.0
 10
44.5624183446
 20
63.097366632
 30
0.0
 10
44.3731764296
 20
63.3318632564
 30
0.0
  0
SPLINE
  5
246
100
AcDbEntity
  8
0
100
AcDbSpline
 62
7
  6
BYLAYER
 70
0
 71
3
 72
11
 73
7
 74
0
 42
0.0000001
 43
0.0000001
 44
0.0000000001
 40
0.0
 40
0.0
 40
0.0
 40
0.0
 40
0.2254266516
 40
0.469016401
 40
0.7281628285
 40
1.0
 40
1.0
 40
1.0
 40
1.0
 10
35.2443153817
 20
65.4093833881
 30
0.0
 10
35.8213883984
 20
65.3578349648
 30
0.0
 10
37.0197290567
 20
65.2240420725
 30
0.0
 10
38.8716095336
 20
64.9522504025
 30
0.0
 10
40.8329111787
 20
64.6100709996
 30
0.0
 10
42.1721455471
 20
64.3472960733
 30
0.0
 10
42.856649099
 20
64.2074109114
 30
0.0
  0
SPLINE
  5
247
100
AcDbEntity
  8
0
100
AcDbSpline
 62
7
  6
BYLAYER
 70
0
 71
3
 72
9
 73
5
 74
0
 42
0.0000001
 43
0.0000001
 44
0.0000000001
 40
0.0
 40
0.0
 40
0.0
 40
0.0
 40
0.4857487888
 40
1.0
 40
1.0
 40
1.0
 40
1.0
 10
21.3914050307
 20
26.3564962365
 30
0.0
 10
20.645975287
 20
26.4695304085
 30
0.0
 10
19.1153646232
 20
26.728761414
 30
0.0
 10
17.5918158615
 20
27.0259071929
 30
0.0
 10
16.8097878765
 20
27.1857224503
 30
0.0
  0
SPLINE
  5
248
100
AcDbEntity
  8
0
100
AcDbSpline
 62
7
  6
BYLAYER
 70
0
 71
3
 72
11
 73
7
 74
0
 42
0.0000001
 43
0.0000001
 44
0.0000000001
 40
0.0
 40
0.0
 40
0.0
 40
0.0
 40
0.2892845845
 40
0.5508099545
 40
0.7865899745
 40
1.0
 40
1.0
 40
1.0
 40
1.0
 10
38.9000726608
 20
63.2987786872
 30
0.0
 10
39.4267256242
 20
63.2517341554
 30
0.0
 10
40.4315160611
 20
63.1824280774
 30
0.0
 10
41.8696445345
 20
63.1551970304
 30
0.0
 10
43.1684880059
 20
63.2032248062
 30
0.0
 10
43.9862803951
 20
63.2822226039
 30
0.0
 10
44.3731764296
 20
63.3318632564
 30
0.0
  0
SPLINE
  5
249
100
AcDbEntity
  8
0
100
AcDbSpline
 62
7
  6
BYLAYER
 70
0
 71
3
 72
11
 73
7
 74
0
 42
0.0000001
 43
0.0000001
 44
0.0000000001
 40
0.0
 40
0.0
 40
0.0
 40
0.0
 40
0.2254266516
 40
0.469016401
 40
0.7281628285
 40
1.0
 40
1.0
 40
1.0
 40
1.0
 10
38.9000726608
 20
63.2987786872
 30
0.0
 10
38.3229996441
 20
63.3503271106
 30
0.0
 10
37.1246589858
 20
63.4841200028
 30
0.0
 10
35.2727785089
 20
63.7559116728
 30
0.0
 10
33.3114768638
 20
64.0980910758
 30
0.0
 10
31.9722424954
 20
64.360866002
 30
0.0
 10
31.2877389435
 20
64.500751164
 30
0.0
  0
SPLINE
  5
24A
100
AcDbEntity
  8
0
100
AcDbSpline
 62
7
  6
BYLAYER
 70
0
 71
3
 72
9
 73
5
 74
0
 42
0.0000001
 43
0.0000001
 44
0.0000000001
 40
0.0
 40
0.0
 40
0.0
 40
0.0
 40
0.2536628551
 40
1.0
 40
1.0
 40
1.0
 40
1.0
 10
16.1135310861
 20
28.1762701365
 30
0.0
 10
16.166956113
 20
28.0888928481
 30
0.0
 10
16.3829112165
 20
27.7477349213
 30
0.0
 10
16.6205459615
 20
27.4202190747
 30
0.0
 10
16.8097878765
 20
27.1857224503
 30
0.0
  0
SPLINE
  5
24B
100
AcDbEntity
  8
0
100
AcDbSpline
 62
7
  6
BYLAYER
 70
0
 71
3
 72
11
 73
7
 74
0
 42
0.0000001
 43
0.0000001
 44
0.0000000001
 40
0.0
 40
0.0
 40
0.0
 40
0.0
 40
0.264232161
 40
0.5183106768
 40
0.7631248077
 40
1.0
 40
1.0
 40
1.0
 40
1.0
 10
17.1831460603
 20
36.2824652799
 30
0.0
 10
17.1831460603
 20
35.5603210934
 30
0.0
 10
17.1371696278
 20
34.1432305263
 30
0.0
 10
16.9245535143
 20
32.0668594611
 30
0.0
 10
16.5845012339
 20
30.0835329164
 30
0.0
 10
16.2805083604
 20
28.8017432731
 30
0.0
 10
16.1135310861
 20
28.1762701365
 30
0.0
  0
SPLINE
  5
24C
100
AcDbEntity
  8
0
100
AcDbSpline
 62
7
  6
BYLAYER
 70
0
 71
3
 72
11
 73
7
 74
0
 42
0.0000001
 43
0.0000001
 44
0.0000000001
 40
0.0
 40
0.0
 40
0.0
 40
0.0
 40
0.238927915
 40
0.4860617964
 40
0.7402068519
 40
1.0
 40
1.0
 40
1.0
 40
1.0
 10
17.1831460603
 20
36.2824652799
 30
0.0
 10
17.1831460603
 20
37.0324779869
 30
0.0
 10
17.1316158078
 20
38.5586083876
 30
0.0
 10
16.9153435488
 20
40.8731888157
 30
0.0
 10
16.573284768
 20
43.2384771104
 30
0.0
 10
16.2765835201
 20
44.8246737523
 30
0.0
 10
16.1135310861
 20
45.6237174692
 30
0.0
  0
SPLINE
  5
24D
100
AcDbEntity
  8
0
100
AcDbSpline
 62
7
  6
BYLAYER
 70
0
 71
3
 72
12
 73
8
 74
0
 42
0.0000001
 43
0.0000001
 44
0.0000000001
 40
0.0
 40
0.0
 40
0.0
 40
0.0
 40
0.2233590417
 40
0.3411489441
 40
0.4633937863
 40
0.7219826221
 40
1.0
 40
1.0
 40
1.0
 40
1.0
 10
38.9000726608
 20
63.2987786872
 30
0.0
 10
38.336132376
 20
63.349153998
 30
0.0
 10
37.4648093531
 20
63.3369276887
 30
0.0
 10
36.301515941
 20
63.1688696191
 30
0.0
 10
35.0680124789
 20
62.8868902137
 30
0.0
 10
33.4878861017
 20
62.328257513
 30
0.0
 10
32.2714185704
 20
61.7115184673
 30
0.0
 10
31.6610971273
 20
61.3591513211
 30
0.0
  0
SPLINE
  5
24E
100
AcDbEntity
  8
0
100
AcDbSpline
 62
7
  6
BYLAYER
 70
0
 71
3
 72
11
 73
7
 74
0
 42
0.0000001
 43
0.0000001
 44
0.0000000001
 40
0.0
 40
0.0
 40
0.0
 40
0.0
 40
0.232065918
 40
0.4774810713
 40
0.7342754496
 40
1.0
 40
1.0
 40
1.0
 40
1.0
 10
31.6610971273
 20
61.3591513211
 30
0.0
 10
31.0095540957
 20
60.9829850219
 30
0.0
 10
29.7132905556
 20
60.1305362824
 30
0.0
 10
27.8619006297
 20
58.6289769148
 30
0.0
 10
26.0750767125
 20
56.8910509466
 30
0.0
 10
24.9618403582
 20
55.6114011301
 30
0.0
 10
24.4221215938
 20
54.9399796367
 30
0.0
  0
SPLINE
  5
24F
100
AcDbEntity
  8
0
100
AcDbSpline
 62
7
  6
BYLAYER
 70
0
 71
3
 72
15
 73
11
 74
0
 42
0.0000001
 43
0.0000001
 44
0.0000000001
 40
0.0
 40
0.0
 40
0.0
 40
0.0
 40
0.129847411
 40
0.2611866596
 40
0.3925260486
 40
0.5223738886
 40
0.6492905064
 40
0.7719421396
 40
0.8891589506
 40
1.0
 40
1.0
 40
1.0
 40
1.0
 10
24.4221215938
 20
54.9399796367
 30
0.0
 10
23.8699362318
 20
54.2530494336
 30
0.0
 10
22.8138254262
 20
52.826505989
 30
0.0
 10
21.3946039355
 20
50.5688289845
 30
0.0
 10
20.1489470238
 20
48.2107413868
 30
0.0
 10
19.098060104
 20
45.7922893444
 30
0.0
 10
18.2596675931
 20
43.3543135809
 30
0.0
 10
17.6479425425
 20
40.9377781027
 30
0.0
 10
17.2732600109
 20
38.583654096
 30
0.0
 10
17.1831460603
 20
37.0348099499
 30
0.0
 10
17.1831460603
 20
36.2824652799
 30
0.0
  0
SPLINE
  5
250
100
AcDbEntity
  8
0
100
AcDbSpline
 62
7
  6
BYLAYER
 70
0
 71
3
 72
15
 73
11
 74
0
 42
0.0000001
 43
0.0000001
 44
0.0000000001
 40
0.0
 40
0.0
 40
0.0
 40
0.0
 40
0.1481788441
 40
0.2888912293
 40
0.4221043885
 40
0.5481837583
 40
0.6677921893
 40
0.7819727025
 40
0.892136107
 40
1.0
 40
1.0
 40
1.0
 40
1.0
 10
17.1831460603
 20
36.2824652799
 30
0.0
 10
17.1831460603
 20
35.7616001484
 30
0.0
 10
17.2241859118
 20
34.7454517218
 30
0.0
 10
17.4193225416
 20
33.2723668596
 30
0.0
 10
17.745297614
 20
31.9018133957
 30
0.0
 10
18.199575416
 20
30.6463966749
 30
0.0
 10
18.7789144369
 20
29.5176578178
 30
0.0
 10
19.4789384451
 20
28.5264719873
 30
0.0
 10
20.2935066501
 20
27.6832652745
 30
0.0
 10
20.9116912133
 20
27.2233279613
 30
0.0
 10
21.2337166277
 20
27.0231853172
 30
0.0
  0
SPLINE
  5
251
100
AcDbEntity
  8
0
100
AcDbSpline
 62
7
  6
BYLAYER
 70
0
 71
3
 72
11
 73
7
 74
0
 42
0.0000001
 43
0.0000001
 44
0.0000000001
 40
0.0
 40
0.0
 40
0.0
 40
0.0
 40
0.247759428
 40
0.4973834386
 40
0.7482956888
 40
1.0
 40
1.0
 40
1.0
 40
1.0
 10
24.4221215938
 20
54.9399796367
 30
0.0
 10
23.8674241567
 20
54.2499243595
 30
0.0
 10
22.7096174071
 20
52.899584626
 30
0.0
 10
20.8491044663
 20
50.9770237273
 30
0.0
 10
18.8784541541
 20
49.1471680954
 30
0.0
 10
17.5071209035
 20
47.9863417143
 30
0.0
 10
16.8097878765
 20
47.4182284471
 30
0.0
  0
SPLINE
  5
252
100
AcDbEntity
  8
0
100
AcDbSpline
 62
7
  6
BYLAYER
 70
0
 71
3
 72
11
 73
7
 74
0
 42
0.0000001
 43
0.0000001
 44
0.0000000001
 40
0.0
 40
0.0
 40
0.0
 40
0.0
 40
0.2542129665
 40
0.5056172714
 40
0.7541534647
 40
1.0
 40
1.0
 40
1.0
 40
1.0
 10
24.4221215938
 20
54.9399796367
 30
0.0
 10
24.9714628803
 20
55.62337175
 30
0.0
 10
26.0215575981
 20
57.0174397554
 30
0.0
 10
27.4546882896
 20
59.1900341549
 30
0.0
 10
28.7451852556
 20
61.416666615
 30
0.0
 10
29.5243782185
 20
62.9342253639
 30
0.0
 10
29.8952253626
 20
63.6967878722
 30
0.0
  0
SPLINE
  5
253
100
AcDbEntity
  8
0
100
AcDbSpline
 62
7
  6
BYLAYER
 70
0
 71
3
 72
23
 73
19
 74
0
 42
0.0000001
 43
0.0000001
 44
0.0000000001
 40
0.0
 40
0.0
 40
0.0
 40
0.0
 40
0.0558381094
 40
0.1141790916
 40
0.1747829296
 40
0.2373529714
 40
0.3015484007
 40
0.3669921915
 40
0.4332821685
 40
0.4999996394
 40
0.5667170735
 40
0.633007149
 40
0.6984505184
 40
0.7626465987
 40
0.8252164605
 40
0.8858171002
 40
0.9441705092
 40
1.0
 40
1.0
 40
1.0
 40
1.0
 10
28.1044444823
 20
34.4473518134
 30
0.0
 10
28.104441385
 20
34.8576875548
 30
0.0
 10
28.1408536032
 20
35.6970598921
 30
0.0
 10
28.2954457469
 20
36.9732450735
 30
0.0
 10
28.5497277694
 20
38.2837620295
 30
0.0
 10
28.9012016718
 20
39.616038189
 30
0.0
 10
29.3465622227
 20
40.9574006418
 30
0.0
 10
29.8815305957
 20
42.295039494
 30
0.0
 10
30.5009564385
 20
43.6161894078
 30
0.0
 10
31.1989701971
 20
44.9081883138
 30
0.0
 10
31.9688689021
 20
46.1586838482
 30
0.0
 10
32.8032556749
 20
47.3557287168
 30
0.0
 10
33.694204966
 20
48.4878457079
 30
0.0
 10
34.633186126
 20
49.5442128329
 30
0.0
 10
35.611176929
 20
50.5147643639
 30
0.0
 10
36.619020362
 20
51.390293109
 30
0.0
 10
37.6469740625
 20
52.1622163159
 30
0.0
 10
38.3556742303
 20
52.6135049799
 30
0.0
 10
38.710981087
 20
52.8186402648
 30
0.0
  0
SPLINE
  5
254
100
AcDbEntity
  8
0
100
AcDbSpline
 62
7
  6
BYLAYER
 70
0
 71
3
 72
11
 73
7
 74
0
 42
0.0000001
 43
0.0000001
 44
0.0000000001
 40
0.0
 40
0.0
 40
0.0
 40
0.0
 40
0.264232161
 40
0.5183106768
 40
0.7631248077
 40
1.0
 40
1.0
 40
1.0
 40
1.0
 10
20.577272741
 20
34.3229096582
 30
0.0
 10
20.577272741
 20
35.0450538447
 30
0.0
 10
20.6232491736
 20
36.4621444118
 30
0.0
 10
20.8358652871
 20
38.538515477
 30
0.0
 10
21.1759175674
 20
40.5218420217
 30
0.0
 10
21.479910441
 20
41.8036316649
 30
0.0
 10
21.6468877152
 20
42.4291048016
 30
0.0
  0
SPLINE
  5
255
100
AcDbEntity
  8
0
100
AcDbSpline
 62
7
  6
BYLAYER
 70
0
 71
3
 72
9
 73
5
 74
0
 42
0.0000001
 43
0.0000001
 44
0.0000000001
 40
0.0
 40
0.0
 40
0.0
 40
0.0
 40
0.246619501
 40
1.0
 40
1.0
 40
1.0
 40
1.0
 10
22.3431445057
 20
23.9911097827
 30
0.0
 10
22.2806109769
 20
24.0685973806
 30
0.0
 10
22.0323797473
 20
24.3870738232
 30
0.0
 10
21.8055616137
 20
24.7221443569
 30
0.0
 10
21.6468877152
 20
24.9816574689
 30
0.0
  0
SPLINE
  5
256
100
AcDbEntity
  8
0
100
AcDbSpline
 62
7
  6
BYLAYER
 70
0
 71
3
 72
11
 73
7
 74
0
 42
0.0000001
 43
0.0000001
 44
0.0000000001
 40
0.0
 40
0.0
 40
0.0
 40
0.0
 40
0.238927915
 40
0.4860617964
 40
0.7402068519
 40
1.0
 40
1.0
 40
1.0
 40
1.0
 10
20.577272741
 20
34.3229096582
 30
0.0
 10
20.577272741
 20
33.5728969512
 30
0.0
 10
20.6288029935
 20
32.0467665505
 30
0.0
 10
20.8450752526
 20
29.7321861224
 30
0.0
 10
21.1871340334
 20
27.3668978277
 30
0.0
 10
21.4838352812
 20
25.7807011858
 30
0.0
 10
21.6468877152
 20
24.9816574689
 30
0.0
  0
SPLINE
  5
257
100
AcDbEntity
  8
0
100
AcDbSpline
 62
7
  6
BYLAYER
 70
0
 71
3
 72
11
 73
7
 74
0
 42
0.0000001
 43
0.0000001
 44
0.0000000001
 40
0.0
 40
0.0
 40
0.0
 40
0.0
 40
0.2542129665
 40
0.5056172714
 40
0.7541534647
 40
1.0
 40
1.0
 40
1.0
 40
1.0
 10
27.8162482745
 20
52.980424015
 30
0.0
 10
27.266906988
 20
52.2970319018
 30
0.0
 10
26.2168122702
 20
50.9029638963
 30
0.0
 10
24.7836815787
 20
48.7303694968
 30
0.0
 10
23.4931846127
 20
46.5037370367
 30
0.0
 10
22.7139916498
 20
44.9861782878
 30
0.0
 10
22.3431445057
 20
44.2236157795
 30
0.0
  0
SPLINE
  5
258
100
AcDbEntity
  8
0
100
AcDbSpline
 62
7
  6
BYLAYER
 70
0
 71
3
 72
11
 73
7
 74
0
 42
0.0000001
 43
0.0000001
 44
0.0000000001
 40
0.0
 40
0.0
 40
0.0
 40
0.0
 40
0.247759428
 40
0.4973834386
 40
0.7482956888
 40
1.0
 40
1.0
 40
1.0
 40
1.0
 10
27.8162482745
 20
52.980424015
 30
0.0
 10
28.3709457116
 20
53.6704792923
 30
0.0
 10
29.5287524612
 20
55.0208190257
 30
0.0
 10
31.389265402
 20
56.9433799244
 30
0.0
 10
33.3599157142
 20
58.7732355563
 30
0.0
 10
34.7312489648
 20
59.9340619374
 30
0.0
 10
35.4285819918
 20
60.5021752046
 30
0.0
  0
SPLINE
  5
259
100
AcDbEntity
  8
0
100
AcDbSpline
 62
7
  6
BYLAYER
 70
0
 71
3
 72
11
 73
7
 74
0
 42
0.0000001
 43
0.0000001
 44
0.0000000001
 40
0.0
 40
0.0
 40
0.0
 40
0.0
 40
0.2892845845
 40
0.5508099545
 40
0.7865899745
 40
1.0
 40
1.0
 40
1.0
 40
1.0
 10
42.2941993415
 20
61.3392230655
 30
0.0
 10
41.767546378
 20
61.3862675974
 30
0.0
 10
40.7627559411
 20
61.4555736753
 30
0.0
 10
39.3246274678
 20
61.4828047224
 30
0.0
 10
38.0257839963
 20
61.4347769466
 30
0.0
 10
37.2079916071
 20
61.3557791489
 30
0.0
 10
36.8210955726
 20
61.3061384964
 30
0.0
  0
SPLINE
  5
25A
100
AcDbEntity
  8
0
100
AcDbSpline
 62
7
  6
BYLAYER
 70
0
 71
3
 72
9
 73
5
 74
0
 42
0.0000001
 43
0.0000001
 44
0.0000000001
 40
0.0
 40
0.0
 40
0.0
 40
0.0
 40
0.2536628551
 40
1.0
 40
1.0
 40
1.0
 40
1.0
 10
52.1193171797
 20
58.2711552476
 30
0.0
 10
52.0658921528
 20
58.358532536
 30
0.0
 10
51.8499370493
 20
58.6996904628
 30
0.0
 10
51.6123023043
 20
59.0272063094
 30
0.0
 10
51.4230603893
 20
59.2617029338
 30
0.0
  0
SPLINE
  5
25B
100
AcDbEntity
  8
0
100
AcDbSpline
 62
7
  6
BYLAYER
 70
0
 71
3
 72
11
 73
7
 74
0
 42
0.0000001
 43
0.0000001
 44
0.0000000001
 40
0.0
 40
0.0
 40
0.0
 40
0.0
 40
0.2396874729
 40
0.4870161904
 40
0.7408587182
 40
1.0
 40
1.0
 40
1.0
 40
1.0
 10
53.1861608962
 20
49.3622228708
 30
0.0
 10
53.1769981458
 20
50.0800337033
 30
0.0
 10
53.1124303176
 20
51.53824423
 30
0.0
 10
52.8913716841
 20
53.7470069677
 30
0.0
 10
52.5583625616
 20
56.000381636
 30
0.0
 10
52.2744967407
 20
57.5106927991
 30
0.0
 10
52.1193171797
 20
58.2711552476
 30
0.0
  0
SPLINE
  5
25C
100
AcDbEntity
  8
0
100
AcDbSpline
 62
7
  6
BYLAYER
 70
0
 71
3
 72
11
 73
7
 74
0
 42
0.0000001
 43
0.0000001
 44
0.0000000001
 40
0.0
 40
0.0
 40
0.0
 40
0.0
 40
0.2254266516
 40
0.469016401
 40
0.7281628285
 40
1.0
 40
1.0
 40
1.0
 40
1.0
 10
42.2941993415
 20
61.3392230655
 30
0.0
 10
42.8712723582
 20
61.2876746422
 30
0.0
 10
44.0696130165
 20
61.15388175
 30
0.0
 10
45.9214934933
 20
60.8820900799
 30
0.0
 10
47.8827951384
 20
60.539910677
 30
0.0
 10
49.2220295068
 20
60.2771357508
 30
0.0
 10
49.9065330587
 20
60.1372505888
 30
0.0
  0
SPLINE
  5
25D
100
AcDbEntity
  8
0
100
AcDbSpline
 62
7
  6
BYLAYER
 70
0
 71
3
 72
11
 73
7
 74
0
 42
0.0000001
 43
0.0000001
 44
0.0000000001
 40
0.0
 40
0.0
 40
0.0
 40
0.0
 40
0.2254303149
 40
0.4690091576
 40
0.7281660154
 40
1.0
 40
1.0
 40
1.0
 40
1.0
 10
31.4720055535
 20
21.913589651
 30
0.0
 10
30.8949232797
 20
21.9651389013
 30
0.0
 10
29.696608756
 20
22.0989912422
 30
0.0
 10
27.8447071964
 20
22.3706904966
 30
0.0
 10
25.8834298019
 20
22.7129555666
 30
0.0
 10
24.5441672205
 20
22.9756786349
 30
0.0
 10
23.8596718363
 20
23.1155621277
 30
0.0
  0
SPLINE
  5
25E
100
AcDbEntity
  8
0
100
AcDbSpline
 62
7
  6
BYLAYER
 70
0
 71
3
 72
11
 73
7
 74
0
 42
0.0000001
 43
0.0000001
 44
0.0000000001
 40
0.0
 40
0.0
 40
0.0
 40
0.0
 40
0.2893044576
 40
0.5508157133
 40
0.7866077885
 40
1.0
 40
1.0
 40
1.0
 40
1.0
 10
31.4720055535
 20
21.913589651
 30
0.0
 10
31.9986951184
 20
21.8665418497
 30
0.0
 10
33.0034937187
 20
21.7971571894
 30
0.0
 10
34.4416563956
 20
21.7700549453
 30
0.0
 10
35.7404701916
 20
21.8179500644
 30
0.0
 10
36.5582452736
 20
21.8970376716
 30
0.0
 10
36.9451093223
 20
21.9466742201
 30
0.0
  0
SPLINE
  5
25F
100
AcDbEntity
  8
0
100
AcDbSpline
 62
7
  6
BYLAYER
 70
0
 71
3
 72
11
 73
7
 74
0
 42
0.0000001
 43
0.0000001
 44
0.0000000001
 40
0.0
 40
0.0
 40
0.0
 40
0.0
 40
0.2892845845
 40
0.5508099545
 40
0.7865899745
 40
1.0
 40
1.0
 40
1.0
 40
1.0
 10
45.9499566205
 20
59.2286183647
 30
0.0
 10
46.4766095839
 20
59.1815738328
 30
0.0
 10
47.4814000208
 20
59.1122677548
 30
0.0
 10
48.9195284942
 20
59.0850367078
 30
0.0
 10
50.2183719656
 20
59.1330644836
 30
0.0
 10
51.0361643548
 20
59.2120622813
 30
0.0
 10
51.4230603893
 20
59.2617029338
 30
0.0
  0
SPLINE
  5
260
100
AcDbEntity
  8
0
100
AcDbSpline
 62
7
  6
BYLAYER
 70
0
 71
3
 72
11
 73
7
 74
0
 42
0.0000001
 43
0.0000001
 44
0.0000000001
 40
0.0
 40
0.0
 40
0.0
 40
0.0
 40
0.2254266516
 40
0.469016401
 40
0.7281628285
 40
1.0
 40
1.0
 40
1.0
 40
1.0
 10
45.9499566205
 20
59.2286183647
 30
0.0
 10
45.3728836038
 20
59.280166788
 30
0.0
 10
44.1745429455
 20
59.4139596802
 30
0.0
 10
42.3226624687
 20
59.6857513502
 30
0.0
 10
40.3613608235
 20
60.0279307532
 30
0.0
 10
39.0221264551
 20
60.2907056794
 30
0.0
 10
38.3376229032
 20
60.4305908414
 30
0.0
  0
SPLINE
  5
261
100
AcDbEntity
  8
0
100
AcDbSpline
 62
7
  6
BYLAYER
 70
0
 71
3
 72
9
 73
5
 74
0
 42
0.0000001
 43
0.0000001
 44
0.0000000001
 40
0.0
 40
0.0
 40
0.0
 40
0.0
 40
0.2536628551
 40
1.0
 40
1.0
 40
1.0
 40
1.0
 10
23.1634150458
 20
24.1061098139
 30
0.0
 10
23.2168400727
 20
24.0187325255
 30
0.0
 10
23.4327951762
 20
23.6775745987
 30
0.0
 10
23.6704299212
 20
23.3500587521
 30
0.0
 10
23.8596718363
 20
23.1155621277
 30
0.0
  0
SPLINE
  5
262
100
AcDbEntity
  8
0
100
AcDbSpline
 62
7
  6
BYLAYER
 70
0
 71
3
 72
11
 73
7
 74
0
 42
0.0000001
 43
0.0000001
 44
0.0000000001
 40
0.0
 40
0.0
 40
0.0
 40
0.0
 40
0.264232161
 40
0.5183106768
 40
0.7631248077
 40
1.0
 40
1.0
 40
1.0
 40
1.0
 10
24.23303002
 20
32.2123049573
 30
0.0
 10
24.23303002
 20
31.4901607708
 30
0.0
 10
24.1870535875
 20
30.0730702037
 30
0.0
 10
23.974437474
 20
27.9966991385
 30
0.0
 10
23.6343851936
 20
26.0133725938
 30
0.0
 10
23.3303923201
 20
24.7315829506
 30
0.0
 10
23.1634150458
 20
24.1061098139
 30
0.0
  0
SPLINE
  5
263
100
AcDbEntity
  8
0
100
AcDbSpline
 62
7
  6
BYLAYER
 70
0
 71
3
 72
11
 73
7
 74
0
 42
0.0000001
 43
0.0000001
 44
0.0000000001
 40
0.0
 40
0.0
 40
0.0
 40
0.0
 40
0.238927915
 40
0.4860617964
 40
0.7402068519
 40
1.0
 40
1.0
 40
1.0
 40
1.0
 10
24.23303002
 20
32.2123049573
 30
0.0
 10
24.23303002
 20
32.9623176643
 30
0.0
 10
24.1814997675
 20
34.488448065
 30
0.0
 10
23.9652275085
 20
36.8030284931
 30
0.0
 10
23.6231687277
 20
39.1683167878
 30
0.0
 10
23.3264674798
 20
40.7545134297
 30
0.0
 10
23.1634150458
 20
41.5535571466
 30
0.0
  0
SPLINE
  5
264
100
AcDbEntity
  8
0
100
AcDbSpline
 62
7
  6
BYLAYER
 70
0
 71
3
 72
25
 73
21
 74
0
 42
0.0000001
 43
0.0000001
 44
0.0000000001
 40
0.0
 40
0.0
 40
0.0
 40
0.0
 40
0.0742848114
 40
0.1447446553
 40
0.2113478229
 40
0.2432763927
 40
0.2743325804
 40
0.3340087879
 40
0.3909737915
 40
0.4459946788
 40
0.4999979719
 40
0.5540013111
 40
0.609022886
 40
0.6659883045
 40
0.7256638797
 40
0.7567201269
 40
0.7886510484
 40
0.8552582512
 40
0.9257013234
 40
1.0
 40
1.0
 40
1.0
 40
1.0
 10
38.710981087
 20
28.3235677509
 30
0.0
 10
38.3726914594
 20
28.1282573092
 30
0.0
 10
37.6973038795
 20
27.7747175964
 30
0.0
 10
36.667225082
 20
27.3530723859
 30
0.0
 10
35.8121387397
 20
27.1037964101
 30
0.0
 10
35.143129684
 20
26.9721979773
 30
0.0
 10
34.5034100054
 20
26.887216549
 30
0.0
 10
33.7245728399
 20
26.8601116481
 30
0.0
 10
32.8240244219
 20
26.960529369
 30
0.0
 10
31.9789902584
 20
27.1942914076
 30
0.0
 10
31.1988350265
 20
27.5595464881
 30
0.0
 10
30.4924166234
 20
28.0525402326
 30
0.0
 10
29.8675097833
 20
28.667543204
 30
0.0
 10
29.3302472009
 20
29.3972120996
 30
0.0
 10
28.9642916111
 20
30.0852529929
 30
0.0
 10
28.7180283159
 20
30.6817682101
 30
0.0
 10
28.4975357428
 20
31.3269974668
 30
0.0
 10
28.2858676967
 20
32.1920996664
 30
0.0
 10
28.1359054175
 20
33.2949951917
 30
0.0
 10
28.1044474313
 20
34.0566562718
 30
0.0
 10
28.1044444823
 20
34.4473518134
 30
0.0
  0
SPLINE
  5
265
100
AcDbEntity
  8
0
100
AcDbSpline
 62
7
  6
BYLAYER
 70
0
 71
3
 72
41
 73
37
 74
0
 42
0.0000001
 43
0.0000001
 44
0.0000000001
 40
0.0
 40
0.0
 40
0.0
 40
0.0
 40
0.0309844467
 40
0.0603734784
 40
0.08815387
 40
0.1014713748
 40
0.114425005
 40
0.1393161294
 40
0.1630764026
 40
0.1860257846
 40
0.2085507363
 40
0.2310757236
 40
0.2540254401
 40
0.2777859613
 40
0.3026769182
 40
0.3156306272
 40
0.3289491698
 40
0.3567313644
 40
0.3861135236
 40
0.4171038747
 40
0.4496517844
 40
0.4836585925
 40
0.5189843931
 40
0.5554562684
 40
0.5928755588
 40
0.6310224984
 40
0.6696626626
 40
0.7085519994
 40
0.7474413052
 40
0.7860814984
 40
0.8242281458
 40
0.8616477516
 40
0.898119442
 40
0.933443284
 40
0.9674572295
 40
1.0
 40
1.0
 40
1.0
 40
1.0
 10
38.710981087
 20
52.8186402648
 30
0.0
 10
39.0492722829
 20
53.0139516119
 30
0.0
 10
39.7246629811
 20
53.3674927943
 30
0.0
 10
40.7547465839
 20
53.7891391517
 30
0.0
 10
41.6098368305
 20
54.0384150705
 30
0.0
 10
42.2788487883
 20
54.1700127773
 30
0.0
 10
42.9185710666
 20
54.2549930728
 30
0.0
 10
43.6974112258
 20
54.2820957846
 30
0.0
 10
44.5979626686
 20
54.1816741118
 30
0.0
 10
45.4429990742
 20
53.947906852
 30
0.0
 10
46.2231556205
 20
53.582645356
 30
0.0
 10
46.929574307
 20
53.0896441544
 30
0.0
 10
47.5544803292
 20
52.4746328088
 30
0.0
 10
48.0917409717
 20
51.744954885
 30
0.0
 10
48.4576940108
 20
51.0569059559
 30
0.0
 10
48.7039547641
 20
50.4603846668
 30
0.0
 10
48.9244444109
 20
49.8151466292
 30
0.0
 10
49.1361080737
 20
48.9500508818
 30
0.0
 10
49.2860639116
 20
47.8470770807
 30
0.0
 10
49.3344747933
 20
46.6750531739
 30
0.0
 10
49.2811011377
 20
45.445121353
 30
0.0
 10
49.1265026232
 20
44.1688589809
 30
0.0
 10
48.8722155359
 20
42.8583692794
 30
0.0
 10
48.520737603
 20
41.526092096
 30
0.0
 10
48.0753741529
 20
40.1847376437
 30
0.0
 10
47.5404039611
 20
38.8471051456
 30
0.0
 10
46.9209773661
 20
37.5259626626
 30
0.0
 10
46.2229638722
 20
36.2339712741
 30
0.0
 10
45.4530663752
 20
34.9834833778
 30
0.0
 10
44.61868168
 20
33.7864460182
 30
0.0
 10
43.7277352391
 20
32.6543362431
 30
0.0
 10
42.7887575905
 20
31.5979758695
 30
0.0
 10
41.8107708467
 20
30.6274304609
 30
0.0
 10
40.8029318907
 20
29.7519070671
 30
0.0
 10
39.7749829524
 20
28.9799883091
 30
0.0
 10
39.0662862137
 20
28.528702037
 30
0.0
 10
38.710981087
 20
28.3235677509
 30
0.0
  0
SPLINE
  5
266
100
AcDbEntity
  8
0
100
AcDbSpline
 62
7
  6
BYLAYER
 70
0
 71
3
 72
12
 73
8
 74
0
 42
0.0000001
 43
0.0000001
 44
0.0000000001
 40
0.0
 40
0.0
 40
0.0
 40
0.0
 40
0.2233590417
 40
0.3411489441
 40
0.4633937863
 40
0.7219826221
 40
1.0
 40
1.0
 40
1.0
 40
1.0
 10
45.9499566205
 20
59.2286183647
 30
0.0
 10
45.3860163357
 20
59.2789936754
 30
0.0
 10
44.5146933128
 20
59.2667673662
 30
0.0
 10
43.3513999007
 20
59.0987092966
 30
0.0
 10
42.1178964386
 20
58.8167298911
 30
0.0
 10
40.5377700614
 20
58.2580971905
 30
0.0
 10
39.3213025302
 20
57.6413581447
 30
0.0
 10
38.710981087
 20
57.2889909986
 30
0.0
  0
SPLINE
  5
267
100
AcDbEntity
  8
0
100
AcDbSpline
 62
7
  6
BYLAYER
 70
0
 71
3
 72
11
 73
7
 74
0
 42
0.0000001
 43
0.0000001
 44
0.0000000001
 40
0.0
 40
0.0
 40
0.0
 40
0.0
 40
0.232065918
 40
0.4774810713
 40
0.7342754496
 40
1.0
 40
1.0
 40
1.0
 40
1.0
 10
38.710981087
 20
57.2889909986
 30
0.0
 10
38.0594380554
 20
56.9128246993
 30
0.0
 10
36.7631745153
 20
56.0603759598
 30
0.0
 10
34.9117845894
 20
54.5588165923
 30
0.0
 10
33.1249606723
 20
52.8208906241
 30
0.0
 10
32.0117243179
 20
51.5412408076
 30
0.0
 10
31.4720055535
 20
50.8698193141
 30
0.0
  0
SPLINE
  5
268
100
AcDbEntity
  8
0
100
AcDbSpline
 62
7
  6
BYLAYER
 70
0
 71
3
 72
15
 73
11
 74
0
 42
0.0000001
 43
0.0000001
 44
0.0000000001
 40
0.0
 40
0.0
 40
0.0
 40
0.0
 40
0.129847411
 40
0.2611866596
 40
0.3925260486
 40
0.5223738886
 40
0.6492905064
 40
0.7719421396
 40
0.8891589506
 40
1.0
 40
1.0
 40
1.0
 40
1.0
 10
31.4720055535
 20
50.8698193141
 30
0.0
 10
30.9198201915
 20
50.1828891111
 30
0.0
 10
29.8637093859
 20
48.7563456665
 30
0.0
 10
28.4444878952
 20
46.498668662
 30
0.0
 10
27.1988309835
 20
44.1405810642
 30
0.0
 10
26.1479440638
 20
41.7221290218
 30
0.0
 10
25.3095515529
 20
39.2841532583
 30
0.0
 10
24.6978265023
 20
36.8676177801
 30
0.0
 10
24.3231439707
 20
34.5134937734
 30
0.0
 10
24.23303002
 20
32.9646496273
 30
0.0
 10
24.23303002
 20
32.2123049573
 30
0.0
  0
SPLINE
  5
269
100
AcDbEntity
  8
0
100
AcDbSpline
 62
7
  6
BYLAYER
 70
0
 71
3
 72
21
 73
17
 74
0
 42
0.0000001
 43
0.0000001
 44
0.0000000001
 40
0.0
 40
0.0
 40
0.0
 40
0.0
 40
0.1517776276
 40
0.2929487487
 40
0.3596890689
 40
0.4239904514
 40
0.4860324654
 40
0.546062826
 40
0.604388475
 40
0.6613763377
 40
0.717440814
 40
0.7730321381
 40
0.8286208927
 40
0.8846877244
 40
0.9416880494
 40
1.0
 40
1.0
 40
1.0
 40
1.0
 10
24.23303002
 20
32.2123049573
 30
0.0
 10
24.23303002
 20
31.5075577181
 30
0.0
 10
24.3071360312
 20
30.1457032496
 30
0.0
 10
24.6134390051
 20
28.497823959
 30
0.0
 10
24.9859188723
 20
27.2887413777
 30
0.0
 10
25.3190286025
 20
26.4552095671
 30
0.0
 10
25.7099038313
 20
25.6818002564
 30
0.0
 10
26.1568632734
 20
24.9718169696
 30
0.0
 10
26.6582474233
 20
24.3285196727
 30
0.0
 10
27.2118538666
 20
23.7547497277
 30
0.0
 10
27.8154344681
 20
23.2533295261
 30
0.0
 10
28.4661568476
 20
22.8264725227
 30
0.0
 10
29.1611673723
 20
22.4763034481
 30
0.0
 10
29.8972762988
 20
22.2042844184
 30
0.0
 10
30.6709248542
 20
22.0117638547
 30
0.0
 10
31.2023201955
 20
21.9376799387
 30
0.0
 10
31.4720055535
 20
21.913589651
 30
0.0
  0
SPLINE
  5
26A
100
AcDbEntity
  8
0
100
AcDbSpline
 62
7
  6
BYLAYER
 70
0
 71
3
 72
11
 73
7
 74
0
 42
0.0000001
 43
0.0000001
 44
0.0000000001
 40
0.0
 40
0.0
 40
0.0
 40
0.0
 40
0.2247966027
 40
0.4651750164
 40
0.7232926975
 40
1.0
 40
1.0
 40
1.0
 40
1.0
 10
31.4720055535
 20
21.913589651
 30
0.0
 10
32.0050637747
 20
21.8659729542
 30
0.0
 10
33.1195413449
 20
21.8753264957
 30
0.0
 10
34.8213362417
 20
22.1777604491
 30
0.0
 10
36.578126693
 20
22.7609818077
 30
0.0
 10
37.7298106556
 20
23.3118361029
 30
0.0
 10
38.3082084714
 20
23.6271596679
 30
0.0
  0
SPLINE
  5
26B
100
AcDbEntity
  8
0
100
AcDbSpline
 62
7
  6
BYLAYER
 70
0
 71
3
 72
21
 73
17
 74
0
 42
0.0000001
 43
0.0000001
 44
0.0000000001
 40
0.0
 40
0.0
 40
0.0
 40
0.0
 40
0.1505465906
 40
0.2219526927
 40
0.2907995672
 40
0.4211233401
 40
0.4830330778
 40
0.543054051
 40
0.6014921918
 40
0.658706302
 40
0.7150969522
 40
0.771094484
 40
0.8271468787
 40
0.8837090655
 40
0.9412086178
 40
1.0
 40
1.0
 40
1.0
 40
1.0
 10
53.1814905115
 20
49.4610953649
 30
0.0
 10
53.1625100388
 20
50.1332080631
 30
0.0
 10
53.0804177863
 20
51.1243483483
 30
0.0
 10
52.8455201659
 20
52.4026302563
 30
0.0
 10
52.5444940493
 20
53.57367817
 30
0.0
 10
52.1290403859
 20
54.6697600925
 30
0.0
 10
51.5935050065
 20
55.6624654661
 30
0.0
 10
51.1463399337
 20
56.3340571314
 30
0.0
 10
50.6485573078
 20
56.9422443053
 30
0.0
 10
50.1021740018
 20
57.484536937
 30
0.0
 10
49.5093247064
 20
57.9584293821
 30
0.0
 10
48.872615267
 20
58.3619735671
 30
0.0
 10
48.1946613166
 20
58.6932867675
 30
0.0
 10
47.4783747505
 20
58.9510854564
 30
0.0
 10
46.7270079919
 20
59.1341698316
 30
0.0
 10
46.2114930125
 20
59.2052560028
 30
0.0
 10
45.9499566205
 20
59.2286183647
 30
0.0
  0
SPLINE
  5
26C
100
AcDbEntity
  8
0
100
AcDbSpline
 62
7
  6
BYLAYER
 70
0
 71
3
 72
11
 73
7
 74
0
 42
0.0000001
 43
0.0000001
 44
0.0000000001
 40
0.0
 40
0.0
 40
0.0
 40
0.0
 40
0.247759428
 40
0.4973834386
 40
0.7482956888
 40
1.0
 40
1.0
 40
1.0
 40
1.0
 10
31.4720055535
 20
50.8698193141
 30
0.0
 10
30.9173081164
 20
50.1797640369
 30
0.0
 10
29.7595013668
 20
48.8294243035
 30
0.0
 10
27.898988426
 20
46.9068634047
 30
0.0
 10
25.9283381138
 20
45.0770077728
 30
0.0
 10
24.5570048632
 20
43.9161813917
 30
0.0
 10
23.8596718363
 20
43.3480681245
 30
0.0
  0
SPLINE
  5
26D
100
AcDbEntity
  8
0
100
AcDbSpline
 62
7
  6
BYLAYER
 70
0
 71
3
 72
11
 73
7
 74
0
 42
0.0000001
 43
0.0000001
 44
0.0000000001
 40
0.0
 40
0.0
 40
0.0
 40
0.0
 40
0.2542129665
 40
0.5056172714
 40
0.7541534647
 40
1.0
 40
1.0
 40
1.0
 40
1.0
 10
31.4720055535
 20
50.8698193141
 30
0.0
 10
32.02134684
 20
51.5532114274
 30
0.0
 10
33.0714415578
 20
52.9472794328
 30
0.0
 10
34.5045722493
 20
55.1198738323
 30
0.0
 10
35.7950692153
 20
57.3465062924
 30
0.0
 10
36.5742621782
 20
58.8640650414
 30
0.0
 10
36.9451093223
 20
59.6266275496
 30
0.0
  0
SPLINE
  5
26E
100
AcDbEntity
  8
0
100
AcDbSpline
 62
7
  6
BYLAYER
 70
0
 71
3
 72
26
 73
22
 74
0
 42
0.0000001
 43
0.0000001
 44
0.0000000001
 40
0.0
 40
0.0
 40
0.0
 40
0.0
 40
0.0213314287
 40
0.0428911075
 40
0.0648958547
 40
0.0875397021
 40
0.1353131603
 40
0.1607353142
 40
0.1872598779
 40
0.2436950817
 40
0.3046400876
 40
0.3697245935
 40
0.4383183558
 40
0.5096011637
 40
0.582621736
 40
0.6563498431
 40
0.729722891
 40
0.8016950268
 40
0.8712831302
 40
0.9376205758
 40
1.0
 40
1.0
 40
1.0
 40
1.0
 10
9.7345833985
 20
42.8665879951
 30
0.0
 10
9.581007664
 20
42.9552526838
 30
0.0
 10
9.2833234062
 20
43.1535914755
 30
0.0
 10
8.8746965972
 20
43.5078657888
 30
0.0
 10
8.5052357821
 20
43.9176925557
 30
0.0
 10
8.0597171747
 20
44.5454098772
 30
0.0
 10
7.7100805164
 20
45.2686196991
 30
0.0
 10
7.4545299637
 20
46.057906163
 30
0.0
 10
7.2510445486
 20
46.9367157381
 30
0.0
 10
7.1222703823
 20
48.1307551011
 30
0.0
 10
7.1609800078
 20
49.650774751
 30
0.0
 10
7.3881805724
 20
51.2559288995
 30
0.0
 10
7.7988053255
 20
52.9123620044
 30
0.0
 10
8.3840520086
 20
54.5852181323
 30
0.0
 10
9.1314550758
 20
56.2389559798
 30
0.0
 10
10.0250856208
 20
57.8383386756
 30
0.0
 10
11.0458703906
 20
59.3492571624
 30
0.0
 10
12.1720457884
 20
60.7394564156
 30
0.0
 10
13.3797533064
 20
61.9794721776
 30
0.0
 10
14.6431971464
 20
63.0427246752
 30
0.0
 10
15.5353757699
 20
63.6389563353
 30
0.0
 10
15.9844745208
 20
63.8982420722
 30
0.0
  0
SPLINE
  5
26F
100
AcDbEntity
  8
0
100
AcDbSpline
 62
7
  6
BYLAYER
 70
0
 71
3
 72
15
 73
11
 74
0
 42
0.0000001
 43
0.0000001
 44
0.0000000001
 40
0.0
 40
0.0
 40
0.0
 40
0.0
 40
0.1485719092
 40
0.2895070154
 40
0.422723163
 40
0.5486372843
 40
0.6679988688
 40
0.7819356767
 40
0.8919846742
 40
1.0
 40
1.0
 40
1.0
 40
1.0
 10
15.9844745208
 20
63.8982420722
 30
0.0
 10
16.2663656768
 20
64.0609910356
 30
0.0
 10
16.8291710525
 20
64.3555899489
 30
0.0
 10
17.6876135294
 20
64.7069921036
 30
0.0
 10
18.5308072678
 20
64.9528092541
 30
0.0
 10
19.350707103
 20
65.0903053934
 30
0.0
 10
20.1397165291
 20
65.1178096466
 30
0.0
 10
20.8902495085
 20
65.0340879682
 30
0.0
 10
21.5942859055
 20
64.83938495
 30
0.0
 10
22.0294230162
 20
64.6356563286
 30
0.0
 10
22.234365643
 20
64.5173357211
 30
0.0
  0
SPLINE
  5
270
100
AcDbEntity
  8
0
100
AcDbSpline
 62
7
  6
BYLAYER
 70
0
 71
3
 72
15
 73
11
 74
0
 42
0.0000001
 43
0.0000001
 44
0.0000000001
 40
0.0
 40
0.0
 40
0.0
 40
0.0
 40
0.1080132435
 40
0.2180622233
 40
0.3320003817
 40
0.4513610321
 40
0.5772778283
 40
0.7104926107
 40
0.8514210194
 40
1.0
 40
1.0
 40
1.0
 40
1.0
 10
37.2993284457
 20
24.0657058914
 30
0.0
 10
37.5452483948
 20
23.9237123627
 30
0.0
 10
38.0674090605
 20
23.679240538
 30
0.0
 10
38.9122482666
 20
23.4455815455
 30
0.0
 10
39.8128927392
 20
23.3451514315
 30
0.0
 10
40.7597131814
 20
23.378115157
 30
0.0
 10
41.7435921699
 20
23.5431390749
 30
0.0
 10
42.7554100711
 20
23.8381132687
 30
0.0
 10
43.7855482332
 20
24.2597754129
 30
0.0
 10
44.4609101279
 20
24.6133066846
 30
0.0
 10
44.7991958205
 20
24.8086148545
 30
0.0
  0
SPLINE
  5
271
100
AcDbEntity
  8
0
100
AcDbSpline
 62
7
  6
BYLAYER
 70
0
 71
3
 72
19
 73
15
 74
0
 42
0.0000001
 43
0.0000001
 44
0.0000000001
 40
0.0
 40
0.0
 40
0.0
 40
0.0
 40
0.0558393201
 40
0.1142072844
 40
0.1748215209
 40
0.2374040141
 40
0.3670132468
 40
0.4999973691
 40
0.6329822266
 40
0.7625929528
 40
0.8251777721
 40
0.8857951134
 40
0.9441488332
 40
1.0
 40
1.0
 40
1.0
 40
1.0
 10
46.3901927021
 20
25.7272035953
 30
0.0
 10
46.6921887031
 20
25.901560027
 30
0.0
 10
47.2945729991
 20
26.2851593189
 30
0.0
 10
48.1683307696
 20
26.9412714421
 30
0.0
 10
49.0250223945
 20
27.6854830814
 30
0.0
 10
50.1462594167
 20
28.7982727279
 30
0.0
 10
51.4496295034
 20
30.3625156286
 30
0.0
 10
52.8055693697
 20
32.433614783
 30
0.0
 10
53.9212040135
 20
34.6434621237
 30
0.0
 10
54.6242036669
 20
36.5543615514
 30
0.0
 10
55.027277952
 20
38.0818252568
 30
0.0
 10
55.2433901884
 20
39.1957993204
 30
0.0
 10
55.3747830524
 20
40.2805489769
 30
0.0
 10
55.4057604419
 20
40.9940164546
 30
0.0
 10
55.4057593471
 20
41.342804861
 30
0.0
  0
SPLINE
  5
272
100
AcDbEntity
  8
0
100
AcDbSpline
 62
7
  6
BYLAYER
 70
0
 71
3
 72
15
 73
11
 74
0
 42
0.0000001
 43
0.0000001
 44
0.0000000001
 40
0.0
 40
0.0
 40
0.0
 40
0.0
 40
0.1486060166
 40
0.2895003239
 40
0.4227223936
 40
0.5486429214
 40
0.6680008942
 40
0.7819381386
 40
0.8919873798
 40
1.0
 40
1.0
 40
1.0
 40
1.0
 10
55.4057394653
 20
43.179907371
 30
0.0
 10
55.4057366505
 20
43.570607473
 30
0.0
 10
55.3742829291
 20
44.3322604222
 30
0.0
 10
55.2242945265
 20
45.4352396565
 30
0.0
 10
54.973834071
 20
46.4589483308
 30
0.0
 10
54.6248455757
 20
47.3935919937
 30
0.0
 10
54.1799328835
 20
48.2300544778
 30
0.0
 10
53.6425868544
 20
48.9597957948
 30
0.0
 10
53.0178493383
 20
49.5746940677
 30
0.0
 10
52.5449886082
 20
49.9045996479
 30
0.0
 10
52.2990631953
 20
50.0465963314
 30
0.0
  0
SPLINE
  5
273
100
AcDbEntity
  8
0
100
AcDbSpline
 62
7
  6
BYLAYER
 70
0
 71
3
 72
37
 73
33
 74
0
 42
0.0000001
 43
0.0000001
 44
0.0000000001
 40
0.0
 40
0.0
 40
0.0
 40
0.0
 40
0.0325455371
 40
0.066564873
 40
0.10189343
 40
0.1383691696
 40
0.2139109459
 40
0.2914197604
 40
0.3689290215
 40
0.444471721
 40
0.4809488544
 40
0.5162792658
 40
0.55029035
 40
0.5828428468
 40
0.6138367653
 40
0.643222651
 40
0.671008611
 40
0.6843286345
 40
0.6972838176
 40
0.7221780925
 40
0.7459416992
 40
0.7688941986
 40
0.7914221348
 40
0.8139501167
 40
0.8369022562
 40
0.8606652781
 40
0.8855597959
 40
0.898514773
 40
0.9118337103
 40
0.9396180815
 40
0.9690127698
 40
1.0
 40
1.0
 40
1.0
 40
1.0
 10
46.3901927021
 20
46.5480152321
 30
0.0
 10
46.0881974009
 20
46.3736592045
 30
0.0
 10
45.485814492
 20
45.99006088
 30
0.0
 10
44.6120586477
 20
45.3339505568
 30
0.0
 10
43.7553688341
 20
44.5897410803
 30
0.0
 10
42.6341340187
 20
43.4769547771
 30
0.0
 10
41.3307660504
 20
41.9127165103
 30
0.0
 10
39.9748274777
 20
39.8416236992
 30
0.0
 10
38.8591926723
 20
37.6317811454
 30
0.0
 10
38.1561914619
 20
35.7208897461
 30
0.0
 10
37.7531151827
 20
34.1934224683
 30
0.0
 10
37.5370004414
 20
33.0794694521
 30
0.0
 10
37.4056066279
 20
31.99465284
 30
0.0
 10
37.3601969164
 20
30.9492139923
 30
0.0
 10
37.4013967158
 20
29.9529991056
 30
0.0
 10
37.5288470917
 20
29.0154777742
 30
0.0
 10
37.7087415495
 20
28.2801437245
 30
0.0
 10
37.8961718317
 20
27.7316999406
 30
0.0
 10
38.1055197037
 20
27.2246736088
 30
0.0
 10
38.416546147
 20
26.639819236
 30
0.0
 10
38.873219649
 20
26.0195915891
 30
0.0
 10
39.4044169231
 20
25.4968688525
 30
0.0
 10
40.0048403087
 20
25.0777756753
 30
0.0
 10
40.6679883339
 20
24.7673319182
 30
0.0
 10
41.3862612791
 20
24.5686394303
 30
0.0
 10
42.1517230882
 20
24.4832479946
 30
0.0
 10
42.8137288381
 20
24.5063235112
 30
0.0
 10
43.3574905356
 20
24.5785251998
 30
0.0
 10
43.9261450236
 20
24.6903949034
 30
0.0
 10
44.6529940662
 20
24.9022705165
 30
0.0
 10
45.5285642587
 20
25.2606966577
 30
0.0
 10
46.1026571832
 20
25.561195877
 30
0.0
 10
46.3901927021
 20
25.7272035953
 30
0.0
  0
SPLINE
  5
274
100
AcDbEntity
  8
0
100
AcDbSpline
 62
7
  6
BYLAYER
 70
0
 71
3
 72
27
 73
23
 74
0
 42
0.0000001
 43
0.0000001
 44
0.0000000001
 40
0.0
 40
0.0
 40
0.0
 40
0.0
 40
0.0623767068
 40
0.1287086737
 40
0.1982939932
 40
0.2702633723
 40
0.343633219
 40
0.4173575881
 40
0.4903748523
 40
0.5616545359
 40
0.6302452798
 40
0.6953267846
 40
0.7562687852
 40
0.7850767047
 40
0.8127381655
 40
0.8646340595
 40
0.8890185134
 40
0.9124658632
 40
0.9351083564
 40
0.9571116488
 40
0.9786699829
 40
1.0
 40
1.0
 40
1.0
 40
1.0
 10
44.7991958205
 20
49.3036873684
 30
0.0
 10
44.260273059
 20
48.9925420242
 30
0.0
 10
43.1896659626
 20
48.2770806476
 30
0.0
 10
41.6735491856
 20
47.0011714449
 30
0.0
 10
40.2242843338
 20
45.5131726174
 30
0.0
 10
38.8728672462
 20
43.8449084634
 30
0.0
 10
37.6479079605
 20
42.0317991475
 30
0.0
 10
36.5755490141
 20
40.1125300085
 30
0.0
 10
35.6786593604
 20
38.128030242
 30
0.0
 10
34.9763624678
 20
36.1206072672
 30
0.0
 10
34.4836090028
 20
34.1328034441
 30
0.0
 10
34.2109895514
 20
32.20684667
 30
0.0
 10
34.1715343377
 20
30.6582953735
 30
0.0
 10
34.2610033852
 20
29.4893899761
 30
0.0
 10
34.4213692925
 20
28.4196852895
 30
0.0
 10
34.6936342725
 20
27.4127430247
 30
0.0
 10
35.0876174882
 20
26.4976517801
 30
0.0
 10
35.4301649598
 20
25.8821367486
 30
0.0
 10
35.8241144116
 20
25.3269510841
 30
0.0
 10
36.267486369
 20
24.8352454181
 30
0.0
 10
36.7577959935
 20
24.4100621251
 30
0.0
 10
37.115045229
 20
24.1721105337
 30
0.0
 10
37.2993284457
 20
24.0657058914
 30
0.0
  0
SPLINE
  5
275
100
AcDbEntity
  8
0
100
AcDbSpline
 62
7
  6
BYLAYER
 70
0
 71
3
 72
25
 73
21
 74
0
 42
0.0000001
 43
0.0000001
 44
0.0000000001
 40
0.0
 40
0.0
 40
0.0
 40
0.0
 40
0.0742978459
 40
0.144740956
 40
0.2113487691
 40
0.2432792017
 40
0.2743350513
 40
0.334011013
 40
0.3909765834
 40
0.4459978076
 40
0.5000013002
 40
0.5540049208
 40
0.6090253369
 40
0.6659895907
 40
0.7256662445
 40
0.7567216618
 40
0.7886495558
 40
0.855253697
 40
0.9257180488
 40
1.0
 40
1.0
 40
1.0
 40
1.0
 10
55.4057593471
 20
41.342804861
 30
0.0
 10
55.4057583047
 20
41.6748920958
 30
0.0
 10
55.3789846961
 20
42.3222987313
 30
0.0
 10
55.2515330852
 20
43.2597582246
 30
0.0
 10
55.071636554
 20
43.9951016601
 30
0.0
 10
54.8842051182
 20
44.5435410671
 30
0.0
 10
54.674856216
 20
45.050565134
 30
0.0
 10
54.3638287381
 20
45.6354161651
 30
0.0
 10
53.9071544559
 20
46.2556401905
 30
0.0
 10
53.3759568488
 20
46.7783595312
 30
0.0
 10
52.7755335775
 20
47.1974496929
 30
0.0
 10
52.1123860851
 20
47.5078908568
 30
0.0
 10
51.3941140462
 20
47.7065812308
 30
0.0
 10
50.6286534608
 20
47.7919710687
 30
0.0
 10
49.9666489219
 20
47.7688946669
 30
0.0
 10
49.422888276
 20
47.69669252
 30
0.0
 10
48.8542349619
 20
47.5848225223
 30
0.0
 10
48.1273874984
 20
47.3729468864
 30
0.0
 10
47.2518192497
 20
47.0145212091
 30
0.0
 10
46.6777275866
 20
46.7140225842
 30
0.0
 10
46.3901927021
 20
46.5480152321
 30
0.0
  0
SPLINE
  5
276
100
AcDbEntity
  8
0
100
AcDbSpline
 62
7
  6
BYLAYER
 70
0
 71
3
 72
15
 73
11
 74
0
 42
0.0000001
 43
0.0000001
 44
0.0000000001
 40
0.0
 40
0.0
 40
0.0
 40
0.0
 40
0.1080132435
 40
0.2180622233
 40
0.3320003817
 40
0.4513610321
 40
0.5772778283
 40
0.7104926107
 40
0.8514210194
 40
1.0
 40
1.0
 40
1.0
 40
1.0
 10
52.2990631953
 20
50.0465963314
 30
0.0
 10
52.0531432463
 20
50.1885898601
 30
0.0
 10
51.5309825805
 20
50.4330616848
 30
0.0
 10
50.6861433744
 20
50.6667206774
 30
0.0
 10
49.7854989018
 20
50.7671507913
 30
0.0
 10
48.8386784596
 20
50.7341870659
 30
0.0
 10
47.8547994711
 20
50.5691631479
 30
0.0
 10
46.8429815699
 20
50.2741889541
 30
0.0
 10
45.8128434079
 20
49.8525268099
 30
0.0
 10
45.1374815131
 20
49.4989955382
 30
0.0
 10
44.7991958205
 20
49.3036873684
 30
0.0
  0
ENDSEC
  0
SECTION
  2
OBJECTS
  0
DICTIONARY
  5
C
100
AcDbDictionary
280
0
281
1
  3
ACAD_GROUP
350
D
  3
ACAD_MLINESTYLE
350
17
  3
ACAD_LAYOUT
350
1A
  3
ACAD_PLOTSETTINGS
350
19
  3
ACAD_PLOTSTYLENAME
350
E
  0
DICTIONARY
  5
D
102
{ACAD_REACTORS
330
C
102
}
100
AcDbDictionary
280
0
281
1
  0
ACDBDICTIONARYWDFLT
  5
E
102
{ACAD_REACTORS
330
C
102
}
100
AcDbDictionary
281
1
  3
Normal
350
F
100
AcDbDictionaryWithDefault
340
F
  0
DICTIONARY
  5
17
102
{ACAD_REACTORS
330
C
102
}
100
AcDbDictionary
280
0
281
1
  3
Standard
350
18
  0
DICTIONARY
  5
19
102
{ACAD_REACTORS
330
C
102
}
100
AcDbDictionary
281
1
  0
DICTIONARY
  5
1A
102
{ACAD_REACTORS
330
C
102
}
100
AcDbDictionary
281
1
  3
Model
350
277
  3
Layout1
350
278
  0
ACDBPLACEHOLDER
  5
F
102
{ACAD_REACTORS
330
E
102
}
  0
MLINESTYLE
  5
18
102
{ACAD_REACTORS
330
17
102
}
100
AcDbMlineStyle
  2
STANDARD
 70
0
  3

 62
256
 51
90.0
 52
90.0
 71
2
 49
0.5
 62
256
  6
BYLAYER
 49
-0.5
 62
256
  6
BYLAYER
  0
LAYOUT
  5
277
102
{ACAD_REACTORS
330
1A
102
}
100
AcDbPlotSettings
  1

  2
none_device
  4

  6

 40
0.0
 41
0.0
 42
0.0
 43
0.0
 44
210.0
 45
297.0
 46
0.0
 47
0.0
 48
0.0
 49
0.0
140
0.0
141
0.0
142
1.0
143
1.0
 70
1024
 72
1
 73
0
 74
0
  7

 75
0
147
1.0
148
0.0
149
0.0
100
AcDbLayout
  1
Model
 70
0
 71
0
 10
0.0
 20
0.0
 11
210.0
 21
297.0
 12
0.0
 22
0.0
 32
0.0
 14
0.0
 24
0.0
 34
0.0
 15
0.0
 25
0.0
 35
0.0
146
0.0
 13
0.0
 23
0.0
 33
0.0
 16
1.0
 26
0.0
 36
0.0
 17
0.0
 27
1.0
 37
0.0
 76
0
330
210
345
0
346
0
  0
LAYOUT
  5
278
102
{ACAD_REACTORS
330
1A
102
}
100
AcDbPlotSettings
  1

  2
none_device
  4

  6

 40
0.0
 41
0.0
 42
0.0
 43
0.0
 44
210.0
 45
297.0
 46
0.0
 47
0.0
 48
0.0
 49
0.0
140
0.0
141
0.0
142
1.0
143
1.0
 70
0
 72
1
 73
0
 74
0
  7

 75
0
147
1.0
148
0.0
149
0.0
100
AcDbLayout
  1
Layout1
 70
0
 71
1
 10
0.0
 20
0.0
 11
210.0
 21
297.0
 12
0.0
 22
0.0
 32
0.0
 14
0.0
 24
0.0
 34
0.0
 15
0.0
 25
0.0
 35
0.0
146
0.0
 13
0.0
 23
0.0
 33
0.0
 16
1.0
 26
0.0
 36
0.0
 17
0.0
 27
1.0
 37
0.0
 76
0
330
211
345
0
346
0
  0
ENDSEC
  0
EOF
