999
DXF file: C:\Users\sesa63760\Dev\_Creo\CAD\MCADID0003745_3D-CAD\drw0001_1.dxf
999
Pro/ENGINEER 2019471 by Parametric Technology Corporation
  0
SECTION
  2
HEADER
  9
$ACADVER
  1
AC1024
  9
$DWGCODEPAGE
  3
ANSI_1252
  9
$EXTMAX
 10
130.8523025877
 20
185.0625422312
 30
0.0
  9
$EXTMIN
 10
0.0
 20
0.0
 30
0.0
  9
$LIMMIN
 10
0.0
 20
0.0
  9
$LIMMAX
 10
130.8523025877
 20
185.0625422312
  9
$VIEWCTR
 10
65.4261512939
 20
92.5312711156
  9
$VIEWSIZE
 40
185.0625422312
  9
$CLAYER
  8
0
  9
$LTSCALE
 40
12.0633360862
  9
$CELTYPE
  6
BYLAYER
  9
$DIMSCALE
 40
1.0
  9
$DIMASZ
 40
1.557765507
  9
$DIMEXO
 40
1.0
  9
$DIMDLI
 40
8.3346685686
  9
$DIMEXE
 40
1.0
  9
$DIMCEN
 40
1.9740004505
  9
$DIMLFAC
 40
1.0
  9
$DIMBLK
  1
_FILLED
  9
$DIMALT
 70
0
  9
$DIMALTF
 40
0.0393700787
  9
$DIMTXT
 40
2.1808717098
  9
$DIMTOL
 70
1
  9
$DIMLIM
 70
0
  9
$DIMTFAC
 40
1.0
  9
$DIMTP
 40
0.01
  9
$DIMTM
 40
0.01
  9
$DIMGAP
 40
0.625
  9
$DIMDSEP
 70
46
  9
$AUNITS
 70
0
  9
$PDMODE
 70
3
  9
$PDSIZE
 40
0.3125
  9
$HANDSEED
  5
2C6
  9
$TILEMODE
 70
1
  9
$MEASUREMENT
 70
1
  9
$INSUNITS
 70
4
  0
ENDSEC
  0
SECTION
  2
CLASSES
  0
CLASS
  1
ACDBDICTIONARYWDFLT
  2
AcDbDictionaryWithDefault
  3
AutoCAD 2000
 90
0
 91
1
280
0
281
0
  0
CLASS
  1
ACDBPLACEHOLDER
  2
AcDbPlaceHolder
  3
AutoCAD 2000
 90
0
 91
1
280
0
281
0
  0
CLASS
  1
LAYOUT
  2
AcDbLayout
  3
AutoCAD 2000
 90
0
 91
0
280
0
281
0
  0
ENDSEC
  0
SECTION
  2
TABLES
  0
TABLE
  2
VPORT
  5
8
100
AcDbSymbolTable
 70
2
  0
VPORT
  5
1F4
100
AcDbSymbolTableRecord
100
AcDbViewportTableRecord
  2
*ACTIVE
 70
0
 10
0.0
 20
0.0
 11
1.0
 21
1.0
 12
65.4261512939
 22
92.5312711156
 13
0.0
 23
0.0
 14
1.0
 24
1.0
 15
0.0
 25
0.0
 16
0.0
 26
0.0
 36
1.0
 17
0.0
 27
0.0
 37
0.0
 40
185.0625422312
 41
0.7070707071
 42
50.0
 43
0.0
 44
0.0
 50
0.0
 51
0.0
 71
0
 72
100
 73
1
 74
1
 75
0
 76
0
 77
0
 78
0
  0
ENDTAB
  0
TABLE
  2
LTYPE
  5
5
100
AcDbSymbolTable
 70
6
  0
LTYPE
  5
14
100
AcDbSymbolTableRecord
100
AcDbLinetypeTableRecord
  2
BYBLOCK
 70
0
  3

 72
65
 73
0
 40
0.0
  0
LTYPE
  5
15
100
AcDbSymbolTableRecord
100
AcDbLinetypeTableRecord
  2
BYLAYER
 70
0
  3

 72
65
 73
0
 40
0.0
  0
LTYPE
  5
16
100
AcDbSymbolTableRecord
100
AcDbLinetypeTableRecord
  2
CONTINUOUS
 70
64
  3
Solid line
 72
65
 73
0
 40
0.0
  0
LTYPE
  5
1F5
100
AcDbSymbolTableRecord
100
AcDbLinetypeTableRecord
  2
CENTER
 70
64
  3
____ _ ____ _ ____ _ ____ _ ____ _ ____ _ ____
 72
65
 73
4
 40
0.6
 49
0.375
 74
0
 49
-0.075
 74
0
 49
0.075
 74
0
 49
-0.075
 74
0
  0
LTYPE
  5
1F6
100
AcDbSymbolTableRecord
100
AcDbLinetypeTableRecord
  2
HIDDEN
 70
64
  3
- - - - - - - - - - - - - - - - - - - -
 72
65
 73
2
 40
0.2
 49
0.1
 74
0
 49
-0.1
 74
0
  0
LTYPE
  5
1F7
100
AcDbSymbolTableRecord
100
AcDbLinetypeTableRecord
  2
PHANTOM
 70
64
  3
_____ _ _ _____ _ _ _____ _ _ _____
 72
65
 73
6
 40
0.8
 49
0.45
 74
0
 49
-0.05
 74
0
 49
0.1
 74
0
 49
-0.05
 74
0
 49
0.1
 74
0
 49
-0.05
 74
0
  0
LTYPE
  5
1F8
100
AcDbSymbolTableRecord
100
AcDbLinetypeTableRecord
  2
DOT
 70
64
  3
. . . . . . . . . . . . . . . . . . . .
 72
65
 73
2
 40
0.2
 49
0.1
 74
0
 49
-0.1
 74
0
  0
LTYPE
  5
1F9
100
AcDbSymbolTableRecord
100
AcDbLinetypeTableRecord
  2
DASHED
 70
64
  3
- - - - - - - - - - - - - - - - - - - -
 72
65
 73
2
 40
0.2
 49
0.1
 74
0
 49
-0.1
 74
0
  0
ENDTAB
  0
TABLE
  2
LAYER
  5
2
100
AcDbSymbolTable
 70
36
  0
LAYER
  5
10
100
AcDbSymbolTableRecord
100
AcDbLayerTableRecord
  2
0
 70
0
 62
7
  6
CONTINUOUS
370
-3
390
F
  0
LAYER
  5
1FA
100
AcDbSymbolTableRecord
100
AcDbLayerTableRecord
  2
DEFAULT_1
 70
0
 62
7
  6
CENTER
370
-3
390
F
  0
LAYER
  5
1FB
100
AcDbSymbolTableRecord
100
AcDbLayerTableRecord
  2
DEFAULT_2
 70
0
 62
7
  6
HIDDEN
370
-3
390
F
  0
LAYER
  5
1FC
100
AcDbSymbolTableRecord
100
AcDbLayerTableRecord
  2
DEFAULT_3
 70
0
 62
7
  6
PHANTOM
370
-3
390
F
  0
LAYER
  5
1FD
100
AcDbSymbolTableRecord
100
AcDbLayerTableRecord
  2
00_COMPONENTS
 70
0
 62
7
  6
CONTINUOUS
370
-3
390
F
  0
LAYER
  5
1FE
100
AcDbSymbolTableRecord
100
AcDbLayerTableRecord
  2
01_1_DEFAULT_DATUMS
 70
0
 62
7
  6
CONTINUOUS
370
-3
390
F
  0
LAYER
  5
1FF
100
AcDbSymbolTableRecord
100
AcDbLayerTableRecord
  2
01_PLANES
 70
0
 62
7
  6
CONTINUOUS
370
-3
390
F
  0
LAYER
  5
200
100
AcDbSymbolTableRecord
100
AcDbLayerTableRecord
  2
02_COORD_SYS
 70
0
 62
7
  6
CONTINUOUS
370
-3
390
F
  0
LAYER
  5
201
100
AcDbSymbolTableRecord
100
AcDbLayerTableRecord
  2
03_AXES
 70
0
 62
7
  6
CONTINUOUS
370
-3
390
F
  0
LAYER
  5
202
100
AcDbSymbolTableRecord
100
AcDbLayerTableRecord
  2
04_POINTS
 70
0
 62
7
  6
CONTINUOUS
370
-3
390
F
  0
LAYER
  5
203
100
AcDbSymbolTableRecord
100
AcDbLayerTableRecord
  2
05_CURVES
 70
0
 62
7
  6
CONTINUOUS
370
-3
390
F
  0
LAYER
  5
204
100
AcDbSymbolTableRecord
100
AcDbLayerTableRecord
  2
06_SURFS
 70
0
 62
7
  6
CONTINUOUS
370
-3
390
F
  0
LAYER
  5
205
100
AcDbSymbolTableRecord
100
AcDbLayerTableRecord
  2
07_COSMETICS
 70
0
 62
7
  6
CONTINUOUS
370
-3
390
F
  0
LAYER
  5
206
100
AcDbSymbolTableRecord
100
AcDbLayerTableRecord
  2
10_NOTES
 70
0
 62
7
  6
CONTINUOUS
370
-3
390
F
  0
LAYER
  5
207
100
AcDbSymbolTableRecord
100
AcDbLayerTableRecord
  2
11_NOTES_PUB
 70
0
 62
7
  6
CONTINUOUS
370
-3
390
F
  0
LAYER
  5
208
100
AcDbSymbolTableRecord
100
AcDbLayerTableRecord
  2
13_REF_GTOL
 70
0
 62
7
  6
CONTINUOUS
370
-3
390
F
  0
LAYER
  5
209
100
AcDbSymbolTableRecord
100
AcDbLayerTableRecord
  2
16_MISC
 70
0
 62
7
  6
CONTINUOUS
370
-3
390
F
  0
LAYER
  5
20A
100
AcDbSymbolTableRecord
100
AcDbLayerTableRecord
  2
17_NO_PRINT
 70
0
 62
7
  6
CONTINUOUS
370
-3
390
F
  0
LAYER
  5
20B
100
AcDbSymbolTableRecord
100
AcDbLayerTableRecord
  2
18_DATUM_CAMS_JOINTS
 70
0
 62
7
  6
CONTINUOUS
370
-3
390
F
  0
LAYER
  5
20C
100
AcDbSymbolTableRecord
100
AcDbLayerTableRecord
  2
19_DATUM_FUNCTIONAL
 70
0
 62
7
  6
CONTINUOUS
370
-3
390
F
  0
LAYER
  5
20D
100
AcDbSymbolTableRecord
100
AcDbLayerTableRecord
  2
20_DATUM_KINEMATIC_SCHEME
 70
0
 62
7
  6
CONTINUOUS
370
-3
390
F
  0
ENDTAB
  0
TABLE
  2
STYLE
  5
3
100
AcDbSymbolTable
 70
1
  0
STYLE
  5
11
100
AcDbSymbolTableRecord
100
AcDbTextStyleTableRecord
  2
STANDARD
 70
0
 40
0.0
 41
1.0
 50
0.0
 71
0
 42
0.2
  3
ARIAL.TTF
  4

  0
STYLE
  5
20E
100
AcDbSymbolTableRecord
100
AcDbTextStyleTableRecord
  2
TEXTSTYLE_1
 70
0
 40
0.0
 41
0.8
 50
0.0
 71
0
 42
0.2
  3
gdt
  4

  0
ENDTAB
  0
TABLE
  2
VIEW
  5
6
100
AcDbSymbolTable
 70
0
  0
ENDTAB
  0
TABLE
  2
UCS
  5
7
100
AcDbSymbolTable
 70
0
  0
ENDTAB
  0
TABLE
  2
APPID
  5
9
100
AcDbSymbolTable
 70
1
  0
APPID
  5
20F
100
AcDbSymbolTableRecord
100
AcDbRegAppTableRecord
  2
ACAD
 70
0
  0
ENDTAB
  0
TABLE
  2
BLOCK_RECORD
  5
1
100
AcDbSymbolTable
 70
0
  0
BLOCK_RECORD
  5
210
100
AcDbSymbolTableRecord
100
AcDbBlockTableRecord
  2
*Model_Space
  0
BLOCK_RECORD
  5
211
100
AcDbSymbolTableRecord
100
AcDbBlockTableRecord
  2
*Paper_Space
  0
BLOCK_RECORD
  5
212
100
AcDbSymbolTableRecord
100
AcDbBlockTableRecord
  2
_FILLED
  0
ENDTAB
  0
TABLE
  2
DIMSTYLE
  5
A
100
AcDbSymbolTable
 70
1
100
AcDbDimStyleTable
 71
0
  0
DIMSTYLE
105
213
100
AcDbSymbolTableRecord
100
AcDbDimStyleTableRecord
  2
STANDARD
 70
0
  3

  4

 40
1.0
 41
1.557765507
 42
1.0
 43
0.38
 44
1.0
 45
0.0
 46
0.0
 47
0.01
 48
0.01
140
2.1808717098
141
0.09
142
0.0
143
25.4
144
1.0
145
0.0
146
1.0
147
0.625
 71
1
 72
0
 73
0
 74
0
 75
0
 76
0
 77
1
 78
8
 79
2
170
0
171
1
172
0
173
0
174
0
175
0
176
0
177
0
178
0
270
2
179
2
271
2
272
2
273
2
274
2
275
0
280
0
281
0
282
0
283
1
284
8
285
0
286
0
287
3
288
0
340
11
278
46
341
212
342
212
343
212
344
212
  0
ENDTAB
  0
ENDSEC
  0
SECTION
  2
BLOCKS
  0
BLOCK
  5
20
100
AcDbEntity
  8
0
100
AcDbBlockBegin
  2
*Model_Space
 70
0
 10
0.0
 20
0.0
 30
0.0
  3
*Model_Space
  1

  0
ENDBLK
  5
21
100
AcDbEntity
  8
0
100
AcDbBlockEnd
  0
BLOCK
  5
1C
100
AcDbEntity
  8
0
100
AcDbBlockBegin
  2
*Paper_Space
 70
0
 10
0.0
 20
0.0
 30
0.0
  3
*Paper_Space
  1

  0
ENDBLK
  5
1D
100
AcDbEntity
  8
0
100
AcDbBlockEnd
  0
BLOCK
  5
214
100
AcDbEntity
  8
0
100
AcDbBlockBegin
  2
_FILLED
 70
64
 10
0.0
 20
0.0
  3
_FILLED
  1

  0
SOLID
  5
215
100
AcDbEntity
  8
0
  6
BYBLOCK
 62
0
100
AcDbTrace
 10
0.0
 20
0.0
 11
-1.0
 21
0.25
 12
-1.0
 22
-0.25
 13
-1.0
 23
-0.25
  0
ENDBLK
  5
216
100
AcDbEntity
  8
0
  6
BYBLOCK
 62
0
100
AcDbBlockEnd
  0
ENDSEC
  0
SECTION
  2
ENTITIES
  0
LINE
  5
217
100
AcDbEntity
  8
0
100
AcDbLine
 62
7
  6
BYLAYER
 10
25.410408701
 20
158.38981173
 11
47.3487627832
 21
171.0558507589
  0
LINE
  5
218
100
AcDbEntity
  8
0
100
AcDbLine
 62
7
  6
BYLAYER
 10
35.6723770216
 20
165.0495124783
 11
36.2795472262
 21
165.2975795979
  0
LINE
  5
219
100
AcDbEntity
  8
0
100
AcDbLine
 62
7
  6
BYLAYER
 10
69.2602508842
 20
15.5080728385
 11
71.3815800596
 21
14.2833505749
  0
LINE
  5
21A
100
AcDbEntity
  8
0
100
AcDbLine
 62
7
  6
BYLAYER
 10
45.2094667965
 20
146.9590788066
 11
54.6128178646
 21
152.3880736703
  0
LINE
  5
21B
100
AcDbEntity
  8
0
100
AcDbLine
 62
7
  6
BYLAYER
 10
61.8355760346
 20
156.5581101523
 11
67.1478208787
 21
159.6251178355
  0
LINE
  5
21C
100
AcDbEntity
  8
0
100
AcDbLine
 62
7
  6
BYLAYER
 10
67.2067407197
 20
158.7641621975
 11
62.6106563137
 21
156.1106274679
  0
LINE
  5
21D
100
AcDbEntity
  8
0
100
AcDbLine
 62
7
  6
BYLAYER
 10
54.4212174017
 20
151.3824809308
 11
45.2865217661
 21
146.1085934275
  0
LINE
  5
21E
100
AcDbEntity
  8
0
100
AcDbLine
 62
7
  6
BYLAYER
 10
75.4474271236
 20
25.1223795978
 11
73.6089336081
 21
26.1838103111
  0
LINE
  5
21F
100
AcDbEntity
  8
0
100
AcDbLine
 62
7
  6
BYLAYER
 10
48.7540688549
 20
42.860600645
 11
68.9066960216
 21
31.2257391412
  0
LINE
  5
220
100
AcDbEntity
  8
0
100
AcDbLine
 62
7
  6
BYLAYER
 10
76.8616171343
 20
28.3883226307
 11
78.9829463097
 21
27.1636003672
  0
LINE
  5
221
100
AcDbEntity
  8
0
100
AcDbLine
 62
7
  6
BYLAYER
 10
48.7540688549
 20
45.3101078964
 11
70.3209154719
 21
32.8587648835
  0
LINE
  5
222
100
AcDbEntity
  8
0
100
AcDbLine
 62
7
  6
BYLAYER
 10
29.662106276
 20
57.312411169
 11
71.1694400766
 21
33.3486578682
  0
LINE
  5
223
100
AcDbEntity
  8
0
100
AcDbLine
 62
7
  6
BYLAYER
 10
22.9940026885
 20
74.8791870045
 11
22.9940026885
 21
101.8237667698
  0
LINE
  5
224
100
AcDbEntity
  8
0
100
AcDbLine
 62
7
  6
BYLAYER
 10
55.8251072271
 20
139.8610172531
 11
80.5737415296
 21
154.1495626386
  0
LINE
  5
225
100
AcDbEntity
  8
0
100
AcDbLine
 62
7
  6
BYLAYER
 10
29.662106276
 20
57.312411169
 11
29.662106276
 21
68.416844042
  0
LINE
  5
226
100
AcDbEntity
  8
0
100
AcDbLine
 62
7
  6
BYLAYER
 10
29.662106276
 20
68.416844042
 11
70.3209154719
 21
44.943000657
  0
LINE
  5
227
100
AcDbEntity
  8
0
100
AcDbLine
 62
7
  6
BYLAYER
 10
30.5106308806
 20
69.8865399272
 11
71.1694400766
 21
46.4126965422
  0
LINE
  5
228
100
AcDbEntity
  8
0
100
AcDbLine
 62
7
  6
BYLAYER
 10
31.076169093
 20
70.2130516173
 11
22.9940026885
 21
74.8791870045
  0
LINE
  5
229
100
AcDbEntity
  8
0
100
AcDbLine
 62
7
  6
BYLAYER
 10
57.1552174804
 20
155.9943292565
 11
55.9598020922
 21
153.4185610029
  0
LINE
  5
22A
100
AcDbEntity
  8
0
100
AcDbLine
 62
7
  6
BYLAYER
 10
72.4351757674
 20
130.9165029665
 11
71.8764979879
 21
130.5939521255
  0
LINE
  5
22B
100
AcDbEntity
  8
0
100
AcDbLine
 62
7
  6
BYLAYER
 10
73.5028503558
 20
52.2505692462
 11
68.3814996947
 21
55.2073155384
  0
LINE
  5
22C
100
AcDbEntity
  8
0
100
AcDbLine
 62
7
  6
BYLAYER
 10
62.1754601299
 20
58.7902930939
 11
49.2895371158
 21
66.2298159104
  0
LINE
  5
22D
100
AcDbEntity
  8
0
100
AcDbLine
 62
7
  6
BYLAYER
 10
43.083497551
 20
69.812793466
 11
36.7331446481
 21
73.4790884812
  0
LINE
  5
22E
100
AcDbEntity
  8
0
100
AcDbLine
 62
7
  6
BYLAYER
 10
43.083497551
 20
68.9374181606
 11
43.083497551
 21
78.7354471662
  0
LINE
  5
22F
100
AcDbEntity
  8
0
100
AcDbLine
 62
7
  6
BYLAYER
 10
63.687217323
 20
152.2231627042
 11
64.8826327112
 21
154.7989309578
  0
LINE
  5
230
100
AcDbEntity
  8
0
100
AcDbLine
 62
7
  6
BYLAYER
 10
64.8826327112
 20
152.3494237064
 11
63.687217323
 21
149.7736554528
  0
LINE
  5
231
100
AcDbEntity
  8
0
100
AcDbLine
 62
7
  6
BYLAYER
 10
98.2514846582
 20
143.2903418419
 11
73.5028503558
 21
129.0017964564
  0
LINE
  5
232
100
AcDbEntity
  8
0
100
AcDbLine
 62
7
  6
BYLAYER
 10
98.0443726946
 20
142.8325559002
 11
73.2957383922
 21
128.5440105147
  0
LINE
  5
233
100
AcDbEntity
  8
0
100
AcDbLine
 62
7
  6
BYLAYER
 10
102.6709248564
 20
40.8397795219
 11
100.8324313409
 21
41.9012102351
  0
LINE
  5
234
100
AcDbEntity
  8
0
100
AcDbLine
 62
7
  6
BYLAYER
 10
104.085114867
 20
44.1057225548
 11
106.2064440424
 21
42.8810002912
  0
LINE
  5
235
100
AcDbEntity
  8
0
100
AcDbLine
 62
7
  6
BYLAYER
 10
47.3398129171
 20
101.6485825389
 11
43.9403042921
 21
144.4363494301
  0
LINE
  5
236
100
AcDbEntity
  8
0
100
AcDbLine
 62
7
  6
BYLAYER
 10
48.7540688549
 20
45.3101078964
 11
48.7540688549
 21
42.860600645
  0
LINE
  5
237
100
AcDbEntity
  8
0
100
AcDbLine
 62
7
  6
BYLAYER
 10
43.2687147594
 20
79.5038896855
 11
43.083497551
 21
78.7354471662
  0
LINE
  5
238
100
AcDbEntity
  8
0
100
AcDbLine
 62
7
  6
BYLAYER
 10
29.662106276
 20
68.416844042
 11
30.5106308806
 21
69.8865399272
  0
LINE
  5
239
100
AcDbEntity
  8
0
100
AcDbLine
 62
7
  6
BYLAYER
 10
72.1865334594
 20
130.6039938543
 11
72.4351727127
 21
130.9165082575
  0
LINE
  5
23A
100
AcDbEntity
  8
0
100
AcDbLine
 62
7
  6
BYLAYER
 10
47.3398129171
 20
101.6485825389
 11
48.7540205915
 21
102.4650708466
  0
LINE
  5
23B
100
AcDbEntity
  8
0
100
AcDbLine
 62
7
  6
BYLAYER
 10
67.53616104
 20
66.3098924199
 11
63.2060159931
 21
68.8098462718
  0
LINE
  5
23C
100
AcDbEntity
  8
0
100
AcDbLine
 62
7
  6
BYLAYER
 10
48.4441984611
 20
77.3323927919
 11
44.1140534141
 21
79.8323466439
  0
LINE
  5
23D
100
AcDbEntity
  8
0
100
AcDbLine
 62
7
  6
BYLAYER
 10
45.2865217661
 20
146.1085934275
 11
48.7540205915
 21
102.4650708466
  0
LINE
  5
23E
100
AcDbEntity
  8
0
100
AcDbLine
 62
7
  6
BYLAYER
 10
49.2895371158
 20
66.2298159104
 11
49.2895371158
 21
76.027844916
  0
LINE
  5
23F
100
AcDbEntity
  8
0
100
AcDbLine
 62
7
  6
BYLAYER
 10
54.4212174017
 20
150.0262338947
 11
54.4212174017
 21
151.659238729
  0
LINE
  5
240
100
AcDbEntity
  8
0
100
AcDbLine
 62
7
  6
BYLAYER
 10
76.2471800594
 20
144.9718288844
 11
75.0517646712
 21
142.3960606309
  0
LINE
  5
241
100
AcDbEntity
  8
0
100
AcDbLine
 62
7
  6
BYLAYER
 10
55.8251072271
 20
138.3913129022
 11
55.8251072271
 21
139.8610172531
  0
LINE
  5
242
100
AcDbEntity
  8
0
100
AcDbLine
 62
7
  6
BYLAYER
 10
55.9598020922
 20
153.4185610029
 11
55.9598020922
 21
150.9690537515
  0
LINE
  5
243
100
AcDbEntity
  8
0
100
AcDbLine
 62
7
  6
BYLAYER
 10
59.2258020135
 20
151.5329777268
 11
59.2258020135
 21
149.0834704754
  0
LINE
  5
244
100
AcDbEntity
  8
0
100
AcDbLine
 62
7
  6
BYLAYER
 10
72.4351727127
 20
130.9165082575
 11
81.5462599578
 21
154.3106134163
  0
LINE
  5
245
100
AcDbEntity
  8
0
100
AcDbLine
 62
7
  6
BYLAYER
 10
82.8190574631
 20
153.5757800582
 11
73.5028503558
 21
129.6549983901
  0
LINE
  5
246
100
AcDbEntity
  8
0
100
AcDbLine
 62
7
  6
BYLAYER
 10
73.2957335274
 20
128.5440189409
 11
73.5028503558
 21
129.0017964564
  0
LINE
  5
247
100
AcDbEntity
  8
0
100
AcDbLine
 62
7
  6
BYLAYER
 10
109.2116265187
 20
55.3121933465
 11
108.7873587843
 21
55.5571388957
  0
LINE
  5
248
100
AcDbEntity
  8
0
100
AcDbLine
 62
7
  6
BYLAYER
 10
62.1754601299
 20
57.9149177886
 11
62.1754601299
 21
67.7129467942
  0
LINE
  5
249
100
AcDbEntity
  8
0
100
AcDbLine
 62
7
  6
BYLAYER
 10
63.687217323
 20
152.2231627042
 11
63.687217323
 21
149.7736554528
  0
LINE
  5
24A
100
AcDbEntity
  8
0
100
AcDbLine
 62
7
  6
BYLAYER
 10
64.8826327112
 20
154.7989309578
 11
64.8826327112
 21
152.3494237064
  0
LINE
  5
24B
100
AcDbEntity
  8
0
100
AcDbLine
 62
7
  6
BYLAYER
 10
66.4212174017
 20
150.0262338947
 11
66.4212174017
 21
151.659238729
  0
LINE
  5
24C
100
AcDbEntity
  8
0
100
AcDbLine
 62
7
  6
BYLAYER
 10
73.5028503558
 20
86.5436875493
 11
47.3398129171
 21
101.6485825389
  0
LINE
  5
24D
100
AcDbEntity
  8
0
100
AcDbLine
 62
7
  6
BYLAYER
 10
109.2116265187
 20
67.39642912
 11
98.2514846582
 21
73.7241519115
  0
LINE
  5
24E
100
AcDbEntity
  8
0
100
AcDbLine
 62
7
  6
BYLAYER
 10
48.7540205915
 20
102.4650708466
 11
74.209948305
 21
87.7684166115
  0
LINE
  5
24F
100
AcDbEntity
  8
0
100
AcDbLine
 62
7
  6
BYLAYER
 10
68.3814996947
 20
55.2073155384
 11
68.3814996947
 21
65.0053445439
  0
LINE
  5
250
100
AcDbEntity
  8
0
100
AcDbLine
 62
7
  6
BYLAYER
 10
69.2602508842
 20
30.6133675553
 11
69.2602508842
 21
15.5080728385
  0
LINE
  5
251
100
AcDbEntity
  8
0
100
AcDbLine
 62
7
  6
BYLAYER
 10
70.3209154719
 20
44.943000657
 11
70.3209154719
 21
33.8385677841
  0
LINE
  5
252
100
AcDbEntity
  8
0
100
AcDbLine
 62
7
  6
BYLAYER
 10
71.3815800596
 20
14.2833505749
 11
71.3815800596
 21
31.021650126
  0
LINE
  5
253
100
AcDbEntity
  8
0
100
AcDbLine
 62
7
  6
BYLAYER
 10
62.3606773384
 20
68.4813893135
 11
62.1754601299
 21
67.7129467942
  0
LINE
  5
254
100
AcDbEntity
  8
0
100
AcDbLine
 62
7
  6
BYLAYER
 10
30.5106308806
 20
69.8865399272
 11
36.7331446481
 21
73.4790884812
  0
LINE
  5
255
100
AcDbEntity
  8
0
100
AcDbLine
 62
7
  6
BYLAYER
 10
68.6889385946
 20
158.7248948156
 11
68.756925313
 21
157.8691829524
  0
LINE
  5
256
100
AcDbEntity
  8
0
100
AcDbLine
 62
7
  6
BYLAYER
 10
73.5028503558
 20
129.6549983901
 11
73.5028503558
 21
129.0017964564
  0
LINE
  5
257
100
AcDbEntity
  8
0
100
AcDbLine
 62
7
  6
BYLAYER
 10
73.5028503558
 20
52.2505692462
 11
73.5028503558
 21
86.5436875493
  0
LINE
  5
258
100
AcDbEntity
  8
0
100
AcDbLine
 62
7
  6
BYLAYER
 10
74.209948305
 20
129.0718267034
 11
74.209948305
 21
87.7684166115
  0
LINE
  5
259
100
AcDbEntity
  8
0
100
AcDbLine
 62
7
  6
BYLAYER
 10
75.0517646712
 20
142.3960606309
 11
75.0517646712
 21
139.9465533795
  0
LINE
  5
25A
100
AcDbEntity
  8
0
100
AcDbLine
 62
7
  6
BYLAYER
 10
98.2514846582
 20
143.2903418419
 11
98.0443678299
 21
142.8325643262
  0
LINE
  5
25B
100
AcDbEntity
  8
0
100
AcDbLine
 62
7
  6
BYLAYER
 10
74.209948305
 20
87.7684166115
 11
96.1301672587
 21
100.4239853816
  0
LINE
  5
25C
100
AcDbEntity
  8
0
100
AcDbLine
 62
7
  6
BYLAYER
 10
73.5028503558
 20
86.5436875493
 11
98.2514846582
 21
100.8322329348
  0
LINE
  5
25D
100
AcDbEntity
  8
0
100
AcDbLine
 62
7
  6
BYLAYER
 10
98.2514846582
 20
100.8322329348
 11
96.1301672587
 21
102.0569483997
  0
LINE
  5
25E
100
AcDbEntity
  8
0
100
AcDbLine
 62
7
  6
BYLAYER
 10
96.1301672587
 20
100.4239853816
 11
96.1301672587
 21
141.7273954734
  0
LINE
  5
25F
100
AcDbEntity
  8
0
100
AcDbLine
 62
7
  6
BYLAYER
 10
71.1694400766
 20
46.4126965422
 11
70.3209154719
 21
44.943000657
  0
LINE
  5
260
100
AcDbEntity
  8
0
100
AcDbLine
 62
7
  6
BYLAYER
 10
98.2514846582
 20
66.5391146317
 11
98.2514846582
 21
100.8322329348
  0
LINE
  5
261
100
AcDbEntity
  8
0
100
AcDbLine
 62
7
  6
BYLAYER
 10
98.2514846582
 20
143.2903418419
 11
98.2514846582
 21
143.9435437756
  0
LINE
  5
262
100
AcDbEntity
  8
0
100
AcDbLine
 62
7
  6
BYLAYER
 10
49.6025934596
 20
45.800000881
 11
48.7540688549
 21
45.3101078964
  0
LINE
  5
263
100
AcDbEntity
  8
0
100
AcDbLine
 62
7
  6
BYLAYER
 10
72.7957406306
 20
128.5935347937
 11
73.2957335274
 21
128.5440189409
  0
LINE
  5
264
100
AcDbEntity
  8
0
100
AcDbLine
 62
7
  6
BYLAYER
 10
23.8846383874
 20
156.0152315896
 11
43.9403042921
 21
144.4363494301
  0
LINE
  5
265
100
AcDbEntity
  8
0
100
AcDbLine
 62
7
  6
BYLAYER
 10
72.7957406306
 20
128.5935347937
 11
55.8251072271
 21
138.3913129022
  0
LINE
  5
266
100
AcDbEntity
  8
0
100
AcDbLine
 62
7
  6
BYLAYER
 10
55.8251072271
 20
139.8610172531
 11
73.5028503558
 21
129.6549983901
  0
LINE
  5
267
100
AcDbEntity
  8
0
100
AcDbLine
 62
7
  6
BYLAYER
 10
45.2865217661
 20
146.1085934275
 11
55.9664954016
 21
139.9426472664
  0
LINE
  5
268
100
AcDbEntity
  8
0
100
AcDbLine
 62
7
  6
BYLAYER
 10
45.2094667965
 20
146.9590788066
 11
25.410408701
 21
158.38981173
  0
LINE
  5
269
100
AcDbEntity
  8
0
100
AcDbLine
 62
7
  6
BYLAYER
 10
98.2514846582
 20
66.5391146317
 11
73.5028503558
 21
52.2505692462
  0
LINE
  5
26A
100
AcDbEntity
  8
0
100
AcDbLine
 62
7
  6
BYLAYER
 10
108.363101914
 20
67.8863390359
 11
71.1694400766
 21
46.4126965422
  0
LINE
  5
26B
100
AcDbEntity
  8
0
100
AcDbLine
 62
7
  6
BYLAYER
 10
71.8764979879
 20
130.5939521255
 11
72.1865334594
 21
130.6039938543
  0
LINE
  5
26C
100
AcDbEntity
  8
0
100
AcDbLine
 62
7
  6
BYLAYER
 10
109.2116265187
 20
56.291996247
 11
109.2116265187
 21
67.39642912
  0
LINE
  5
26D
100
AcDbEntity
  8
0
100
AcDbLine
 62
7
  6
BYLAYER
 10
110.2722911064
 20
36.7367790378
 11
110.2722911064
 21
53.475078589
  0
LINE
  5
26E
100
AcDbEntity
  8
0
100
AcDbLine
 62
7
  6
BYLAYER
 10
55.9598020922
 20
150.9690537515
 11
59.2258020135
 21
149.0834704754
  0
LINE
  5
26F
100
AcDbEntity
  8
0
100
AcDbLine
 62
7
  6
BYLAYER
 10
75.0517646712
 20
139.9465533795
 11
75.7867580229
 21
139.5222143699
  0
LINE
  5
270
100
AcDbEntity
  8
0
100
AcDbLine
 62
7
  6
BYLAYER
 10
55.9598020922
 20
153.4185610029
 11
59.2258020135
 21
151.5329777268
  0
LINE
  5
271
100
AcDbEntity
  8
0
100
AcDbLine
 62
7
  6
BYLAYER
 10
75.0517646712
 20
142.3960606309
 11
76.5656182246
 21
141.5220566469
  0
LINE
  5
272
100
AcDbEntity
  8
0
100
AcDbLine
 62
7
  6
BYLAYER
 10
109.2116265187
 20
55.3121933465
 11
70.3209154719
 21
32.8587648835
  0
LINE
  5
273
100
AcDbEntity
  8
0
100
AcDbLine
 62
7
  6
BYLAYER
 10
78.0157239948
 20
145.2454242284
 11
76.2471800594
 21
144.9718288844
  0
LINE
  5
274
100
AcDbEntity
  8
0
100
AcDbLine
 62
7
  6
BYLAYER
 10
64.8826327112
 20
154.7989309578
 11
61.6166327899
 21
156.6845142339
  0
LINE
  5
275
100
AcDbEntity
  8
0
100
AcDbLine
 62
7
  6
BYLAYER
 10
108.363101914
 20
54.8223003618
 11
109.2116265187
 21
56.291996247
  0
LINE
  5
276
100
AcDbEntity
  8
0
100
AcDbLine
 62
7
  6
BYLAYER
 10
71.3815800596
 20
31.021650126
 11
110.2722911064
 21
53.475078589
  0
LINE
  5
277
100
AcDbEntity
  8
0
100
AcDbLine
 62
7
  6
BYLAYER
 10
106.2064440424
 20
47.1268128603
 11
102.6709248564
 21
45.0855920909
  0
LINE
  5
278
100
AcDbEntity
  8
0
100
AcDbLine
 62
7
  6
BYLAYER
 10
78.9829463097
 20
31.4094129362
 11
75.4474271236
 21
29.3681921669
  0
LINE
  5
279
100
AcDbEntity
  8
0
100
AcDbLine
 62
7
  6
BYLAYER
 10
63.687217323
 20
149.7736554528
 11
59.2258020135
 21
149.0834704754
  0
LINE
  5
27A
100
AcDbEntity
  8
0
100
AcDbLine
 62
7
  6
BYLAYER
 10
59.2258020135
 20
151.5329777268
 11
63.687217323
 21
152.2231627042
  0
LINE
  5
27B
100
AcDbEntity
  8
0
100
AcDbLine
 62
7
  6
BYLAYER
 10
77.8867143552
 20
152.5982160364
 11
67.2067407197
 21
158.7641621975
  0
LINE
  5
27C
100
AcDbEntity
  8
0
100
AcDbLine
 62
7
  6
BYLAYER
 10
47.3487627832
 20
171.0558507589
 11
67.1478208787
 21
159.6251178355
  0
LINE
  5
27D
100
AcDbEntity
  8
0
100
AcDbLine
 62
7
  6
BYLAYER
 10
68.1785600585
 20
159.6959803323
 11
48.3037805251
 21
171.1704300593
  0
LINE
  5
27E
100
AcDbEntity
  8
0
100
AcDbLine
 62
7
  6
BYLAYER
 10
84.5143744993
 20
151.8744886018
 11
84.0507437305
 21
152.1421598954
  0
LINE
  5
27F
100
AcDbEntity
  8
0
100
AcDbLine
 62
7
  6
BYLAYER
 10
81.3165225218
 20
153.7207275343
 11
80.5737415296
 21
154.1495626386
  0
LINE
  5
280
100
AcDbEntity
  8
0
100
AcDbLine
 62
7
  6
BYLAYER
 10
98.2514846582
 20
143.9435437756
 11
88.9352775509
 21
157.1069602941
  0
LINE
  5
281
100
AcDbEntity
  8
0
100
AcDbLine
 62
7
  6
BYLAYER
 10
104.085114867
 20
44.1057225548
 11
100.9083215754
 21
42.2716110409
  0
LINE
  5
282
100
AcDbEntity
  8
0
100
AcDbLine
 62
7
  6
BYLAYER
 10
76.8616171343
 20
28.3883226307
 11
73.6848238427
 21
26.5542111168
  0
LINE
  5
283
100
AcDbEntity
  8
0
100
AcDbLine
 62
7
  6
BYLAYER
 10
75.4474271236
 20
25.1223795978
 11
78.9829463097
 21
27.1636003672
  0
LINE
  5
284
100
AcDbEntity
  8
0
100
AcDbLine
 62
7
  6
BYLAYER
 10
102.6709248564
 20
40.8397795219
 11
106.2064440424
 21
42.8810002912
  0
LINE
  5
285
100
AcDbEntity
  8
0
100
AcDbLine
 62
7
  6
BYLAYER
 10
61.6166327899
 20
156.6845142339
 11
57.1552174804
 21
155.9943292565
  0
LINE
  5
286
100
AcDbEntity
  8
0
100
AcDbLine
 62
7
  6
BYLAYER
 10
81.5462599578
 20
154.3106134163
 11
82.8190574631
 21
153.5757800582
  0
LINE
  5
287
100
AcDbEntity
  8
0
100
AcDbLine
 62
7
  6
BYLAYER
 10
88.9352775509
 20
157.1069602941
 11
88.3771198227
 21
157.6227958673
  0
LINE
  5
288
100
AcDbEntity
  8
0
100
AcDbLine
 62
7
  6
BYLAYER
 10
71.3815800596
 20
14.2833505749
 11
110.2722911064
 21
36.7367790378
  0
LINE
  5
289
100
AcDbEntity
  8
0
100
AcDbLine
 62
7
  6
BYLAYER
 10
88.3771250894
 20
157.6228049846
 11
87.1043275842
 21
158.3576383428
  0
ARC
  5
28A
100
AcDbEntity
  8
0
100
AcDbCircle
 62
7
  6
BYLAYER
 10
533.5101460208
 20
121.5914228356
 40
510.8977427582
100
AcDbArc
 50
180.0167144877
 51
182.2175060969
  0
ARC
  5
28B
100
AcDbEntity
  8
0
100
AcDbCircle
 62
7
  6
BYLAYER
 10
78.1265886549
 20
138.1385601684
 40
5.7128004856
100
AcDbArc
 50
118.8604896423
 51
119.9961411085
  0
ARC
  5
28C
100
AcDbEntity
  8
0
100
AcDbCircle
 62
7
  6
BYLAYER
 10
59.0346260756
 20
149.1610605409
 40
5.712800485
100
AcDbArc
 50
118.8604896423
 51
119.9961411085
  0
ARC
  5
28D
100
AcDbEntity
  8
0
100
AcDbCircle
 62
7
  6
BYLAYER
 10
58.3814445155
 20
150.1516379448
 40
4.525222761
100
AcDbArc
 50
127.3717196078
 51
127.9279863649
  0
ARC
  5
28E
100
AcDbEntity
  8
0
100
AcDbCircle
 62
7
  6
BYLAYER
 10
37.0954353434
 20
161.7784207085
 40
3.6125
100
AcDbArc
 50
103.0529493253
 51
158.8247812782
  0
SPLINE
  5
28F
100
AcDbEntity
  8
0
100
AcDbSpline
 62
7
  6
BYLAYER
 70
0
 71
3
 72
9
 73
5
 74
0
 42
0.0000001
 43
0.0000001
 44
0.0000000001
 40
0.0
 40
0.0
 40
0.0
 40
0.0
 40
0.245959569
 40
1.0
 40
1.0
 40
1.0
 40
1.0
 10
23.8846383874
 20
156.0152315896
 30
0.0
 10
23.6715465693
 20
153.1864405528
 30
0.0
 10
22.918714698
 20
141.6770318962
 30
0.0
 10
22.6124250018
 20
130.1392028229
 30
0.0
 10
22.6124250018
 20
121.4423822953
 30
0.0
  0
SPLINE
  5
290
100
AcDbEntity
  8
0
100
AcDbSpline
 62
7
  6
BYLAYER
 70
0
 71
3
 72
9
 73
5
 74
0
 42
0.0000001
 43
0.0000001
 44
0.0000000001
 40
0.0
 40
0.0
 40
0.0
 40
0.0
 40
0.5255283798
 40
1.0
 40
1.0
 40
1.0
 40
1.0
 10
36.2795489566
 20
165.2975872902
 30
0.0
 10
36.4356394573
 20
165.3339012425
 30
0.0
 10
36.7457668201
 20
165.3633947167
 30
0.0
 10
37.0470476869
 20
165.2704420941
 30
0.0
 10
37.1723521822
 20
165.1980971906
 30
0.0
  0
SPLINE
  5
291
100
AcDbEntity
  8
0
100
AcDbSpline
 62
7
  6
BYLAYER
 70
0
 71
3
 72
9
 73
5
 74
0
 42
0.0000001
 43
0.0000001
 44
0.0000000001
 40
0.0
 40
0.0
 40
0.0
 40
0.0
 40
0.2566078267
 40
1.0
 40
1.0
 40
1.0
 40
1.0
 10
56.1785590508
 20
154.1086832561
 30
0.0
 10
56.130195356
 20
154.0807606305
 30
0.0
 10
55.9433682265
 20
153.969137608
 30
0.0
 10
55.763279244
 20
153.8460993572
 30
0.0
 10
55.6347082695
 20
153.7478972558
 30
0.0
  0
SPLINE
  5
292
100
AcDbEntity
  8
0
100
AcDbSpline
 62
7
  6
BYLAYER
 70
0
 71
3
 72
11
 73
7
 74
0
 42
0.0000001
 43
0.0000001
 44
0.0000000001
 40
0.0
 40
0.0
 40
0.0
 40
0.0
 40
0.2808215834
 40
0.5370333039
 40
0.7739262056
 40
1.0
 40
1.0
 40
1.0
 40
1.0
 10
55.5999233148
 20
153.721060986
 30
0.0
 10
55.4186773563
 20
153.5798187579
 30
0.0
 10
55.0917002259
 20
153.2823722601
 30
0.0
 10
54.711077261
 20
152.7704211549
 30
0.0
 10
54.4752984718
 20
152.2248693616
 30
0.0
 10
54.4212206716
 20
151.8442228656
 30
0.0
 10
54.4212521271
 20
151.6592387267
 30
0.0
  0
SPLINE
  5
293
100
AcDbEntity
  8
0
100
AcDbSpline
 62
7
  6
BYLAYER
 70
0
 71
3
 72
11
 73
7
 74
0
 42
0.0000001
 43
0.0000001
 44
0.0000000001
 40
0.0
 40
0.0
 40
0.0
 40
0.0
 40
0.2405320068
 40
0.5060127042
 40
0.76814268
 40
1.0
 40
1.0
 40
1.0
 40
1.0
 10
25.4104086618
 20
158.3898117527
 30
0.0
 10
25.2090545035
 20
158.2722005823
 30
0.0
 10
24.824928353
 20
157.9568268856
 30
0.0
 10
24.3597166229
 20
157.36961961
 30
0.0
 10
24.0218861962
 20
156.7104585862
 30
0.0
 10
23.9015228904
 20
156.2393731407
 30
0.0
 10
23.8846383874
 20
156.0152315896
 30
0.0
  0
SPLINE
  5
294
100
AcDbEntity
  8
0
100
AcDbSpline
 62
7
  6
BYLAYER
 70
0
 71
3
 72
11
 73
7
 74
0
 42
0.0000001
 43
0.0000001
 44
0.0000000001
 40
0.0
 40
0.0
 40
0.0
 40
0.0
 40
0.2177651606
 40
0.4508956102
 40
0.7103690052
 40
1.0
 40
1.0
 40
1.0
 40
1.0
 10
84.577216961
 20
151.0409882272
 30
0.0
 10
84.4914784829
 20
151.0905336641
 30
0.0
 10
84.3309284431
 20
151.2253014871
 30
0.0
 10
84.1601192777
 20
151.5047082964
 30
0.0
 10
84.0587173221
 20
151.8489426486
 30
0.0
 10
84.0386975302
 20
152.0994811075
 30
0.0
 10
84.0386975302
 20
152.2311851088
 30
0.0
  0
SPLINE
  5
295
100
AcDbEntity
  8
0
100
AcDbSpline
 62
7
  6
BYLAYER
 70
0
 71
3
 72
13
 73
9
 74
0
 42
0.0000001
 43
0.0000001
 44
0.0000000001
 40
0.0
 40
0.0
 40
0.0
 40
0.0
 40
0.1083974289
 40
0.2281040917
 40
0.4900604625
 40
0.7575574094
 40
0.8837161155
 40
1.0
 40
1.0
 40
1.0
 40
1.0
 10
84.3361593629
 20
151.7724259113
 30
0.0
 10
84.4738026555
 20
151.8284541313
 30
0.0
 10
84.7503971172
 20
151.979400945
 30
0.0
 10
85.2783542574
 20
152.3985930969
 30
0.0
 10
85.8464357011
 20
153.0977374297
 30
0.0
 10
86.2389372801
 20
153.9170700988
 30
0.0
 10
86.4107142873
 20
154.5967263755
 30
0.0
 10
86.4428399785
 20
154.9294662872
 30
0.0
 10
86.4428399785
 20
155.088888067
 30
0.0
  0
SPLINE
  5
296
100
AcDbEntity
  8
0
100
AcDbSpline
 62
7
  6
BYLAYER
 70
0
 71
3
 72
11
 73
7
 74
0
 42
0.0000001
 43
0.0000001
 44
0.0000000001
 40
0.0
 40
0.0
 40
0.0
 40
0.0
 40
0.2177825102
 40
0.4509091639
 40
0.7102957096
 40
1.0
 40
1.0
 40
1.0
 40
1.0
 10
101.3709534002
 20
40.7110182576
 30
0.0
 10
101.2851881328
 20
40.7605337476
 30
0.0
 10
101.1247246205
 20
40.8954338462
 30
0.0
 10
100.9538924205
 20
41.1747517036
 30
0.0
 10
100.8524281978
 20
41.5189761539
 30
0.0
 10
100.8324548796
 20
41.7695132363
 30
0.0
 10
100.8324548796
 20
41.9012510063
 30
0.0
  0
SPLINE
  5
297
100
AcDbEntity
  8
0
100
AcDbSpline
 62
7
  6
BYLAYER
 70
0
 71
3
 72
11
 73
7
 74
0
 42
0.0000001
 43
0.0000001
 44
0.0000000001
 40
0.0
 40
0.0
 40
0.0
 40
0.0
 40
0.2372428334
 40
0.4999989082
 40
0.7627555772
 40
1.0
 40
1.0
 40
1.0
 40
1.0
 10
68.9066960216
 20
31.2257391412
 30
0.0
 10
68.9568913028
 20
31.1967595377
 30
0.0
 10
69.0518747674
 20
31.1168123718
 30
0.0
 10
69.1627360011
 20
30.9653166606
 30
0.0
 10
69.2385054537
 20
30.7935601463
 30
0.0
 10
69.2602508842
 20
30.6713281341
 30
0.0
 10
69.2602508842
 20
30.6133675553
 30
0.0
  0
SPLINE
  5
298
100
AcDbEntity
  8
0
100
AcDbSpline
 62
7
  6
BYLAYER
 70
0
 71
3
 72
11
 73
7
 74
0
 42
0.0000001
 43
0.0000001
 44
0.0000000001
 40
0.0
 40
0.0
 40
0.0
 40
0.0
 40
0.289702809
 40
0.549088757
 40
0.7822160314
 40
1.0
 40
1.0
 40
1.0
 40
1.0
 10
78.9829463097
 20
31.4094129362
 30
0.0
 10
79.0970296332
 20
31.4752785806
 30
0.0
 10
79.3239781196
 20
31.5832445662
 30
0.0
 10
79.6728028356
 20
31.6674825772
 30
0.0
 10
80.000102838
 20
31.6591981979
 30
0.0
 10
80.1971553212
 20
31.5876880608
 30
0.0
 10
80.2829177658
 20
31.5381742005
 30
0.0
  0
SPLINE
  5
299
100
AcDbEntity
  8
0
100
AcDbSpline
 62
7
  6
BYLAYER
 70
0
 71
3
 72
11
 73
7
 74
0
 42
0.0000001
 43
0.0000001
 44
0.0000000001
 40
0.0
 40
0.0
 40
0.0
 40
0.0
 40
0.2372416196
 40
0.5000015492
 40
0.7627606319
 40
1.0
 40
1.0
 40
1.0
 40
1.0
 10
73.6089571469
 20
26.1838510823
 30
0.0
 10
73.6089571469
 20
26.4852435447
 30
0.0
 10
73.7220069203
 20
27.1208560991
 30
0.0
 10
74.1160072497
 20
28.0140013022
 30
0.0
 10
74.6924876279
 20
28.8017889457
 30
0.0
 10
75.1864156823
 20
29.2174980405
 30
0.0
 10
75.4474271236
 20
29.3681921669
 30
0.0
  0
SPLINE
  5
29A
100
AcDbEntity
  8
0
100
AcDbSpline
 62
7
  6
BYLAYER
 70
0
 71
3
 72
11
 73
7
 74
0
 42
0.0000001
 43
0.0000001
 44
0.0000000001
 40
0.0
 40
0.0
 40
0.0
 40
0.0
 40
0.289702809
 40
0.549088757
 40
0.7822160314
 40
1.0
 40
1.0
 40
1.0
 40
1.0
 10
106.2064440424
 20
47.1268128603
 30
0.0
 10
106.3205273659
 20
47.1926785046
 30
0.0
 10
106.5474758523
 20
47.3006444903
 30
0.0
 10
106.8963005683
 20
47.3848825012
 30
0.0
 10
107.2236005707
 20
47.376598122
 30
0.0
 10
107.4206530539
 20
47.3050879849
 30
0.0
 10
107.5064154986
 20
47.2555741246
 30
0.0
  0
SPLINE
  5
29B
100
AcDbEntity
  8
0
100
AcDbSpline
 62
7
  6
BYLAYER
 70
0
 71
3
 72
11
 73
7
 74
0
 42
0.0000001
 43
0.0000001
 44
0.0000000001
 40
0.0
 40
0.0
 40
0.0
 40
0.0
 40
0.2372416196
 40
0.5000015492
 40
0.7627606319
 40
1.0
 40
1.0
 40
1.0
 40
1.0
 10
100.8324548796
 20
41.9012510063
 30
0.0
 10
100.8324548796
 20
42.2026434687
 30
0.0
 10
100.945504653
 20
42.8382560231
 30
0.0
 10
101.3395049824
 20
43.7314012263
 30
0.0
 10
101.9159853607
 20
44.5191888698
 30
0.0
 10
102.409913415
 20
44.9348979645
 30
0.0
 10
102.6709248564
 20
45.0855920909
 30
0.0
  0
SPLINE
  5
29C
100
AcDbEntity
  8
0
100
AcDbSpline
 62
7
  6
BYLAYER
 70
0
 71
3
 72
11
 73
7
 74
0
 42
0.0000001
 43
0.0000001
 44
0.0000000001
 40
0.0
 40
0.0
 40
0.0
 40
0.0
 40
0.2177825102
 40
0.4509091639
 40
0.7102957096
 40
1.0
 40
1.0
 40
1.0
 40
1.0
 10
74.1474556675
 20
24.9936183335
 30
0.0
 10
74.0616904
 20
25.0431338235
 30
0.0
 10
73.9012268878
 20
25.1780339221
 30
0.0
 10
73.7303946877
 20
25.4573517796
 30
0.0
 10
73.6289304651
 20
25.8015762299
 30
0.0
 10
73.6089571469
 20
26.0521133122
 30
0.0
 10
73.6089571469
 20
26.1838510823
 30
0.0
  0
SPLINE
  5
29D
100
AcDbEntity
  8
0
100
AcDbSpline
 62
7
  6
BYLAYER
 70
0
 71
3
 72
11
 73
7
 74
0
 42
0.0000001
 43
0.0000001
 44
0.0000000001
 40
0.0
 40
0.0
 40
0.0
 40
0.0
 40
0.2372523758
 40
0.4999990758
 40
0.7627462798
 40
1.0
 40
1.0
 40
1.0
 40
1.0
 10
109.2116265187
 20
55.3121933465
 30
0.0
 10
109.362218501
 20
55.2252509918
 30
0.0
 10
109.6472005326
 20
54.9854372924
 30
0.0
 10
109.9796863827
 20
54.5308908654
 30
0.0
 10
110.2070948146
 20
54.0156765255
 30
0.0
 10
110.2722911064
 20
53.6489672339
 30
0.0
 10
110.2722911064
 20
53.475078589
 30
0.0
  0
SPLINE
  5
29E
100
AcDbEntity
  8
0
100
AcDbSpline
 62
7
  6
BYLAYER
 70
0
 71
3
 72
11
 73
7
 74
0
 42
0.0000001
 43
0.0000001
 44
0.0000000001
 40
0.0
 40
0.0
 40
0.0
 40
0.0
 40
0.2086679265
 40
0.4388689473
 40
0.7018474316
 40
1.0
 40
1.0
 40
1.0
 40
1.0
 10
48.303742692
 20
171.1703662199
 30
0.0
 10
48.2433417097
 20
171.2052386343
 30
0.0
 10
48.1011667262
 20
171.2542012078
 30
0.0
 10
47.8634060121
 20
171.2537973262
 30
0.0
 10
47.6054441252
 20
171.1866071055
 30
0.0
 10
47.4353183083
 20
171.1052380934
 30
0.0
 10
47.348762744
 20
171.0558507815
 30
0.0
  0
SPLINE
  5
29F
100
AcDbEntity
  8
0
100
AcDbSpline
 62
7
  6
BYLAYER
 70
0
 71
3
 72
11
 73
7
 74
0
 42
0.0000001
 43
0.0000001
 44
0.0000000001
 40
0.0
 40
0.0
 40
0.0
 40
0.0
 40
0.2210799469
 40
0.4557003869
 40
0.7137201772
 40
1.0
 40
1.0
 40
1.0
 40
1.0
 10
66.4211826763
 20
151.6592387312
 30
0.0
 10
66.4211467959
 20
151.8702446099
 30
0.0
 10
66.3500504903
 20
152.3078025421
 30
0.0
 10
66.0422192703
 20
152.9248175474
 30
0.0
 10
65.5517263634
 20
153.4916794496
 30
0.0
 10
65.1370869002
 20
153.8101264132
 30
0.0
 10
64.9080106545
 20
153.9590603188
 30
0.0
  0
SPLINE
  5
2A0
100
AcDbEntity
  8
0
100
AcDbSpline
 62
7
  6
BYLAYER
 70
0
 71
3
 72
11
 73
7
 74
0
 42
0.0000001
 43
0.0000001
 44
0.0000000001
 40
0.0
 40
0.0
 40
0.0
 40
0.0
 40
0.2330502784
 40
0.4908608191
 40
0.7535695586
 40
1.0
 40
1.0
 40
1.0
 40
1.0
 10
76.8616171343
 20
28.3883226307
 30
0.0
 10
77.0946381797
 20
28.522856591
 30
0.0
 10
77.5405839054
 20
28.8849652809
 30
0.0
 10
78.0822150293
 20
29.5727948652
 30
0.0
 10
78.4858193101
 20
30.3670641517
 30
0.0
 10
78.6405445925
 20
30.940737549
 30
0.0
 10
78.6768205093
 20
31.2229327311
 30
0.0
  0
SPLINE
  5
2A1
100
AcDbEntity
  8
0
100
AcDbSpline
 62
7
  6
BYLAYER
 70
0
 71
3
 72
11
 73
7
 74
0
 42
0.0000001
 43
0.0000001
 44
0.0000000001
 40
0.0
 40
0.0
 40
0.0
 40
0.0
 40
0.2330502784
 40
0.4908608191
 40
0.7535695586
 40
1.0
 40
1.0
 40
1.0
 40
1.0
 10
104.085114867
 20
44.1057225548
 30
0.0
 10
104.3181359125
 20
44.240256515
 30
0.0
 10
104.7640816382
 20
44.602365205
 30
0.0
 10
105.305712762
 20
45.2901947893
 30
0.0
 10
105.7093170428
 20
46.0844640758
 30
0.0
 10
105.8640423253
 20
46.658137473
 30
0.0
 10
105.900318242
 20
46.9403326552
 30
0.0
  0
SPLINE
  5
2A2
100
AcDbEntity
  8
0
100
AcDbSpline
 62
7
  6
BYLAYER
 70
0
 71
3
 72
9
 73
5
 74
0
 42
0.0000001
 43
0.0000001
 44
0.0000000001
 40
0.0
 40
0.0
 40
0.0
 40
0.0
 40
0.2571100159
 40
1.0
 40
1.0
 40
1.0
 40
1.0
 10
75.2705216298
 20
143.086182884
 30
0.0
 10
75.2188059638
 20
143.0563250086
 30
0.0
 10
75.0195446931
 20
142.9369923087
 30
0.0
 10
74.8279833232
 20
142.8046192778
 30
0.0
 10
74.6918858938
 20
142.6985606139
 30
0.0
  0
SPLINE
  5
2A3
100
AcDbEntity
  8
0
100
AcDbSpline
 62
7
  6
BYLAYER
 70
0
 71
3
 72
11
 73
7
 74
0
 42
0.0000001
 43
0.0000001
 44
0.0000000001
 40
0.0
 40
0.0
 40
0.0
 40
0.0
 40
0.2808215834
 40
0.5370333039
 40
0.7739262056
 40
1.0
 40
1.0
 40
1.0
 40
1.0
 10
74.6918858938
 20
142.6985606139
 30
0.0
 10
74.5106399353
 20
142.5573183858
 30
0.0
 10
74.1836628049
 20
142.259871888
 30
0.0
 10
73.80303984
 20
141.7479207829
 30
0.0
 10
73.5672610508
 20
141.2023689895
 30
0.0
 10
73.5131832506
 20
140.8217224936
 30
0.0
 10
73.5132147061
 20
140.6367383546
 30
0.0
  0
SPLINE
  5
2A4
100
AcDbEntity
  8
0
100
AcDbSpline
 62
7
  6
BYLAYER
 70
0
 71
3
 72
9
 73
5
 74
0
 42
0.0000001
 43
0.0000001
 44
0.0000000001
 40
0.0
 40
0.0
 40
0.0
 40
0.0
 40
0.262039041
 40
1.0
 40
1.0
 40
1.0
 40
1.0
 10
86.4428399785
 20
155.088888067
 30
0.0
 10
86.4428399785
 20
155.130722291
 30
0.0
 10
86.4386949829
 20
155.2903010459
 30
0.0
 10
86.4175053219
 20
155.4497661697
 30
0.0
 10
86.3898178356
 20
155.5642811573
 30
0.0
  0
SPLINE
  5
2A5
100
AcDbEntity
  8
0
100
AcDbSpline
 62
7
  6
BYLAYER
 70
0
 71
3
 72
16
 73
12
 74
0
 42
0.0000001
 43
0.0000001
 44
0.0000000001
 40
0.0
 40
0.0
 40
0.0
 40
0.0
 40
0.1494697977
 40
0.2996902031
 40
0.4453977314
 40
0.581976023
 40
0.7058319049
 40
0.8152921501
 40
0.911544985
 40
0.9563165696
 40
1.0
 40
1.0
 40
1.0
 40
1.0
 10
81.5462599578
 20
154.3106134163
 30
0.0
 10
81.6833705154
 20
154.6626656707
 30
0.0
 10
82.0077341709
 20
155.3501765034
 30
0.0
 10
82.6178619277
 20
156.2999477059
 30
0.0
 10
83.3283841409
 20
157.1354794574
 30
0.0
 10
84.1034795681
 20
157.8149932719
 30
0.0
 10
84.9066665679
 20
158.3047110897
 30
0.0
 10
85.7011562639
 20
158.5799131674
 30
0.0
 10
86.3460766845
 20
158.6118222803
 30
0.0
 10
86.803260411
 20
158.5053946883
 30
0.0
 10
87.0087188144
 20
158.4128732575
 30
0.0
 10
87.1043235485
 20
158.3576313571
 30
0.0
  0
SPLINE
  5
2A6
100
AcDbEntity
  8
0
100
AcDbSpline
 62
7
  6
BYLAYER
 70
0
 71
3
 72
17
 73
13
 74
0
 42
0.0000001
 43
0.0000001
 44
0.0000000001
 40
0.0
 40
0.0
 40
0.0
 40
0.0
 40
0.1286891333
 40
0.2702803493
 40
0.4174326844
 40
0.5617743804
 40
0.6954465661
 40
0.8127104963
 40
0.8646756522
 40
0.91250911
 40
0.9571392634
 40
1.0
 40
1.0
 40
1.0
 40
1.0
 10
84.0386975302
 20
152.2311851088
 30
0.0
 10
84.0386975302
 20
152.4534195614
 30
0.0
 10
84.1008706088
 20
152.9207012671
 30
0.0
 10
84.3329098932
 20
153.6068015127
 30
0.0
 10
84.6904822403
 20
154.267728795
 30
0.0
 10
85.1448278624
 20
154.8492947443
 30
0.0
 10
85.6588284885
 20
155.3045249954
 30
0.0
 10
86.1240709583
 20
155.5589258042
 30
0.0
 10
86.4880070268
 20
155.6557340671
 30
0.0
 10
86.7384848185
 20
155.6741804738
 30
0.0
 10
86.9717213131
 20
155.640000017
 30
0.0
 10
87.1130321395
 20
155.5812847248
 30
0.0
 10
87.177118053
 20
155.5442515904
 30
0.0
  0
SPLINE
  5
2A7
100
AcDbEntity
  8
0
100
AcDbSpline
 62
7
  6
BYLAYER
 70
0
 71
3
 72
11
 73
7
 74
0
 42
0.0000001
 43
0.0000001
 44
0.0000000001
 40
0.0
 40
0.0
 40
0.0
 40
0.0
 40
0.289702809
 40
0.549088757
 40
0.7822160314
 40
1.0
 40
1.0
 40
1.0
 40
1.0
 10
75.4474271236
 20
25.1223795978
 30
0.0
 10
75.3333438001
 20
25.0565139534
 30
0.0
 10
75.1063953137
 20
24.9485479678
 30
0.0
 10
74.7575705977
 20
24.8643099568
 30
0.0
 10
74.4302705953
 20
24.8725943361
 30
0.0
 10
74.2332181121
 20
24.9441044732
 30
0.0
 10
74.1474556675
 20
24.9936183335
 30
0.0
  0
SPLINE
  5
2A8
100
AcDbEntity
  8
0
100
AcDbSpline
 62
7
  6
BYLAYER
 70
0
 71
3
 72
11
 73
7
 74
0
 42
0.0000001
 43
0.0000001
 44
0.0000000001
 40
0.0
 40
0.0
 40
0.0
 40
0.0
 40
0.2372416196
 40
0.5000015492
 40
0.7627606319
 40
1.0
 40
1.0
 40
1.0
 40
1.0
 10
80.8214162864
 20
30.3479414518
 30
0.0
 10
80.8214162864
 20
30.0465489894
 30
0.0
 10
80.708366513
 20
29.410936435
 30
0.0
 10
80.3143661836
 20
28.5177912318
 30
0.0
 10
79.7378858054
 20
27.7300035883
 30
0.0
 10
79.243957751
 20
27.3142944936
 30
0.0
 10
78.9829463097
 20
27.1636003672
 30
0.0
  0
SPLINE
  5
2A9
100
AcDbEntity
  8
0
100
AcDbSpline
 62
7
  6
BYLAYER
 70
0
 71
3
 72
16
 73
12
 74
0
 42
0.0000001
 43
0.0000001
 44
0.0000000001
 40
0.0
 40
0.0
 40
0.0
 40
0.0
 40
0.1490016864
 40
0.2990578645
 40
0.4448887227
 40
0.5817025126
 40
0.7058075804
 40
0.8154184108
 40
0.9116738936
 40
0.9563968078
 40
1.0
 40
1.0
 40
1.0
 40
1.0
 10
49.2895371158
 20
66.2298159104
 30
0.0
 10
48.923235711
 20
66.1697938347
 30
0.0
 10
48.1786946757
 20
66.1011793885
 30
0.0
 10
47.068247109
 20
66.145255764
 30
0.0
 10
46.0031082487
 20
66.332475123
 30
0.0
 10
45.0375915416
 20
66.6533543065
 30
0.0
 10
44.2196397483
 20
67.0932158048
 30
0.0
 10
43.5892022456
 20
67.6326450924
 30
0.0
 10
43.2415041189
 20
68.1661261268
 30
0.0
 10
43.105891182
 20
68.6081523071
 30
0.0
 10
43.083491783
 20
68.828795851
 30
0.0
 10
43.0834900105
 20
68.9374182014
 30
0.0
  0
SPLINE
  5
2AA
100
AcDbEntity
  8
0
100
AcDbSpline
 62
7
  6
BYLAYER
 70
0
 71
3
 72
11
 73
7
 74
0
 42
0.0000001
 43
0.0000001
 44
0.0000000001
 40
0.0
 40
0.0
 40
0.0
 40
0.0
 40
0.289702809
 40
0.549088757
 40
0.7822160314
 40
1.0
 40
1.0
 40
1.0
 40
1.0
 10
102.6709248564
 20
40.8397795219
 30
0.0
 10
102.5568415329
 20
40.7739138775
 30
0.0
 10
102.3298930464
 20
40.6659478918
 30
0.0
 10
101.9810683305
 20
40.5817098809
 30
0.0
 10
101.653768328
 20
40.5899942602
 30
0.0
 10
101.4567158449
 20
40.6615043973
 30
0.0
 10
101.3709534002
 20
40.7110182576
 30
0.0
  0
SPLINE
  5
2AB
100
AcDbEntity
  8
0
100
AcDbSpline
 62
7
  6
BYLAYER
 70
0
 71
3
 72
11
 73
7
 74
0
 42
0.0000001
 43
0.0000001
 44
0.0000000001
 40
0.0
 40
0.0
 40
0.0
 40
0.0
 40
0.2372416196
 40
0.5000015492
 40
0.7627606319
 40
1.0
 40
1.0
 40
1.0
 40
1.0
 10
108.0449140192
 20
46.0653413758
 30
0.0
 10
108.0449140192
 20
45.7639489134
 30
0.0
 10
107.9318642457
 20
45.128336359
 30
0.0
 10
107.5378639164
 20
44.2351911559
 30
0.0
 10
106.9613835381
 20
43.4474035124
 30
0.0
 10
106.4674554838
 20
43.0316944176
 30
0.0
 10
106.2064440424
 20
42.8810002912
 30
0.0
  0
SPLINE
  5
2AC
100
AcDbEntity
  8
0
100
AcDbSpline
 62
7
  6
BYLAYER
 70
0
 71
3
 72
11
 73
7
 74
0
 42
0.0000001
 43
0.0000001
 44
0.0000000001
 40
0.0
 40
0.0
 40
0.0
 40
0.0
 40
0.2177825102
 40
0.4509091639
 40
0.7102957096
 40
1.0
 40
1.0
 40
1.0
 40
1.0
 10
107.5064154986
 20
47.2555741246
 30
0.0
 10
107.592180766
 20
47.2060586346
 30
0.0
 10
107.7526442783
 20
47.0711585359
 30
0.0
 10
107.9234764783
 20
46.7918406785
 30
0.0
 10
108.0249407009
 20
46.4476162282
 30
0.0
 10
108.0449140192
 20
46.1970791459
 30
0.0
 10
108.0449140192
 20
46.0653413758
 30
0.0
  0
SPLINE
  5
2AD
100
AcDbEntity
  8
0
100
AcDbSpline
 62
7
  6
BYLAYER
 70
0
 71
3
 72
11
 73
7
 74
0
 42
0.0000001
 43
0.0000001
 44
0.0000000001
 40
0.0
 40
0.0
 40
0.0
 40
0.0
 40
0.2177825102
 40
0.4509091639
 40
0.7102957096
 40
1.0
 40
1.0
 40
1.0
 40
1.0
 10
80.2829177658
 20
31.5381742005
 30
0.0
 10
80.3686830333
 20
31.4886587105
 30
0.0
 10
80.5291465455
 20
31.3537586119
 30
0.0
 10
80.6999787456
 20
31.0744407545
 30
0.0
 10
80.8014429682
 20
30.7302163042
 30
0.0
 10
80.8214162864
 20
30.4796792218
 30
0.0
 10
80.8214162864
 20
30.3479414518
 30
0.0
  0
SPLINE
  5
2AE
100
AcDbEntity
  8
0
100
AcDbSpline
 62
7
  6
BYLAYER
 70
0
 71
3
 72
9
 73
5
 74
0
 42
0.0000001
 43
0.0000001
 44
0.0000000001
 40
0.0
 40
0.0
 40
0.0
 40
0.0
 40
0.2509112525
 40
1.0
 40
1.0
 40
1.0
 40
1.0
 10
63.2060159931
 20
68.8098462718
 30
0.0
 10
63.1340815636
 20
68.7857438239
 30
0.0
 10
62.8488604086
 20
68.6852829214
 30
0.0
 10
62.5686685507
 20
68.5710476559
 30
0.0
 10
62.3606773384
 20
68.4813893135
 30
0.0
  0
SPLINE
  5
2AF
100
AcDbEntity
  8
0
100
AcDbSpline
 62
7
  6
BYLAYER
 70
0
 71
3
 72
16
 73
12
 74
0
 42
0.0000001
 43
0.0000001
 44
0.0000000001
 40
0.0
 40
0.0
 40
0.0
 40
0.0
 40
0.0436027785
 40
0.0883256127
 40
0.1845811276
 40
0.2941926048
 40
0.4182988306
 40
0.5551138049
 40
0.7009453366
 40
0.8510003677
 40
1.0
 40
1.0
 40
1.0
 40
1.0
 10
43.0834863496
 20
78.7354471662
 30
0.0
 10
43.0834876759
 20
78.6268256345
 30
0.0
 10
43.105883764
 20
78.4061826465
 30
0.0
 10
43.2414934348
 20
77.9641555636
 30
0.0
 10
43.5891885046
 20
77.4306691558
 30
0.0
 10
44.2196304069
 20
76.8912345774
 30
0.0
 10
45.0375913352
 20
76.4513702918
 30
0.0
 10
46.0031185212
 20
76.1304919078
 30
0.0
 10
47.0682623765
 20
75.9432786102
 30
0.0
 10
48.1787059267
 20
75.8992068666
 30
0.0
 10
48.923240047
 20
75.9678235507
 30
0.0
 10
49.2895371158
 20
76.027844916
 30
0.0
  0
SPLINE
  5
2B0
100
AcDbEntity
  8
0
100
AcDbSpline
 62
7
  6
BYLAYER
 70
0
 71
3
 72
11
 73
7
 74
0
 42
0.0000001
 43
0.0000001
 44
0.0000000001
 40
0.0
 40
0.0
 40
0.0
 40
0.0
 40
0.2177806375
 40
0.4509172388
 40
0.7102633285
 40
1.0
 40
1.0
 40
1.0
 40
1.0
 10
66.4211864439
 20
150.0262338033
 30
0.0
 10
66.4212286547
 20
149.7977066737
 30
0.0
 10
66.3367100181
 20
149.3213719238
 30
0.0
 10
65.9756585421
 20
148.6577270538
 30
0.0
 10
65.4048430695
 20
148.0577446396
 30
0.0
 10
64.9271772045
 20
147.7288056243
 30
0.0
 10
64.6638757526
 20
147.5767893676
 30
0.0
  0
SPLINE
  5
2B1
100
AcDbEntity
  8
0
100
AcDbSpline
 62
7
  6
BYLAYER
 70
0
 71
3
 72
9
 73
5
 74
0
 42
0.0000001
 43
0.0000001
 44
0.0000000001
 40
0.0
 40
0.0
 40
0.0
 40
0.0
 40
0.7503012112
 40
1.0
 40
1.0
 40
1.0
 40
1.0
 10
68.3814996947
 20
65.0053445439
 30
0.0
 10
68.1741157168
 20
65.3342021006
 30
0.0
 10
67.8947856018
 20
65.770695196
 30
0.0
 10
67.6082736229
 20
66.2024637252
 30
0.0
 10
67.53616104
 20
66.3098924199
 30
0.0
  0
SPLINE
  5
2B2
100
AcDbEntity
  8
0
100
AcDbSpline
 62
7
  6
BYLAYER
 70
0
 71
3
 72
17
 73
13
 74
0
 42
0.0000001
 43
0.0000001
 44
0.0000000001
 40
0.0
 40
0.0
 40
0.0
 40
0.0
 40
0.0428575697
 40
0.0874859413
 40
0.1353172777
 40
0.1872824474
 40
0.3045429506
 40
0.4382108746
 40
0.5825554067
 40
0.7297166096
 40
0.8713061467
 40
1.0
 40
1.0
 40
1.0
 40
1.0
 10
54.4212521271
 20
151.6592387267
 30
0.0
 10
54.42128117
 20
151.4884425159
 30
0.0
 10
54.4668653968
 20
151.1382948063
 30
0.0
 10
54.6677917268
 20
150.6327906526
 30
0.0
 10
54.993503908
 20
150.1534023862
 30
0.0
 10
55.6070117985
 20
149.5378771738
 30
0.0
 10
56.6521424626
 20
148.901538399
 30
0.0
 10
58.1550243876
 20
148.3995725027
 30
0.0
 10
59.8415757764
 20
148.1625745665
 30
0.0
 10
61.5750870237
 20
148.2105846016
 30
0.0
 10
63.2140857151
 20
148.5384262597
 30
0.0
 10
64.2197154073
 20
148.9533596376
 30
0.0
 10
64.6638757526
 20
149.2097942018
 30
0.0
  0
SPLINE
  5
2B3
100
AcDbEntity
  8
0
100
AcDbSpline
 62
7
  6
BYLAYER
 70
0
 71
3
 72
11
 73
7
 74
0
 42
0.0000001
 43
0.0000001
 44
0.0000000001
 40
0.0
 40
0.0
 40
0.0
 40
0.0
 40
0.2897474903
 40
0.5490801938
 40
0.7822226057
 40
1.0
 40
1.0
 40
1.0
 40
1.0
 10
64.6638757526
 20
149.2097942018
 30
0.0
 10
64.9271872981
 20
149.3618162861
 30
0.0
 10
65.4048628855
 20
149.6907408732
 30
0.0
 10
65.9756615257
 20
150.2907431696
 30
0.0
 10
66.3367187578
 20
150.9543745842
 30
0.0
 10
66.4212215355
 20
151.4307147769
 30
0.0
 10
66.4211826763
 20
151.6592387312
 30
0.0
  0
SPLINE
  5
2B4
100
AcDbEntity
  8
0
100
AcDbSpline
 62
7
  6
BYLAYER
 70
0
 71
3
 72
16
 73
12
 74
0
 42
0.0000001
 43
0.0000001
 44
0.0000000001
 40
0.0
 40
0.0
 40
0.0
 40
0.0
 40
0.0436027785
 40
0.0883256127
 40
0.1845811276
 40
0.2941926048
 40
0.4182988306
 40
0.5551138049
 40
0.7009453366
 40
0.8510003677
 40
1.0
 40
1.0
 40
1.0
 40
1.0
 10
62.1754489286
 20
67.7129467941
 30
0.0
 10
62.1754502549
 20
67.6043252624
 30
0.0
 10
62.197846343
 20
67.3836822745
 30
0.0
 10
62.3334560137
 20
66.9416551915
 30
0.0
 10
62.6811510836
 20
66.4081687838
 30
0.0
 10
63.3115929858
 20
65.8687342053
 30
0.0
 10
64.1295539142
 20
65.4288699198
 30
0.0
 10
65.0950811002
 20
65.1079915357
 30
0.0
 10
66.1602249555
 20
64.9207782382
 30
0.0
 10
67.2706685057
 20
64.8767064946
 30
0.0
 10
68.015202626
 20
64.9453231787
 30
0.0
 10
68.3814996947
 20
65.0053445439
 30
0.0
  0
SPLINE
  5
2B5
100
AcDbEntity
  8
0
100
AcDbSpline
 62
7
  6
BYLAYER
 70
0
 71
3
 72
10
 73
6
 74
0
 42
0.0000001
 43
0.0000001
 44
0.0000000001
 40
0.0
 40
0.0
 40
0.0
 40
0.0
 40
0.5246969629
 40
0.7715078762
 40
1.0
 40
1.0
 40
1.0
 40
1.0
 10
34.1608559412
 20
163.4459836237
 30
0.0
 10
34.3538772734
 20
163.7837863569
 30
0.0
 10
34.6942808142
 20
164.2524887049
 30
0.0
 10
35.2358278059
 20
164.7611234345
 30
0.0
 10
35.5256497347
 20
164.9647999454
 30
0.0
 10
35.6723770216
 20
165.0495124783
 30
0.0
  0
SPLINE
  5
2B6
100
AcDbEntity
  8
0
100
AcDbSpline
 62
7
  6
BYLAYER
 70
0
 71
3
 72
15
 73
11
 74
0
 42
0.0000001
 43
0.0000001
 44
0.0000000001
 40
0.0
 40
0.0
 40
0.0
 40
0.0
 40
0.0901075948
 40
0.1842764655
 40
0.2896819019
 40
0.4096959121
 40
0.5441231072
 40
0.6902655006
 40
0.8439555438
 40
1.0
 40
1.0
 40
1.0
 40
1.0
 10
63.2060159931
 20
68.8098462718
 30
0.0
 10
63.1697857789
 20
68.6442702944
 30
0.0
 10
63.162254119
 20
68.286752728
 30
0.0
 10
63.3690457647
 20
67.7697001026
 30
0.0
 10
63.7654823485
 20
67.3069215367
 30
0.0
 10
64.3228145214
 20
66.9136820026
 30
0.0
 10
65.0138508655
 20
66.603950247
 30
0.0
 10
65.8054805242
 20
66.3908053178
 30
0.0
 10
66.6588511886
 20
66.2846558568
 30
0.0
 10
67.2434172716
 20
66.2885395309
 30
0.0
 10
67.53616104
 20
66.3098924199
 30
0.0
  0
SPLINE
  5
2B7
100
AcDbEntity
  8
0
100
AcDbSpline
 62
7
  6
BYLAYER
 70
0
 71
3
 72
16
 73
12
 74
0
 42
0.0000001
 43
0.0000001
 44
0.0000000001
 40
0.0
 40
0.0
 40
0.0
 40
0.0
 40
0.1490016864
 40
0.2990578645
 40
0.4448887227
 40
0.5817025126
 40
0.7058075804
 40
0.8154184108
 40
0.9116738936
 40
0.9563968078
 40
1.0
 40
1.0
 40
1.0
 40
1.0
 10
68.3814996947
 20
55.2073155384
 30
0.0
 10
68.01519829
 20
55.1472934626
 30
0.0
 10
67.2706572547
 20
55.0786790164
 30
0.0
 10
66.1602096879
 20
55.1227553919
 30
0.0
 10
65.0950708277
 20
55.309974751
 30
0.0
 10
64.1295541205
 20
55.6308539344
 30
0.0
 10
63.3116023272
 20
56.0707154327
 30
0.0
 10
62.6811648246
 20
56.6101447203
 30
0.0
 10
62.3334666979
 20
57.1436257547
 30
0.0
 10
62.1978537609
 20
57.5856519351
 30
0.0
 10
62.1754543619
 20
57.8062954789
 30
0.0
 10
62.1754525895
 20
57.9149178294
 30
0.0
  0
SPLINE
  5
2B8
100
AcDbEntity
  8
0
100
AcDbSpline
 62
7
  6
BYLAYER
 70
0
 71
3
 72
11
 73
7
 74
0
 42
0.0000001
 43
0.0000001
 44
0.0000000001
 40
0.0
 40
0.0
 40
0.0
 40
0.0
 40
0.2180589579
 40
0.4513642126
 40
0.710506668
 40
1.0
 40
1.0
 40
1.0
 40
1.0
 10
73.5132147061
 20
140.6367383546
 30
0.0
 10
73.513253296
 20
140.4097980832
 30
0.0
 10
73.5962843301
 20
139.9369031215
 30
0.0
 10
73.9525926436
 20
139.2775169548
 30
0.0
 10
74.5158809981
 20
138.6802695188
 30
0.0
 10
74.987829131
 20
138.3522456744
 30
0.0
 10
75.2480507587
 20
138.2004009781
 30
0.0
  0
SPLINE
  5
2B9
100
AcDbEntity
  8
0
100
AcDbSpline
 62
7
  6
BYLAYER
 70
0
 71
3
 72
11
 73
7
 74
0
 42
0.0000001
 43
0.0000001
 44
0.0000000001
 40
0.0
 40
0.0
 40
0.0
 40
0.0
 40
0.2177651606
 40
0.4508956102
 40
0.7103690052
 40
1.0
 40
1.0
 40
1.0
 40
1.0
 10
87.177118053
 20
155.5442515904
 30
0.0
 10
87.262856531
 20
155.4947061535
 30
0.0
 10
87.4234065709
 20
155.3599383305
 30
0.0
 10
87.5942157363
 20
155.0805315212
 30
0.0
 10
87.6956176919
 20
154.7362971691
 30
0.0
 10
87.7156374838
 20
154.4857587101
 30
0.0
 10
87.7156374838
 20
154.3540547089
 30
0.0
  0
SPLINE
  5
2BA
100
AcDbEntity
  8
0
100
AcDbSpline
 62
7
  6
BYLAYER
 70
0
 71
3
 72
15
 73
11
 74
0
 42
0.0000001
 43
0.0000001
 44
0.0000000001
 40
0.0
 40
0.0
 40
0.0
 40
0.0
 40
0.0901075948
 40
0.1842764655
 40
0.2896819019
 40
0.4096959121
 40
0.5441231072
 40
0.6902655006
 40
0.8439555438
 40
1.0
 40
1.0
 40
1.0
 40
1.0
 10
44.1140534141
 20
79.8323466439
 30
0.0
 10
44.0778232
 20
79.6667706665
 30
0.0
 10
44.07029154
 20
79.3092531
 30
0.0
 10
44.2770831857
 20
78.7922004746
 30
0.0
 10
44.6735197695
 20
78.3294219087
 30
0.0
 10
45.2308519424
 20
77.9361823746
 30
0.0
 10
45.9218882865
 20
77.626450619
 30
0.0
 10
46.7135179452
 20
77.4133056898
 30
0.0
 10
47.5668886096
 20
77.3071562288
 30
0.0
 10
48.1514546926
 20
77.3110399029
 30
0.0
 10
48.4441984611
 20
77.3323927919
 30
0.0
  0
SPLINE
  5
2BB
100
AcDbEntity
  8
0
100
AcDbSpline
 62
7
  6
BYLAYER
 70
0
 71
3
 72
9
 73
5
 74
0
 42
0.0000001
 43
0.0000001
 44
0.0000000001
 40
0.0
 40
0.0
 40
0.0
 40
0.0
 40
0.7503012112
 40
1.0
 40
1.0
 40
1.0
 40
1.0
 10
49.2895371158
 20
76.027844916
 30
0.0
 10
49.0821531379
 20
76.3567024727
 30
0.0
 10
48.8028230228
 20
76.7931955681
 30
0.0
 10
48.5163110439
 20
77.2249640972
 30
0.0
 10
48.4441984611
 20
77.3323927919
 30
0.0
  0
SPLINE
  5
2BC
100
AcDbEntity
  8
0
100
AcDbSpline
 62
7
  6
BYLAYER
 70
0
 71
3
 72
9
 73
5
 74
0
 42
0.0000001
 43
0.0000001
 44
0.0000000001
 40
0.0
 40
0.0
 40
0.0
 40
0.0
 40
0.2509112525
 40
1.0
 40
1.0
 40
1.0
 40
1.0
 10
44.1140534141
 20
79.8323466439
 30
0.0
 10
44.0421189846
 20
79.808244196
 30
0.0
 10
43.7568978296
 20
79.7077832934
 30
0.0
 10
43.4767059718
 20
79.5935480279
 30
0.0
 10
43.2687147594
 20
79.5038896855
 30
0.0
  0
SPLINE
  5
2BD
100
AcDbEntity
  8
0
100
AcDbSpline
 62
7
  6
BYLAYER
 70
0
 71
3
 72
11
 73
7
 74
0
 42
0.0000001
 43
0.0000001
 44
0.0000000001
 40
0.0
 40
0.0
 40
0.0
 40
0.0
 40
0.2887764127
 40
0.5476567688
 40
0.7812534137
 40
1.0
 40
1.0
 40
1.0
 40
1.0
 10
75.1965683012
 20
138.0675104913
 30
0.0
 10
74.9435406431
 20
138.218815055
 30
0.0
 10
74.4848528247
 20
138.5448812309
 30
0.0
 10
73.9384746036
 20
139.1354417175
 30
0.0
 10
73.5934766734
 20
139.7852883199
 30
0.0
 10
73.5132551418
 20
140.2501168506
 30
0.0
 10
73.5132157242
 20
140.4734378655
 30
0.0
  0
SPLINE
  5
2BE
100
AcDbEntity
  8
0
100
AcDbSpline
 62
7
  6
BYLAYER
 70
0
 71
3
 72
11
 73
7
 74
0
 42
0.0000001
 43
0.0000001
 44
0.0000000001
 40
0.0
 40
0.0
 40
0.0
 40
0.0
 40
0.2372539654
 40
0.5000012591
 40
0.7627478695
 40
1.0
 40
1.0
 40
1.0
 40
1.0
 10
71.3815800596
 20
31.021650126
 30
0.0
 10
71.3815800596
 20
31.1955389507
 30
0.0
 10
71.3163836612
 20
31.5622484875
 30
0.0
 10
71.0889750283
 20
32.0774629352
 30
0.0
 10
70.7564891711
 20
32.5320091343
 30
0.0
 10
70.4715072986
 20
32.7718226188
 30
0.0
 10
70.3209154719
 20
32.8587648835
 30
0.0
  0
SPLINE
  5
2BF
100
AcDbEntity
  8
0
100
AcDbSpline
 62
7
  6
BYLAYER
 70
0
 71
3
 72
18
 73
14
 74
0
 42
0.0000001
 43
0.0000001
 44
0.0000000001
 40
0.0
 40
0.0
 40
0.0
 40
0.0
 40
0.1286578854
 40
0.2702035041
 40
0.4173236112
 40
0.5616306554
 40
0.6952656106
 40
0.7562697611
 40
0.8127621396
 40
0.8647125912
 40
0.91253218
 40
0.9571506611
 40
1.0
 40
1.0
 40
1.0
 40
1.0
 10
64.6638757526
 20
147.5767893676
 30
0.0
 10
64.2197224399
 20
147.3203588636
 30
0.0
 10
63.2141126632
 20
146.9054394517
 30
0.0
 10
61.5752292006
 20
146.577572677
 30
0.0
 10
59.8414828059
 20
146.529636664
 30
0.0
 10
58.1558931617
 20
146.7663180731
 30
0.0
 10
56.8640833733
 20
147.1977021166
 30
0.0
 10
55.9825402747
 20
147.6770432515
 30
0.0
 10
55.4352428258
 20
148.0769140018
 30
0.0
 10
54.9936068624
 20
148.5204201111
 30
0.0
 10
54.6677955189
 20
148.9997076877
 30
0.0
 10
54.4668474058
 20
149.5052505789
 30
0.0
 10
54.4213225176
 20
149.8554255467
 30
0.0
 10
54.4213133062
 20
150.0262339927
 30
0.0
  0
SPLINE
  5
2C0
100
AcDbEntity
  8
0
100
AcDbSpline
 62
7
  6
BYLAYER
 70
0
 71
3
 72
17
 73
13
 74
0
 42
0.0000001
 43
0.0000001
 44
0.0000000001
 40
0.0
 40
0.0
 40
0.0
 40
0.0
 40
0.1286891333
 40
0.2702803493
 40
0.4174326844
 40
0.5617743804
 40
0.6954465661
 40
0.8127104963
 40
0.8646756522
 40
0.91250911
 40
0.9571392634
 40
1.0
 40
1.0
 40
1.0
 40
1.0
 10
87.7156374838
 20
154.3540547089
 30
0.0
 10
87.7156374838
 20
154.1318202563
 30
0.0
 10
87.6534644052
 20
153.6645385506
 30
0.0
 10
87.4214251208
 20
152.978438305
 30
0.0
 10
87.0638527737
 20
152.3175110227
 30
0.0
 10
86.6095071516
 20
151.7359450733
 30
0.0
 10
86.0955065255
 20
151.2807148223
 30
0.0
 10
85.6302640557
 20
151.0263140134
 30
0.0
 10
85.2663279872
 20
150.9295057505
 30
0.0
 10
85.0158501955
 20
150.9110593439
 30
0.0
 10
84.7826137009
 20
150.9452398006
 30
0.0
 10
84.6413028745
 20
151.0039550928
 30
0.0
 10
84.577216961
 20
151.0409882272
 30
0.0
  0
SPLINE
  5
2C1
100
AcDbEntity
  8
0
100
AcDbSpline
 62
7
  6
BYLAYER
 70
0
 71
3
 72
16
 73
12
 74
0
 42
0.0000001
 43
0.0000001
 44
0.0000000001
 40
0.0
 40
0.0
 40
0.0
 40
0.0
 40
0.043683452
 40
0.088455052
 40
0.1847079108
 40
0.2941681785
 40
0.4180240741
 40
0.5546023642
 40
0.7003098852
 40
0.8505302383
 40
1.0
 40
1.0
 40
1.0
 40
1.0
 10
88.37712104
 20
157.6227979752
 30
0.0
 10
88.2815162725
 20
157.6780399266
 30
0.0
 10
88.0760577699
 20
157.7705613796
 30
0.0
 10
87.6188738779
 20
157.8769889408
 30
0.0
 10
86.9739533075
 20
157.845079659
 30
0.0
 10
86.1794635011
 20
157.5698774586
 30
0.0
 10
85.3762764957
 20
157.0801594803
 30
0.0
 10
84.6011811069
 20
156.4006456082
 30
0.0
 10
83.8906591089
 20
155.5651138806
 30
0.0
 10
83.2805314946
 20
154.6153428808
 30
0.0
 10
82.9561679874
 20
153.9278322271
 30
0.0
 10
82.8190574631
 20
153.5757800582
 30
0.0
  0
ELLIPSE
  5
2C2
100
AcDbEntity
  8
0
100
AcDbEllipse
 62
7
  6
BYLAYER
 10
45.3545119666
 20
145.2528377378
 30
0.0
 11
0.8387176683
 21
1.8212759564
 31
0.0
 40
0.6296388677
 41
0.7337535536
 42
2.2981380747
  0
ELLIPSE
  5
2C3
100
AcDbEntity
  8
0
100
AcDbEllipse
 62
7
  6
BYLAYER
 10
67.2747309202
 20
157.9084065079
 30
0.0
 11
0.8387176683
 21
1.8212759564
 31
0.0
 40
0.6296388677
 41
5.4397307283
 42
7.0041152494
  0
ENDSEC
  0
SECTION
  2
OBJECTS
  0
DICTIONARY
  5
C
100
AcDbDictionary
280
0
281
1
  3
ACAD_GROUP
350
D
  3
ACAD_MLINESTYLE
350
17
  3
ACAD_LAYOUT
350
1A
  3
ACAD_PLOTSETTINGS
350
19
  3
ACAD_PLOTSTYLENAME
350
E
  0
DICTIONARY
  5
D
102
{ACAD_REACTORS
330
C
102
}
100
AcDbDictionary
280
0
281
1
  0
ACDBDICTIONARYWDFLT
  5
E
102
{ACAD_REACTORS
330
C
102
}
100
AcDbDictionary
281
1
  3
Normal
350
F
100
AcDbDictionaryWithDefault
340
F
  0
DICTIONARY
  5
17
102
{ACAD_REACTORS
330
C
102
}
100
AcDbDictionary
280
0
281
1
  3
Standard
350
18
  0
DICTIONARY
  5
19
102
{ACAD_REACTORS
330
C
102
}
100
AcDbDictionary
281
1
  0
DICTIONARY
  5
1A
102
{ACAD_REACTORS
330
C
102
}
100
AcDbDictionary
281
1
  3
Model
350
2C4
  3
Layout1
350
2C5
  0
ACDBPLACEHOLDER
  5
F
102
{ACAD_REACTORS
330
E
102
}
  0
MLINESTYLE
  5
18
102
{ACAD_REACTORS
330
17
102
}
100
AcDbMlineStyle
  2
STANDARD
 70
0
  3

 62
256
 51
90.0
 52
90.0
 71
2
 49
0.5
 62
256
  6
BYLAYER
 49
-0.5
 62
256
  6
BYLAYER
  0
LAYOUT
  5
2C4
102
{ACAD_REACTORS
330
1A
102
}
100
AcDbPlotSettings
  1

  2
none_device
  4

  6

 40
0.0
 41
0.0
 42
0.0
 43
0.0
 44
210.0
 45
297.0
 46
0.0
 47
0.0
 48
0.0
 49
0.0
140
0.0
141
0.0
142
1.0
143
1.0
 70
1024
 72
1
 73
0
 74
0
  7

 75
0
147
1.0
148
0.0
149
0.0
100
AcDbLayout
  1
Model
 70
0
 71
0
 10
0.0
 20
0.0
 11
210.0
 21
297.0
 12
0.0
 22
0.0
 32
0.0
 14
0.0
 24
0.0
 34
0.0
 15
0.0
 25
0.0
 35
0.0
146
0.0
 13
0.0
 23
0.0
 33
0.0
 16
1.0
 26
0.0
 36
0.0
 17
0.0
 27
1.0
 37
0.0
 76
0
330
210
345
0
346
0
  0
LAYOUT
  5
2C5
102
{ACAD_REACTORS
330
1A
102
}
100
AcDbPlotSettings
  1

  2
none_device
  4

  6

 40
0.0
 41
0.0
 42
0.0
 43
0.0
 44
210.0
 45
297.0
 46
0.0
 47
0.0
 48
0.0
 49
0.0
140
0.0
141
0.0
142
1.0
143
1.0
 70
0
 72
1
 73
0
 74
0
  7

 75
0
147
1.0
148
0.0
149
0.0
100
AcDbLayout
  1
Layout1
 70
0
 71
1
 10
0.0
 20
0.0
 11
210.0
 21
297.0
 12
0.0
 22
0.0
 32
0.0
 14
0.0
 24
0.0
 34
0.0
 15
0.0
 25
0.0
 35
0.0
146
0.0
 13
0.0
 23
0.0
 33
0.0
 16
1.0
 26
0.0
 36
0.0
 17
0.0
 27
1.0
 37
0.0
 76
0
330
211
345
0
346
0
  0
ENDSEC
  0
EOF
