999
DXF file: C:\Users\sesa63760\Dev\_Creo\CAD\MCADID0003709_3D-CAD\drw0001_1.dxf
999
Pro/ENGINEER 2019471 by Parametric Technology Corporation
  0
SECTION
  2
HEADER
  9
$ACADVER
  1
AC1024
  9
$DWGCODEPAGE
  3
ANSI_1252
  9
$EXTMAX
 10
41.0499463204
 20
58.0563526532
 30
0.0
  9
$EXTMIN
 10
0.0
 20
0.0
 30
0.0
  9
$LIMMIN
 10
0.0
 20
0.0
  9
$LIMMAX
 10
41.0499463204
 20
58.0563526532
  9
$VIEWCTR
 10
20.5249731602
 20
29.0281763266
  9
$VIEWSIZE
 40
58.0563526532
  9
$CLAYER
  8
0
  9
$LTSCALE
 40
3.7844140989
  9
$CELTYPE
  6
BYLAYER
  9
$DIMSCALE
 40
1.0
  9
$DIMASZ
 40
0.4886898371
  9
$DIMEXO
 40
1.0
  9
$DIMDLI
 40
2.6146861047
  9
$DIMEXE
 40
1.0
  9
$DIMCEN
 40
0.6192677616
  9
$DIMLFAC
 40
1.0
  9
$DIMBLK
  1
_FILLED
  9
$DIMALT
 70
0
  9
$DIMALTF
 40
0.0393700787
  9
$DIMTXT
 40
0.684165772
  9
$DIMTOL
 70
1
  9
$DIMLIM
 70
0
  9
$DIMTFAC
 40
1.0
  9
$DIMTP
 40
0.01
  9
$DIMTM
 40
0.01
  9
$DIMGAP
 40
0.625
  9
$DIMDSEP
 70
46
  9
$AUNITS
 70
0
  9
$PDMODE
 70
3
  9
$PDSIZE
 40
0.3125
  9
$HANDSEED
  5
3C0
  9
$TILEMODE
 70
1
  9
$MEASUREMENT
 70
1
  9
$INSUNITS
 70
4
  0
ENDSEC
  0
SECTION
  2
CLASSES
  0
CLASS
  1
ACDBDICTIONARYWDFLT
  2
AcDbDictionaryWithDefault
  3
AutoCAD 2000
 90
0
 91
1
280
0
281
0
  0
CLASS
  1
ACDBPLACEHOLDER
  2
AcDbPlaceHolder
  3
AutoCAD 2000
 90
0
 91
1
280
0
281
0
  0
CLASS
  1
LAYOUT
  2
AcDbLayout
  3
AutoCAD 2000
 90
0
 91
0
280
0
281
0
  0
ENDSEC
  0
SECTION
  2
TABLES
  0
TABLE
  2
VPORT
  5
8
100
AcDbSymbolTable
 70
2
  0
VPORT
  5
1F4
100
AcDbSymbolTableRecord
100
AcDbViewportTableRecord
  2
*ACTIVE
 70
0
 10
0.0
 20
0.0
 11
1.0
 21
1.0
 12
20.5249731602
 22
29.0281763266
 13
0.0
 23
0.0
 14
1.0
 24
1.0
 15
0.0
 25
0.0
 16
0.0
 26
0.0
 36
1.0
 17
0.0
 27
0.0
 37
0.0
 40
58.0563526532
 41
0.7070707071
 42
50.0
 43
0.0
 44
0.0
 50
0.0
 51
0.0
 71
0
 72
100
 73
1
 74
1
 75
0
 76
0
 77
0
 78
0
  0
ENDTAB
  0
TABLE
  2
LTYPE
  5
5
100
AcDbSymbolTable
 70
6
  0
LTYPE
  5
14
100
AcDbSymbolTableRecord
100
AcDbLinetypeTableRecord
  2
BYBLOCK
 70
0
  3

 72
65
 73
0
 40
0.0
  0
LTYPE
  5
15
100
AcDbSymbolTableRecord
100
AcDbLinetypeTableRecord
  2
BYLAYER
 70
0
  3

 72
65
 73
0
 40
0.0
  0
LTYPE
  5
16
100
AcDbSymbolTableRecord
100
AcDbLinetypeTableRecord
  2
CONTINUOUS
 70
64
  3
Solid line
 72
65
 73
0
 40
0.0
  0
LTYPE
  5
1F5
100
AcDbSymbolTableRecord
100
AcDbLinetypeTableRecord
  2
CENTER
 70
64
  3
____ _ ____ _ ____ _ ____ _ ____ _ ____ _ ____
 72
65
 73
4
 40
0.6
 49
0.375
 74
0
 49
-0.075
 74
0
 49
0.075
 74
0
 49
-0.075
 74
0
  0
LTYPE
  5
1F6
100
AcDbSymbolTableRecord
100
AcDbLinetypeTableRecord
  2
HIDDEN
 70
64
  3
- - - - - - - - - - - - - - - - - - - -
 72
65
 73
2
 40
0.2
 49
0.1
 74
0
 49
-0.1
 74
0
  0
LTYPE
  5
1F7
100
AcDbSymbolTableRecord
100
AcDbLinetypeTableRecord
  2
PHANTOM
 70
64
  3
_____ _ _ _____ _ _ _____ _ _ _____
 72
65
 73
6
 40
0.8
 49
0.45
 74
0
 49
-0.05
 74
0
 49
0.1
 74
0
 49
-0.05
 74
0
 49
0.1
 74
0
 49
-0.05
 74
0
  0
LTYPE
  5
1F8
100
AcDbSymbolTableRecord
100
AcDbLinetypeTableRecord
  2
DOT
 70
64
  3
. . . . . . . . . . . . . . . . . . . .
 72
65
 73
2
 40
0.2
 49
0.1
 74
0
 49
-0.1
 74
0
  0
LTYPE
  5
1F9
100
AcDbSymbolTableRecord
100
AcDbLinetypeTableRecord
  2
DASHED
 70
64
  3
- - - - - - - - - - - - - - - - - - - -
 72
65
 73
2
 40
0.2
 49
0.1
 74
0
 49
-0.1
 74
0
  0
ENDTAB
  0
TABLE
  2
LAYER
  5
2
100
AcDbSymbolTable
 70
36
  0
LAYER
  5
10
100
AcDbSymbolTableRecord
100
AcDbLayerTableRecord
  2
0
 70
0
 62
7
  6
CONTINUOUS
370
-3
390
F
  0
LAYER
  5
1FA
100
AcDbSymbolTableRecord
100
AcDbLayerTableRecord
  2
DEFAULT_1
 70
0
 62
7
  6
CENTER
370
-3
390
F
  0
LAYER
  5
1FB
100
AcDbSymbolTableRecord
100
AcDbLayerTableRecord
  2
DEFAULT_2
 70
0
 62
7
  6
HIDDEN
370
-3
390
F
  0
LAYER
  5
1FC
100
AcDbSymbolTableRecord
100
AcDbLayerTableRecord
  2
DEFAULT_3
 70
0
 62
7
  6
PHANTOM
370
-3
390
F
  0
LAYER
  5
1FD
100
AcDbSymbolTableRecord
100
AcDbLayerTableRecord
  2
00_COMPONENTS
 70
0
 62
7
  6
CONTINUOUS
370
-3
390
F
  0
LAYER
  5
1FE
100
AcDbSymbolTableRecord
100
AcDbLayerTableRecord
  2
01_1_DEFAULT_DATUMS
 70
0
 62
7
  6
CONTINUOUS
370
-3
390
F
  0
LAYER
  5
1FF
100
AcDbSymbolTableRecord
100
AcDbLayerTableRecord
  2
01_PLANES
 70
0
 62
7
  6
CONTINUOUS
370
-3
390
F
  0
LAYER
  5
200
100
AcDbSymbolTableRecord
100
AcDbLayerTableRecord
  2
02_COORD_SYS
 70
0
 62
7
  6
CONTINUOUS
370
-3
390
F
  0
LAYER
  5
201
100
AcDbSymbolTableRecord
100
AcDbLayerTableRecord
  2
03_AXES
 70
0
 62
7
  6
CONTINUOUS
370
-3
390
F
  0
LAYER
  5
202
100
AcDbSymbolTableRecord
100
AcDbLayerTableRecord
  2
04_POINTS
 70
0
 62
7
  6
CONTINUOUS
370
-3
390
F
  0
LAYER
  5
203
100
AcDbSymbolTableRecord
100
AcDbLayerTableRecord
  2
05_CURVES
 70
0
 62
7
  6
CONTINUOUS
370
-3
390
F
  0
LAYER
  5
204
100
AcDbSymbolTableRecord
100
AcDbLayerTableRecord
  2
06_SURFS
 70
0
 62
7
  6
CONTINUOUS
370
-3
390
F
  0
LAYER
  5
205
100
AcDbSymbolTableRecord
100
AcDbLayerTableRecord
  2
07_COSMETICS
 70
0
 62
7
  6
CONTINUOUS
370
-3
390
F
  0
LAYER
  5
206
100
AcDbSymbolTableRecord
100
AcDbLayerTableRecord
  2
10_NOTES
 70
0
 62
7
  6
CONTINUOUS
370
-3
390
F
  0
LAYER
  5
207
100
AcDbSymbolTableRecord
100
AcDbLayerTableRecord
  2
11_NOTES_PUB
 70
0
 62
7
  6
CONTINUOUS
370
-3
390
F
  0
LAYER
  5
208
100
AcDbSymbolTableRecord
100
AcDbLayerTableRecord
  2
13_REF_GTOL
 70
0
 62
7
  6
CONTINUOUS
370
-3
390
F
  0
LAYER
  5
209
100
AcDbSymbolTableRecord
100
AcDbLayerTableRecord
  2
16_MISC
 70
0
 62
7
  6
CONTINUOUS
370
-3
390
F
  0
LAYER
  5
20A
100
AcDbSymbolTableRecord
100
AcDbLayerTableRecord
  2
17_NO_PRINT
 70
0
 62
7
  6
CONTINUOUS
370
-3
390
F
  0
LAYER
  5
20B
100
AcDbSymbolTableRecord
100
AcDbLayerTableRecord
  2
18_DATUM_CAMS_JOINTS
 70
0
 62
7
  6
CONTINUOUS
370
-3
390
F
  0
LAYER
  5
20C
100
AcDbSymbolTableRecord
100
AcDbLayerTableRecord
  2
19_DATUM_FUNCTIONAL
 70
0
 62
7
  6
CONTINUOUS
370
-3
390
F
  0
LAYER
  5
20D
100
AcDbSymbolTableRecord
100
AcDbLayerTableRecord
  2
20_DATUM_KINEMATIC_SCHEME
 70
0
 62
7
  6
CONTINUOUS
370
-3
390
F
  0
ENDTAB
  0
TABLE
  2
STYLE
  5
3
100
AcDbSymbolTable
 70
1
  0
STYLE
  5
11
100
AcDbSymbolTableRecord
100
AcDbTextStyleTableRecord
  2
STANDARD
 70
0
 40
0.0
 41
1.0
 50
0.0
 71
0
 42
0.2
  3
ARIAL.TTF
  4

  0
STYLE
  5
20E
100
AcDbSymbolTableRecord
100
AcDbTextStyleTableRecord
  2
TEXTSTYLE_1
 70
0
 40
0.0
 41
0.8
 50
0.0
 71
0
 42
0.2
  3
gdt
  4

  0
ENDTAB
  0
TABLE
  2
VIEW
  5
6
100
AcDbSymbolTable
 70
0
  0
ENDTAB
  0
TABLE
  2
UCS
  5
7
100
AcDbSymbolTable
 70
0
  0
ENDTAB
  0
TABLE
  2
APPID
  5
9
100
AcDbSymbolTable
 70
1
  0
APPID
  5
20F
100
AcDbSymbolTableRecord
100
AcDbRegAppTableRecord
  2
ACAD
 70
0
  0
ENDTAB
  0
TABLE
  2
BLOCK_RECORD
  5
1
100
AcDbSymbolTable
 70
0
  0
BLOCK_RECORD
  5
210
100
AcDbSymbolTableRecord
100
AcDbBlockTableRecord
  2
*Model_Space
  0
BLOCK_RECORD
  5
211
100
AcDbSymbolTableRecord
100
AcDbBlockTableRecord
  2
*Paper_Space
  0
BLOCK_RECORD
  5
212
100
AcDbSymbolTableRecord
100
AcDbBlockTableRecord
  2
_FILLED
  0
ENDTAB
  0
TABLE
  2
DIMSTYLE
  5
A
100
AcDbSymbolTable
 70
1
100
AcDbDimStyleTable
 71
0
  0
DIMSTYLE
105
213
100
AcDbSymbolTableRecord
100
AcDbDimStyleTableRecord
  2
STANDARD
 70
0
  3

  4

 40
1.0
 41
0.4886898371
 42
1.0
 43
0.38
 44
1.0
 45
0.0
 46
0.0
 47
0.01
 48
0.01
140
0.684165772
141
0.09
142
0.0
143
25.4
144
1.0
145
0.0
146
1.0
147
0.625
 71
1
 72
0
 73
0
 74
0
 75
0
 76
0
 77
1
 78
8
 79
2
170
0
171
1
172
0
173
0
174
0
175
0
176
0
177
0
178
0
270
2
179
2
271
2
272
2
273
2
274
2
275
0
280
0
281
0
282
0
283
1
284
8
285
0
286
0
287
3
288
0
340
11
278
46
341
212
342
212
343
212
344
212
  0
ENDTAB
  0
ENDSEC
  0
SECTION
  2
BLOCKS
  0
BLOCK
  5
20
100
AcDbEntity
  8
0
100
AcDbBlockBegin
  2
*Model_Space
 70
0
 10
0.0
 20
0.0
 30
0.0
  3
*Model_Space
  1

  0
ENDBLK
  5
21
100
AcDbEntity
  8
0
100
AcDbBlockEnd
  0
BLOCK
  5
1C
100
AcDbEntity
  8
0
100
AcDbBlockBegin
  2
*Paper_Space
 70
0
 10
0.0
 20
0.0
 30
0.0
  3
*Paper_Space
  1

  0
ENDBLK
  5
1D
100
AcDbEntity
  8
0
100
AcDbBlockEnd
  0
BLOCK
  5
214
100
AcDbEntity
  8
0
100
AcDbBlockBegin
  2
_FILLED
 70
64
 10
0.0
 20
0.0
  3
_FILLED
  1

  0
SOLID
  5
215
100
AcDbEntity
  8
0
  6
BYBLOCK
 62
0
100
AcDbTrace
 10
0.0
 20
0.0
 11
-1.0
 21
0.25
 12
-1.0
 22
-0.25
 13
-1.0
 23
-0.25
  0
ENDBLK
  5
216
100
AcDbEntity
  8
0
  6
BYBLOCK
 62
0
100
AcDbBlockEnd
  0
ENDSEC
  0
SECTION
  2
ENTITIES
  0
LINE
  5
217
100
AcDbEntity
  8
0
100
AcDbLine
 62
7
  6
BYLAYER
 10
16.9496632932
 20
48.8843976244
 11
16.2425594581
 21
48.4761534718
  0
LINE
  5
218
100
AcDbEntity
  8
0
100
AcDbLine
 62
7
  6
BYLAYER
 10
21.3337070865
 20
51.41551138
 11
22.0408109214
 21
51.8237555325
  0
LINE
  5
219
100
AcDbEntity
  8
0
100
AcDbLine
 62
7
  6
BYLAYER
 10
16.7425572226
 20
48.426629191
 11
17.4496610614
 21
48.8348733458
  0
LINE
  5
21A
100
AcDbEntity
  8
0
100
AcDbLine
 62
7
  6
BYLAYER
 10
21.8337048508
 20
51.365987099
 11
22.5408086894
 21
51.7742312536
  0
LINE
  5
21B
100
AcDbEntity
  8
0
100
AcDbLine
 62
7
  6
BYLAYER
 10
5.6409545522
 20
18.2567602803
 11
25.4400268565
 21
6.8260191536
  0
LINE
  5
21C
100
AcDbEntity
  8
0
100
AcDbLine
 62
7
  6
BYLAYER
 10
4.762266064
 20
19.4814927418
 11
4.762266064
 21
25.1970096616
  0
LINE
  5
21D
100
AcDbEntity
  8
0
100
AcDbLine
 62
7
  6
BYLAYER
 10
5.6409545522
 20
18.2567602803
 11
5.6409545522
 21
23.9722772001
  0
LINE
  5
21E
100
AcDbEntity
  8
0
100
AcDbLine
 62
7
  6
BYLAYER
 10
19.6002763144
 20
43.7416447721
 11
21.9958444652
 21
45.124718433
  0
LINE
  5
21F
100
AcDbEntity
  8
0
100
AcDbLine
 62
7
  6
BYLAYER
 10
19.6002763144
 20
43.7078251328
 11
22.0458442409
 21
45.1197660054
  0
LINE
  5
220
100
AcDbEntity
  8
0
100
AcDbLine
 62
7
  6
BYLAYER
 10
22.7529539665
 20
44.7115252506
 11
19.9245386167
 21
43.0785486345
  0
LINE
  5
221
100
AcDbEntity
  8
0
100
AcDbLine
 62
7
  6
BYLAYER
 10
19.995249622
 20
42.9560743292
 11
22.8236649333
 21
44.5890509231
  0
LINE
  5
222
100
AcDbEntity
  8
0
100
AcDbLine
 62
7
  6
BYLAYER
 10
22.8236649457
 20
43.119346584
 11
19.9952495871
 21
41.4863699629
  0
LINE
  5
223
100
AcDbEntity
  8
0
100
AcDbLine
 62
7
  6
BYLAYER
 10
22.8029537423
 20
43.0735679882
 11
19.9745383924
 21
41.4405913722
  0
LINE
  5
224
100
AcDbEntity
  8
0
100
AcDbLine
 62
7
  6
BYLAYER
 10
5.6409545522
 20
23.9722772001
 11
10.8596763151
 21
20.9593149478
  0
LINE
  5
225
100
AcDbEntity
  8
0
100
AcDbLine
 62
7
  6
BYLAYER
 10
20.7731026706
 20
15.235925052
 11
25.4400268565
 21
12.5415360722
  0
LINE
  5
226
100
AcDbEntity
  8
0
100
AcDbLine
 62
7
  6
BYLAYER
 10
25.7935787522
 20
13.153909368
 11
21.7390295687
 21
15.4947514736
  0
LINE
  5
227
100
AcDbEntity
  8
0
100
AcDbLine
 62
7
  6
BYLAYER
 10
10.690235831
 20
21.873631207
 11
5.9945064947
 21
24.5846504719
  0
LINE
  5
228
100
AcDbEntity
  8
0
100
AcDbLine
 62
7
  6
BYLAYER
 10
11.2270713337
 20
24.0130360837
 11
11.2270713337
 21
23.2671365521
  0
LINE
  5
229
100
AcDbEntity
  8
0
100
AcDbLine
 62
7
  6
BYLAYER
 10
22.454214266
 20
50.3207305695
 11
22.383508354
 21
50.1982636577
  0
LINE
  5
22A
100
AcDbEntity
  8
0
100
AcDbLine
 62
7
  6
BYLAYER
 10
22.420106751
 20
50.1771243393
 11
22.4908171347
 21
50.2995989964
  0
LINE
  5
22B
100
AcDbEntity
  8
0
100
AcDbLine
 62
7
  6
BYLAYER
 10
19.6002763144
 20
43.2418533518
 11
19.5709872886
 21
43.2010292774
  0
LINE
  5
22C
100
AcDbEntity
  8
0
100
AcDbLine
 62
7
  6
BYLAYER
 10
26.1401188703
 20
19.8452062995
 11
26.1304819852
 21
19.8450091496
  0
LINE
  5
22D
100
AcDbEntity
  8
0
100
AcDbLine
 62
7
  6
BYLAYER
 10
5.3969944401
 20
26.0726905259
 11
10.6981927037
 21
23.0121115209
  0
LINE
  5
22E
100
AcDbEntity
  8
0
100
AcDbLine
 62
7
  6
BYLAYER
 10
23.5308194014
 20
15.6033586545
 11
28.3709815485
 21
12.8089529539
  0
LINE
  5
22F
100
AcDbEntity
  8
0
100
AcDbLine
 62
7
  6
BYLAYER
 10
28.6209773013
 20
12.8337168959
 11
23.780815166
 21
15.6281225897
  0
LINE
  5
230
100
AcDbEntity
  8
0
100
AcDbLine
 62
7
  6
BYLAYER
 10
10.9481884592
 20
23.0368754649
 11
5.6469902055
 21
26.0974544641
  0
LINE
  5
231
100
AcDbEntity
  8
0
100
AcDbLine
 62
7
  6
BYLAYER
 10
12.8165574241
 20
30.2367738366
 11
12.8165574241
 21
26.5625129596
  0
LINE
  5
232
100
AcDbEntity
  8
0
100
AcDbLine
 62
7
  6
BYLAYER
 10
12.9630055055
 20
26.3583908826
 11
12.9630055055
 21
30.0326517597
  0
LINE
  5
233
100
AcDbEntity
  8
0
100
AcDbLine
 62
7
  6
BYLAYER
 10
23.1979268592
 20
49.8913582407
 11
23.1272164761
 21
49.7688835848
  0
LINE
  5
234
100
AcDbEntity
  8
0
100
AcDbLine
 62
7
  6
BYLAYER
 10
23.3186376235
 20
49.821665944
 11
23.247927241
 21
49.6991912898
  0
LINE
  5
235
100
AcDbEntity
  8
0
100
AcDbLine
 62
7
  6
BYLAYER
 10
19.5709872885
 20
40.7515220262
 11
19.6002763144
 21
40.7923461007
  0
LWPOLYLINE
  5
236
100
AcDbEntity
  8
0
100
AcDbPolyline
 62
7
  6
BYLAYER
 90
3
 70
0
 10
11.1090083022
 20
22.9607410354
 10
11.0984454202
 20
22.9632695419
 10
10.9484166804
 20
23.0367434609
  0
LINE
  5
237
100
AcDbEntity
  8
0
100
AcDbLine
 62
7
  6
BYLAYER
 10
20.7731026706
 20
19.3184371388
 11
12.1463559262
 21
24.2992343851
  0
LINE
  5
238
100
AcDbEntity
  8
0
100
AcDbLine
 62
7
  6
BYLAYER
 10
12.1463559262
 20
24.2992343851
 11
10.8596763151
 21
20.9593149478
  0
LINE
  5
239
100
AcDbEntity
  8
0
100
AcDbLine
 62
7
  6
BYLAYER
 10
10.6867395818
 20
21.8648751998
 11
11.9205360527
 21
25.0668064239
  0
LINE
  5
23A
100
AcDbEntity
  8
0
100
AcDbLine
 62
7
  6
BYLAYER
 10
19.9745383924
 20
41.4405913722
 11
19.9952495887
 21
41.4863699638
  0
LINE
  5
23B
100
AcDbEntity
  8
0
100
AcDbLine
 62
7
  6
BYLAYER
 10
11.994932812
 20
25.2007684979
 11
11.9205360527
 21
25.0668064239
  0
LINE
  5
23C
100
AcDbEntity
  8
0
100
AcDbLine
 62
7
  6
BYLAYER
 10
12.8533827017
 20
25.5236148161
 11
21.4802065087
 21
20.5431837104
  0
LINE
  5
23D
100
AcDbEntity
  8
0
100
AcDbLine
 62
7
  6
BYLAYER
 10
35.9369926012
 20
13.0946533144
 11
31.0968304697
 21
15.889059006
  0
LINE
  5
23E
100
AcDbEntity
  8
0
100
AcDbLine
 62
7
  6
BYLAYER
 10
13.3383478494
 20
26.1416917817
 11
12.9630055055
 21
26.3583908826
  0
LINE
  5
23F
100
AcDbEntity
  8
0
100
AcDbLine
 62
7
  6
BYLAYER
 10
16.0061584656
 20
47.9775434519
 11
16.0061584656
 21
28.6264361714
  0
LINE
  5
240
100
AcDbEntity
  8
0
100
AcDbLine
 62
7
  6
BYLAYER
 10
16.0354480816
 20
28.5856117556
 11
16.035448081
 21
47.9367190381
  0
LINE
  5
241
100
AcDbEntity
  8
0
100
AcDbLine
 62
7
  6
BYLAYER
 10
22.8236649386
 20
43.1193465799
 11
22.8029541741
 21
43.0735682376
  0
LINE
  5
242
100
AcDbEntity
  8
0
100
AcDbLine
 62
7
  6
BYLAYER
 10
19.5556112614
 20
24.5120094379
 11
18.2981921367
 21
25.2379642848
  0
LINE
  5
243
100
AcDbEntity
  8
0
100
AcDbLine
 62
7
  6
BYLAYER
 10
16.6925580678
 20
27.4375642825
 11
17.3996677909
 21
27.0293235292
  0
LINE
  5
244
100
AcDbEntity
  8
0
100
AcDbLine
 62
7
  6
BYLAYER
 10
17.3789565602
 20
27.0751021446
 11
16.6718468357
 21
27.4833428979
  0
LINE
  5
245
100
AcDbEntity
  8
0
100
AcDbLine
 62
7
  6
BYLAYER
 10
16.0354480818
 20
28.585611756
 11
16.0061584656
 21
28.6264359294
  0
LINE
  5
246
100
AcDbEntity
  8
0
100
AcDbLine
 62
7
  6
BYLAYER
 10
16.6925580642
 20
27.4375642846
 11
16.6718468358
 21
27.4833428973
  0
LINE
  5
247
100
AcDbEntity
  8
0
100
AcDbLine
 62
7
  6
BYLAYER
 10
17.3789565588
 20
27.075102144
 11
17.3996671486
 21
27.0293239
  0
LINE
  5
248
100
AcDbEntity
  8
0
100
AcDbLine
 62
7
  6
BYLAYER
 10
17.3789565602
 20
47.8959137785
 11
17.3789565602
 21
27.0751021446
  0
LINE
  5
249
100
AcDbEntity
  8
0
100
AcDbLine
 62
7
  6
BYLAYER
 10
18.8345873567
 20
24.928283366
 11
18.8345873567
 21
26.8312520766
  0
LINE
  5
24A
100
AcDbEntity
  8
0
100
AcDbLine
 62
7
  6
BYLAYER
 10
18.8638769729
 20
24.9113733808
 11
18.8638769729
 21
26.8373163858
  0
LWPOLYLINE
  5
24B
100
AcDbEntity
  8
0
100
AcDbPolyline
 62
7
  6
BYLAYER
 90
3
 70
0
 10
22.5579168753
 20
50.664191305
 10
22.529166452
 20
50.4909977512
 10
22.4542373785
 20
50.3207172274
  0
LWPOLYLINE
  5
24C
100
AcDbEntity
  8
0
100
AcDbPolyline
 62
7
  6
BYLAYER
 90
4
 70
0
 10
12.2963574576
 20
25.5315618951
 10
12.2039436176
 20
25.4442840579
 10
12.0275501633
 20
25.2437475442
 10
11.994643085
 20
25.2008231789
  0
LINE
  5
24D
100
AcDbEntity
  8
0
100
AcDbLine
 62
7
  6
BYLAYER
 10
12.3534834574
 20
25.5730834541
 11
12.2963689217
 21
25.5315319652
  0
LINE
  5
24E
100
AcDbEntity
  8
0
100
AcDbLine
 62
7
  6
BYLAYER
 10
8.545175738
 20
24.4242241203
 11
12.0048714238
 21
26.4216684327
  0
LINE
  5
24F
100
AcDbEntity
  8
0
100
AcDbLine
 62
7
  6
BYLAYER
 10
19.3804261774
 20
26.950490848
 11
19.4203433845
 21
26.9507233468
  0
LINE
  5
250
100
AcDbEntity
  8
0
100
AcDbLine
 62
7
  6
BYLAYER
 10
19.4204006994
 20
26.950718081
 11
19.4206950077
 21
26.9506912127
  0
LINE
  5
251
100
AcDbEntity
  8
0
100
AcDbLine
 62
7
  6
BYLAYER
 10
19.4649924313
 20
26.9379521903
 11
19.4206686173
 21
26.9506935645
  0
LINE
  5
252
100
AcDbEntity
  8
0
100
AcDbLine
 62
7
  6
BYLAYER
 10
12.9630055055
 20
30.0326517597
 11
16.0868912353
 21
28.2291162941
  0
LINE
  5
253
100
AcDbEntity
  8
0
100
AcDbLine
 62
7
  6
BYLAYER
 10
31.0968304696
 20
19.5633198838
 11
35.9369926014
 21
16.768914192
  0
LINE
  5
254
100
AcDbEntity
  8
0
100
AcDbLine
 62
7
  6
BYLAYER
 10
19.5709866984
 20
26.7076787013
 11
19.2190642473
 21
26.9108566276
  0
LINE
  5
255
100
AcDbEntity
  8
0
100
AcDbLine
 62
7
  6
BYLAYER
 10
36.2905445279
 20
17.3812874722
 11
31.4503823922
 21
20.1756931663
  0
LINE
  5
256
100
AcDbEntity
  8
0
100
AcDbLine
 62
7
  6
BYLAYER
 10
16.0061584656
 20
29.092218278
 11
13.3165574078
 21
30.6450250435
  0
LINE
  5
257
100
AcDbEntity
  8
0
100
AcDbLine
 62
7
  6
BYLAYER
 10
19.5002769029
 20
27.0094728939
 11
19.5002769029
 21
47.6171475159
  0
LINE
  5
258
100
AcDbEntity
  8
0
100
AcDbLine
 62
7
  6
BYLAYER
 10
19.5709866984
 20
26.7076787013
 11
19.5709866983
 21
24.5208863975
  0
LINE
  5
259
100
AcDbEntity
  8
0
100
AcDbLine
 62
7
  6
BYLAYER
 10
19.5709872886
 20
47.5763216913
 11
19.5709872886
 21
43.2010292744
  0
LINE
  5
25A
100
AcDbEntity
  8
0
100
AcDbLine
 62
7
  6
BYLAYER
 10
19.5709872885
 20
40.7515220284
 11
19.5709872885
 21
29.3204881833
  0
LINE
  5
25B
100
AcDbEntity
  8
0
100
AcDbLine
 62
7
  6
BYLAYER
 10
19.6002763144
 20
40.7923461007
 11
19.6002763144
 21
29.3613122597
  0
LINE
  5
25C
100
AcDbEntity
  8
0
100
AcDbLine
 62
7
  6
BYLAYER
 10
19.6002763144
 20
43.2418533519
 11
19.6002763144
 21
47.6171436518
  0
LINE
  5
25D
100
AcDbEntity
  8
0
100
AcDbLine
 62
7
  6
BYLAYER
 10
19.7124080557
 20
24.6025355689
 11
19.7124080557
 21
26.7076790394
  0
LINE
  5
25E
100
AcDbEntity
  8
0
100
AcDbLine
 62
7
  6
BYLAYER
 10
20.7731026706
 20
19.3184371388
 11
20.7731026706
 21
15.235925052
  0
LINE
  5
25F
100
AcDbEntity
  8
0
100
AcDbLine
 62
7
  6
BYLAYER
 10
19.6002763144
 20
29.3613125004
 11
19.5709872885
 21
29.3204881852
  0
LINE
  5
260
100
AcDbEntity
  8
0
100
AcDbLine
 62
7
  6
BYLAYER
 10
21.995844467
 20
31.2441773429
 11
19.6002763144
 21
29.8611036809
  0
LINE
  5
261
100
AcDbEntity
  8
0
100
AcDbLine
 62
7
  6
BYLAYER
 10
19.6002763144
 20
29.8272840416
 11
22.0458442428
 21
31.2392249152
  0
LINE
  5
262
100
AcDbEntity
  8
0
100
AcDbLine
 62
7
  6
BYLAYER
 10
16.287959025
 20
27.8446404228
 11
12.3534834574
 21
25.5730834541
  0
LINE
  5
263
100
AcDbEntity
  8
0
100
AcDbLine
 62
7
  6
BYLAYER
 10
16.4856953942
 20
27.6206745478
 11
12.8533827017
 21
25.5236148161
  0
LINE
  5
264
100
AcDbEntity
  8
0
100
AcDbLine
 62
7
  6
BYLAYER
 10
22.7529539684
 20
30.8309841604
 11
19.9245386171
 21
29.1980075435
  0
LINE
  5
265
100
AcDbEntity
  8
0
100
AcDbLine
 62
7
  6
BYLAYER
 10
19.9952495883
 20
29.0755332263
 11
22.8236649388
 21
30.7085098424
  0
LINE
  5
266
100
AcDbEntity
  8
0
100
AcDbLine
 62
7
  6
BYLAYER
 10
11.2270713337
 20
24.0130360837
 11
10.2422390779
 21
23.4444463097
  0
LINE
  5
267
100
AcDbEntity
  8
0
100
AcDbLine
 62
7
  6
BYLAYER
 10
15.8939603125
 20
30.3000685877
 11
16.0061584656
 21
30.2352924193
  0
LINE
  5
268
100
AcDbEntity
  8
0
100
AcDbLine
 62
7
  6
BYLAYER
 10
31.6384832953
 20
21.2101696288
 11
35.6930324794
 21
18.8693275229
  0
LINE
  5
269
100
AcDbEntity
  8
0
100
AcDbLine
 62
7
  6
BYLAYER
 10
31.6725563915
 20
21.359593758
 11
35.9430282492
 21
18.8940914585
  0
LINE
  5
26A
100
AcDbEntity
  8
0
100
AcDbLine
 62
7
  6
BYLAYER
 10
19.6745732355
 20
29.1732260676
 11
19.6745428582
 21
29.1732436013
  0
LINE
  5
26B
100
AcDbEntity
  8
0
100
AcDbLine
 62
7
  6
BYLAYER
 10
19.9245386171
 20
29.1980075435
 11
19.6002763144
 21
29.3852162361
  0
LINE
  5
26C
100
AcDbEntity
  8
0
100
AcDbLine
 62
7
  6
BYLAYER
 10
23.1707089298
 20
27.4870476729
 11
23.9396405665
 21
27.0431148286
  0
LINE
  5
26D
100
AcDbEntity
  8
0
100
AcDbLine
 62
7
  6
BYLAYER
 10
21.0973060935
 20
31.5657940791
 11
21.0973060935
 21
42.0888177372
  0
LINE
  5
26E
100
AcDbEntity
  8
0
100
AcDbLine
 62
7
  6
BYLAYER
 10
21.0973060935
 20
44.6059501589
 11
21.0973060935
 21
50.9169013626
  0
LINE
  5
26F
100
AcDbEntity
  8
0
100
AcDbLine
 62
7
  6
BYLAYER
 10
21.1265957087
 20
31.5249696639
 11
21.1265957087
 21
42.1057280035
  0
LINE
  5
270
100
AcDbEntity
  8
0
100
AcDbLine
 62
7
  6
BYLAYER
 10
21.1265957087
 20
44.6228604252
 11
21.1265957087
 21
50.8760769582
  0
LINE
  5
271
100
AcDbEntity
  8
0
100
AcDbLine
 62
7
  6
BYLAYER
 10
22.1873162329
 20
15.6441796614
 11
22.1873162329
 21
19.3184405384
  0
LINE
  5
272
100
AcDbEntity
  8
0
100
AcDbLine
 62
7
  6
BYLAYER
 10
22.3701065427
 20
42.8236650328
 11
22.3701065427
 21
31.8924226051
  0
LINE
  5
273
100
AcDbEntity
  8
0
100
AcDbLine
 62
7
  6
BYLAYER
 10
22.3701065427
 20
45.7729637083
 11
22.3701065427
 21
50.1482561167
  0
LINE
  5
274
100
AcDbEntity
  8
0
100
AcDbLine
 62
7
  6
BYLAYER
 10
22.3993961589
 20
31.8515981892
 11
22.3993961588
 21
42.8405752996
  0
LINE
  5
275
100
AcDbEntity
  8
0
100
AcDbLine
 62
7
  6
BYLAYER
 10
22.4701041876
 20
50.8352716903
 11
22.4701041876
 21
50.3567754412
  0
LINE
  5
276
100
AcDbEntity
  8
0
100
AcDbLine
 62
7
  6
BYLAYER
 10
22.3999637585
 20
50.107104009
 11
22.3993961584
 21
45.7321392907
  0
LINE
  5
277
100
AcDbEntity
  8
0
100
AcDbLine
 62
7
  6
BYLAYER
 10
22.5579722991
 20
50.6641907708
 11
22.5579730364
 21
50.6650869189
  0
LINE
  5
278
100
AcDbEntity
  8
0
100
AcDbLine
 62
7
  6
BYLAYER
 10
23.1065064725
 20
28.6672509782
 11
23.1357955004
 21
28.7080750539
  0
LWPOLYLINE
  5
279
100
AcDbEntity
  8
0
100
AcDbPolyline
 62
7
  6
BYLAYER
 90
4
 70
0
 10
23.3258691487
 20
29.1921674031
 10
23.3668759817
 20
29.2412500509
 10
23.4634093425
 20
29.3437494049
 10
23.5040373964
 20
29.3819425289
  0
LINE
  5
27A
100
AcDbEntity
  8
0
100
AcDbLine
 62
7
  6
BYLAYER
 10
18.2981921367
 20
25.2379642848
 11
18.8345873567
 21
25.5476503608
  0
LINE
  5
27B
100
AcDbEntity
  8
0
100
AcDbLine
 62
7
  6
BYLAYER
 10
23.1357955004
 20
28.0309392172
 11
23.2479189974
 21
28.095673362
  0
LINE
  5
27C
100
AcDbEntity
  8
0
100
AcDbLine
 62
7
  6
BYLAYER
 10
19.2291656649
 20
26.9129576753
 11
19.2291073699
 21
26.9129360228
  0
LWPOLYLINE
  5
27D
100
AcDbEntity
  8
0
100
AcDbPolyline
 62
7
  6
BYLAYER
 90
3
 70
0
 10
19.2291711514
 20
26.9129612426
 10
19.2819351539
 20
26.9306115848
 10
19.3804261774
 20
26.950490848
  0
LINE
  5
27E
100
AcDbEntity
  8
0
100
AcDbLine
 62
7
  6
BYLAYER
 10
23.2479189974
 20
28.095673362
 11
24.5053381222
 21
27.3697185151
  0
LINE
  5
27F
100
AcDbEntity
  8
0
100
AcDbLine
 62
7
  6
BYLAYER
 10
23.753275314
 20
29.8451161328
 11
30.6725563945
 21
25.8503577119
  0
LINE
  5
280
100
AcDbEntity
  8
0
100
AcDbLine
 62
7
  6
BYLAYER
 10
21.1265957087
 20
31.5249696643
 11
21.0973060935
 21
31.5657938375
  0
LINE
  5
281
100
AcDbEntity
  8
0
100
AcDbLine
 62
7
  6
BYLAYER
 10
22.5579730364
 20
50.6650869189
 11
22.5495606914
 21
50.7535272089
  0
LINE
  5
282
100
AcDbEntity
  8
0
100
AcDbLine
 62
7
  6
BYLAYER
 10
23.1065058842
 20
42.8743912957
 11
23.1065058842
 21
31.4433574346
  0
LINE
  5
283
100
AcDbEntity
  8
0
100
AcDbLine
 62
7
  6
BYLAYER
 10
23.1065064725
 20
28.6672509876
 11
23.1065064725
 21
26.5621075064
  0
LINE
  5
284
100
AcDbEntity
  8
0
100
AcDbLine
 62
7
  6
BYLAYER
 10
23.1065056593
 20
45.3238986643
 11
23.1065054025
 21
49.6991912289
  0
LINE
  5
285
100
AcDbEntity
  8
0
100
AcDbLine
 62
7
  6
BYLAYER
 10
23.1357955004
 20
26.5790174336
 11
23.1357955004
 21
28.7080750539
  0
LINE
  5
286
100
AcDbEntity
  8
0
100
AcDbLine
 62
7
  6
BYLAYER
 10
23.2479189978
 20
27.6874221533
 11
23.2479189978
 21
28.0956733621
  0
LINE
  5
287
100
AcDbEntity
  8
0
100
AcDbLine
 62
7
  6
BYLAYER
 10
23.2479272389
 20
31.4433577762
 11
23.2479272389
 21
42.8743916252
  0
LINE
  5
288
100
AcDbEntity
  8
0
100
AcDbLine
 62
7
  6
BYLAYER
 10
23.247927241
 20
45.3238988658
 11
23.247927241
 21
49.6991912898
  0
LINE
  5
289
100
AcDbEntity
  8
0
100
AcDbLine
 62
7
  6
BYLAYER
 10
23.3186376235
 20
49.821665944
 11
23.3186376235
 21
29.2139913249
  0
LINE
  5
28A
100
AcDbEntity
  8
0
100
AcDbLine
 62
7
  6
BYLAYER
 10
23.7579730364
 20
29.8919868139
 11
23.7579730364
 21
50.7127984358
  0
LINE
  5
28B
100
AcDbEntity
  8
0
100
AcDbLine
 62
7
  6
BYLAYER
 10
23.8843654431
 20
15.5683391618
 11
23.8843654431
 21
16.2157144251
  0
LINE
  5
28C
100
AcDbEntity
  8
0
100
AcDbLine
 62
7
  6
BYLAYER
 10
23.2479189973
 20
27.6874221532
 11
23.1707089298
 21
27.4870476729
  0
LINE
  5
28D
100
AcDbEntity
  8
0
100
AcDbLine
 62
7
  6
BYLAYER
 10
23.5040348683
 20
29.381938409
 11
23.5212828724
 21
29.4250715175
  0
LINE
  5
28E
100
AcDbEntity
  8
0
100
AcDbLine
 62
7
  6
BYLAYER
 10
18.6517531092
 20
25.03384038
 11
18.8345873567
 21
25.1393991519
  0
LINE
  5
28F
100
AcDbEntity
  8
0
100
AcDbLine
 62
7
  6
BYLAYER
 10
23.1357955004
 20
27.6226880083
 11
23.2479189978
 21
27.6874221533
  0
LINE
  5
290
100
AcDbEntity
  8
0
100
AcDbLine
 62
7
  6
BYLAYER
 10
18.7866796248
 20
24.9559422822
 11
18.8345873567
 21
24.983601659
  0
LINE
  5
291
100
AcDbEntity
  8
0
100
AcDbLine
 62
7
  6
BYLAYER
 10
23.1357955004
 20
27.4668905154
 11
23.1707089298
 21
27.4870476729
  0
LINE
  5
292
100
AcDbEntity
  8
0
100
AcDbLine
 62
7
  6
BYLAYER
 10
24.5053381222
 20
27.3697185151
 11
19.5556112614
 21
24.5120094379
  0
LINE
  5
293
100
AcDbEntity
  8
0
100
AcDbLine
 62
7
  6
BYLAYER
 10
13.2197064449
 20
30.7273039714
 11
13.2196325729
 21
30.7272894562
  0
LINE
  5
294
100
AcDbEntity
  8
0
100
AcDbLine
 62
7
  6
BYLAYER
 10
13.2212688252
 20
30.7275719631
 11
13.2197064449
 21
30.7273039714
  0
LINE
  5
295
100
AcDbEntity
  8
0
100
AcDbLine
 62
7
  6
BYLAYER
 10
21.9958440377
 20
31.244177095
 11
22.0458442428
 21
31.2392249152
  0
LINE
  5
296
100
AcDbEntity
  8
0
100
AcDbLine
 62
7
  6
BYLAYER
 10
31.1725479079
 20
25.8998855949
 11
23.7579730364
 21
30.1805955504
  0
LINE
  5
297
100
AcDbEntity
  8
0
100
AcDbLine
 62
7
  6
BYLAYER
 10
22.0458442428
 20
31.2392249152
 11
22.7529539684
 21
30.8309841604
  0
LINE
  5
298
100
AcDbEntity
  8
0
100
AcDbLine
 62
7
  6
BYLAYER
 10
23.1065058842
 20
31.4433574346
 11
22.3993961589
 21
31.8515981892
  0
LINE
  5
299
100
AcDbEntity
  8
0
100
AcDbLine
 62
7
  6
BYLAYER
 10
22.399396159
 20
31.8515981897
 11
22.3701065427
 21
31.8924223608
  0
LINE
  5
29A
100
AcDbEntity
  8
0
100
AcDbLine
 62
7
  6
BYLAYER
 10
23.3186376258
 20
29.2139913228
 11
23.325868283
 21
29.1921647589
  0
LINE
  5
29B
100
AcDbEntity
  8
0
100
AcDbLine
 62
7
  6
BYLAYER
 10
25.4400268565
 20
12.5415360722
 11
25.4400268565
 21
6.8260191536
  0
LINE
  5
29C
100
AcDbEntity
  8
0
100
AcDbLine
 62
7
  6
BYLAYER
 10
16.0061584656
 20
47.9775434495
 11
16.0354480818
 21
47.9367190365
  0
LINE
  5
29D
100
AcDbEntity
  8
0
100
AcDbLine
 62
7
  6
BYLAYER
 10
28.5329101776
 20
12.1275883873
 11
28.5329101776
 21
8.4533275096
  0
LINE
  5
29E
100
AcDbEntity
  8
0
100
AcDbLine
 62
7
  6
BYLAYER
 10
28.8709815429
 20
12.4007017452
 11
28.8709815429
 21
8.726440868
  0
LINE
  5
29F
100
AcDbEntity
  8
0
100
AcDbLine
 62
7
  6
BYLAYER
 10
28.9048144633
 20
13.8070172213
 11
28.9048144633
 21
11.7657611784
  0
LINE
  5
2A0
100
AcDbEntity
  8
0
100
AcDbLine
 62
7
  6
BYLAYER
 10
29.6826169062
 20
19.5633164817
 11
29.6826169062
 21
15.889055606
  0
LINE
  5
2A1
100
AcDbEntity
  8
0
100
AcDbLine
 62
7
  6
BYLAYER
 10
29.682667543
 20
6.8260293514
 11
29.682667543
 21
8.8672853938
  0
LINE
  5
2A2
100
AcDbEntity
  8
0
100
AcDbLine
 62
7
  6
BYLAYER
 10
30.6725563945
 20
25.8503577119
 11
21.4802065087
 21
20.5431837104
  0
LINE
  5
2A3
100
AcDbEntity
  8
0
100
AcDbLine
 62
7
  6
BYLAYER
 10
22.1873162329
 20
19.3184405384
 11
31.3796661176
 21
24.6256145393
  0
LINE
  5
2A4
100
AcDbEntity
  8
0
100
AcDbLine
 62
7
  6
BYLAYER
 10
31.0968304696
 20
15.8890590061
 11
31.0968304696
 21
19.5633198838
  0
LINE
  5
2A5
100
AcDbEntity
  8
0
100
AcDbLine
 62
7
  6
BYLAYER
 10
31.3796661176
 20
24.6256145393
 11
31.3796661176
 21
20.9513536615
  0
LINE
  5
2A6
100
AcDbEntity
  8
0
100
AcDbLine
 62
7
  6
BYLAYER
 10
31.6725563915
 20
21.3229262727
 11
31.6725563915
 21
25.0338552931
  0
LINE
  5
2A7
100
AcDbEntity
  8
0
100
AcDbLine
 62
7
  6
BYLAYER
 10
26.1401838656
 20
19.8453996231
 11
26.4299802999
 21
19.9360664309
  0
LINE
  5
2A8
100
AcDbEntity
  8
0
100
AcDbLine
 62
7
  6
BYLAYER
 10
22.3993961584
 20
45.7321392932
 11
22.3701065427
 21
45.7729634647
  0
LINE
  5
2A9
100
AcDbEntity
  8
0
100
AcDbLine
 62
7
  6
BYLAYER
 10
31.6724861462
 20
21.3229467775
 11
31.6384832954
 21
21.2101696288
  0
LINE
  5
2AA
100
AcDbEntity
  8
0
100
AcDbLine
 62
7
  6
BYLAYER
 10
22.1873162329
 20
15.6441796614
 11
23.0937993174
 21
16.1675347902
  0
LINE
  5
2AB
100
AcDbEntity
  8
0
100
AcDbLine
 62
7
  6
BYLAYER
 10
30.4731830264
 20
20.4279985288
 11
31.3796661176
 21
20.9513536615
  0
LINE
  5
2AC
100
AcDbEntity
  8
0
100
AcDbLine
 62
7
  6
BYLAYER
 10
19.6745732355
 20
43.0537671588
 11
19.6745428582
 21
43.0537846925
  0
LINE
  5
2AD
100
AcDbEntity
  8
0
100
AcDbLine
 62
7
  6
BYLAYER
 10
19.9245386167
 20
43.0785486345
 11
19.6002763144
 21
43.2657573268
  0
LINE
  5
2AE
100
AcDbEntity
  8
0
100
AcDbLine
 62
7
  6
BYLAYER
 10
22.7822340079
 20
43.0616055154
 11
23.1065058842
 21
42.8743912957
  0
LINE
  5
2AF
100
AcDbEntity
  8
0
100
AcDbLine
 62
7
  6
BYLAYER
 10
21.0973060935
 20
50.9169013602
 11
21.1265957087
 21
50.8760769478
  0
LINE
  5
2B0
100
AcDbEntity
  8
0
100
AcDbLine
 62
7
  6
BYLAYER
 10
35.9369926014
 20
16.768914192
 11
35.9369926014
 21
13.0946533143
  0
LINE
  5
2B1
100
AcDbEntity
  8
0
100
AcDbLine
 62
7
  6
BYLAYER
 10
22.0458442409
 20
45.1197660054
 11
22.7529539665
 21
44.7115252506
  0
LINE
  5
2B2
100
AcDbEntity
  8
0
100
AcDbLine
 62
7
  6
BYLAYER
 10
17.3789565602
 20
47.8959137785
 11
16.6718468371
 21
48.3041545336
  0
LINE
  5
2B3
100
AcDbEntity
  8
0
100
AcDbLine
 62
7
  6
BYLAYER
 10
17.449666939
 20
48.0183884415
 11
16.7425572226
 21
48.426629191
  0
LINE
  5
2B4
100
AcDbEntity
  8
0
100
AcDbLine
 62
7
  6
BYLAYER
 10
36.046602079
 20
12.5414827793
 11
36.046602079
 21
10.5002267368
  0
LINE
  5
2B5
100
AcDbEntity
  8
0
100
AcDbLine
 62
7
  6
BYLAYER
 10
36.7635988481
 20
13.2052894694
 11
36.7635988481
 21
16.8795503465
  0
LINE
  5
2B6
100
AcDbEntity
  8
0
100
AcDbLine
 62
7
  6
BYLAYER
 10
36.925272903
 20
11.7249490001
 11
36.925272903
 21
17.4404659198
  0
LINE
  5
2B7
100
AcDbEntity
  8
0
100
AcDbLine
 62
7
  6
BYLAYER
 10
29.6826169066
 20
15.8890556063
 11
26.5057627563
 21
14.0549089558
  0
LINE
  5
2B8
100
AcDbEntity
  8
0
100
AcDbLine
 62
7
  6
BYLAYER
 10
21.9958440355
 20
45.1247181849
 11
22.0458442409
 21
45.1197660054
  0
LINE
  5
2B9
100
AcDbEntity
  8
0
100
AcDbLine
 62
7
  6
BYLAYER
 10
23.1065056593
 20
45.3238986643
 11
22.3993961584
 21
45.7321392907
  0
LINE
  5
2BA
100
AcDbEntity
  8
0
100
AcDbLine
 62
7
  6
BYLAYER
 10
19.5709872886
 20
47.5763216913
 11
19.5002769029
 21
47.6171475159
  0
LINE
  5
2BB
100
AcDbEntity
  8
0
100
AcDbLine
 62
7
  6
BYLAYER
 10
17.4496610614
 20
48.8348733458
 11
18.1567708243
 21
48.4266325695
  0
LINE
  5
2BC
100
AcDbEntity
  8
0
100
AcDbLine
 62
7
  6
BYLAYER
 10
18.2067699318
 20
48.43158538
 11
17.4996602064
 21
48.8398261346
  0
LINE
  5
2BD
100
AcDbEntity
  8
0
100
AcDbLine
 62
7
  6
BYLAYER
 10
18.3455551538
 20
48.3654687278
 11
19.1582562341
 21
47.896266155
  0
LINE
  5
2BE
100
AcDbEntity
  8
0
100
AcDbLine
 62
7
  6
BYLAYER
 10
18.3955549454
 20
48.3704211468
 11
19.550276106
 21
47.7037484265
  0
LINE
  5
2BF
100
AcDbEntity
  8
0
100
AcDbLine
 62
7
  6
BYLAYER
 10
36.7635988481
 20
16.8795503463
 11
36.925272903
 21
17.4404658617
  0
LINE
  5
2C0
100
AcDbEntity
  8
0
100
AcDbLine
 62
7
  6
BYLAYER
 10
28.9048144633
 20
13.8070172213
 11
27.9199822066
 21
13.2384274467
  0
LINE
  5
2C1
100
AcDbEntity
  8
0
100
AcDbLine
 62
7
  6
BYLAYER
 10
28.8709815429
 20
11.7462278493
 11
28.9048144633
 21
11.7657611784
  0
LINE
  5
2C2
100
AcDbEntity
  8
0
100
AcDbLine
 62
7
  6
BYLAYER
 10
30.4604676324
 20
11.2759177433
 11
31.874675308
 21
12.0924060517
  0
LINE
  5
2C3
100
AcDbEntity
  8
0
100
AcDbLine
 62
7
  6
BYLAYER
 10
18.2067699333
 20
48.4315853791
 11
18.1567707832
 21
48.4266325932
  0
LINE
  5
2C4
100
AcDbEntity
  8
0
100
AcDbLine
 62
7
  6
BYLAYER
 10
17.4496610578
 20
48.8348733479
 11
17.4996602064
 21
48.8398261346
  0
LINE
  5
2C5
100
AcDbEntity
  8
0
100
AcDbLine
 62
7
  6
BYLAYER
 10
23.4594576567
 20
50.3795511314
 11
22.6393720433
 21
50.8476797699
  0
LINE
  5
2C6
100
AcDbEntity
  8
0
100
AcDbLine
 62
7
  6
BYLAYER
 10
22.3999637585
 20
50.107104009
 11
23.1065054025
 21
49.6991912289
  0
LINE
  5
2C7
100
AcDbEntity
  8
0
100
AcDbLine
 62
7
  6
BYLAYER
 10
23.2479272413
 20
49.6991912902
 11
22.383504024
 21
50.1982558297
  0
LINE
  5
2C8
100
AcDbEntity
  8
0
100
AcDbLine
 62
7
  6
BYLAYER
 10
23.1979268587
 20
49.8913582399
 11
23.3186376239
 21
49.8216659453
  0
LINE
  5
2C9
100
AcDbEntity
  8
0
100
AcDbLine
 62
7
  6
BYLAYER
 10
22.4542143679
 20
50.3207305126
 11
22.4908171347
 21
50.2995989964
  0
LINE
  5
2CA
100
AcDbEntity
  8
0
100
AcDbLine
 62
7
  6
BYLAYER
 10
21.7629944625
 20
51.2435124447
 11
22.4701041876
 21
50.8352716903
  0
LINE
  5
2CB
100
AcDbEntity
  8
0
100
AcDbLine
 62
7
  6
BYLAYER
 10
22.5967567847
 20
50.7959716811
 11
23.4094578657
 21
50.3267691079
  0
LINE
  5
2CC
100
AcDbEntity
  8
0
100
AcDbLine
 62
7
  6
BYLAYER
 10
22.5408145854
 20
50.957746339
 11
21.8337048508
 21
51.365987099
  0
LINE
  5
2CD
100
AcDbEntity
  8
0
100
AcDbLine
 62
7
  6
BYLAYER
 10
22.5408086894
 20
51.7742312536
 11
23.2479183828
 21
51.3659905174
  0
LINE
  5
2CE
100
AcDbEntity
  8
0
100
AcDbLine
 62
7
  6
BYLAYER
 10
22.5908078361
 20
51.7791840415
 11
23.2979175585
 21
51.3709432885
  0
LINE
  5
2CF
100
AcDbEntity
  8
0
100
AcDbLine
 62
7
  6
BYLAYER
 10
36.046602079
 20
12.5414827793
 11
29.682667543
 21
8.8672853938
  0
LINE
  5
2D0
100
AcDbEntity
  8
0
100
AcDbLine
 62
7
  6
BYLAYER
 10
23.2979182009
 20
51.3709429177
 11
23.2479184098
 21
51.3659905018
  0
LINE
  5
2D1
100
AcDbEntity
  8
0
100
AcDbLine
 62
7
  6
BYLAYER
 10
22.5408086874
 20
51.7742312547
 11
22.5908078383
 21
51.7791840403
  0
LINE
  5
2D2
100
AcDbEntity
  8
0
100
AcDbLine
 62
7
  6
BYLAYER
 10
29.682667543
 20
6.8260293514
 11
36.046602079
 21
10.5002267368
  0
ARC
  5
2D3
100
AcDbEntity
  8
0
100
AcDbCircle
 62
7
  6
BYLAYER
 10
32.5739455431
 20
73.6543045532
 40
29.1351557126
100
AcDbArc
 50
242.6966399172
 51
243.1147703133
  0
ARC
  5
2D4
100
AcDbEntity
  8
0
100
AcDbCircle
 62
7
  6
BYLAYER
 10
28.7922394476
 20
66.1851530834
 40
20.7632012322
100
AcDbArc
 50
243.2090512082
 51
243.4153051776
  0
ARC
  5
2D5
100
AcDbEntity
  8
0
100
AcDbCircle
 62
7
  6
BYLAYER
 10
20.2560518239
 20
51.5896852015
 40
3.3969437475
100
AcDbArc
 50
330.0024157663
 51
338.174311416
  0
ARC
  5
2D6
100
AcDbEntity
  8
0
100
AcDbCircle
 62
7
  6
BYLAYER
 10
20.4307733615
 20
51.5680215659
 40
3.3748203751
100
AcDbArc
 50
328.8377256852
 51
337.3481288632
  0
ARC
  5
2D7
100
AcDbEntity
  8
0
100
AcDbCircle
 62
7
  6
BYLAYER
 10
34.6110825689
 20
16.9893932844
 40
2.1690477979
100
AcDbArc
 50
55.2311260968
 51
60.0784798068
  0
ARC
  5
2D8
100
AcDbEntity
  8
0
100
AcDbCircle
 62
7
  6
BYLAYER
 10
24.9637507747
 20
27.8413585833
 40
2.1425493981
100
AcDbArc
 50
137.3136783261
 51
140.1593995666
  0
ARC
  5
2D9
100
AcDbEntity
  8
0
100
AcDbCircle
 62
7
  6
BYLAYER
 10
24.9116621279
 20
27.888559947
 40
2.0722585727
100
AcDbArc
 50
134.5938776435
 51
137.2965728096
  0
ARC
  5
2DA
100
AcDbEntity
  8
0
100
AcDbCircle
 62
7
  6
BYLAYER
 10
24.8381228192
 20
27.9645961073
 40
1.9664831493
100
AcDbArc
 50
132.0394503495
 51
134.6234746364
  0
ARC
  5
2DB
100
AcDbEntity
  8
0
100
AcDbCircle
 62
7
  6
BYLAYER
 10
18.5937320292
 20
28.7294142027
 40
1.8883984681
100
AcDbArc
 50
289.5038285372
 51
290.2828738547
  0
ARC
  5
2DC
100
AcDbEntity
  8
0
100
AcDbCircle
 62
7
  6
BYLAYER
 10
18.0977578611
 20
28.3204673788
 40
1.4379185916
100
AcDbArc
 50
240.0072691691
 51
241.255204909
  0
ARC
  5
2DD
100
AcDbEntity
  8
0
100
AcDbCircle
 62
7
  6
BYLAYER
 10
22.6112023861
 20
50.2627814489
 40
1.2737650919
100
AcDbArc
 50
58.4159285466
 51
60.0086502014
  0
ARC
  5
2DE
100
AcDbEntity
  8
0
100
AcDbCircle
 62
7
  6
BYLAYER
 10
30.6725563912
 20
25.033855293
 40
1.0000000001
100
AcDbArc
 50
0.0015785332
 51
60.0005612404
  0
ARC
  5
2DF
100
AcDbEntity
  8
0
100
AcDbCircle
 62
7
  6
BYLAYER
 10
24.0596471793
 20
28.6183686341
 40
0.950716336
100
AcDbArc
 50
141.2077162197
 51
142.0847456816
  0
ARC
  5
2E0
100
AcDbEntity
  8
0
100
AcDbCircle
 62
7
  6
BYLAYER
 10
26.9754940816
 20
20.0938181853
 40
0.8991067819
100
AcDbArc
 50
179.9833773715
 51
182.2782258136
  0
ARC
  5
2E1
100
AcDbEntity
  8
0
100
AcDbCircle
 62
7
  6
BYLAYER
 10
16.8432671275
 20
47.9370063017
 40
0.8078190976
100
AcDbArc
 50
177.5018740207
 51
180.0203746018
  0
ARC
  5
2E2
100
AcDbEntity
  8
0
100
AcDbCircle
 62
7
  6
BYLAYER
 10
21.9344147131
 20
50.8763642189
 40
0.8078190555
100
AcDbArc
 50
177.5018744183
 51
180.0203743953
  0
ARC
  5
2E3
100
AcDbEntity
  8
0
100
AcDbCircle
 62
7
  6
BYLAYER
 10
20.167257846
 20
40.7507556893
 40
0.59627105
100
AcDbArc
 50
176.0143429869
 51
179.9263623348
  0
ARC
  5
2E4
100
AcDbEntity
  8
0
100
AcDbCircle
 62
7
  6
BYLAYER
 10
20.2927915676
 20
40.9714734058
 40
0.5946845337
100
AcDbArc
 50
120.0222209095
 51
123.9410508757
  0
ARC
  5
2E5
100
AcDbEntity
  8
0
100
AcDbCircle
 62
7
  6
BYLAYER
 10
19.4990952987
 20
26.4634176028
 40
0.5471508913
100
AcDbArc
 50
97.7204668446
 51
99.3007239334
  0
ARC
  5
2E6
100
AcDbEntity
  8
0
100
AcDbCircle
 62
7
  6
BYLAYER
 10
5.3969944474
 20
25.6644393134
 40
0.5
100
AcDbArc
 50
59.9920194629
 51
149.3509153172
  0
ARC
  5
2E7
100
AcDbEntity
  8
0
100
AcDbCircle
 62
7
  6
BYLAYER
 10
28.3709815431
 20
12.4007017452
 40
0.5
100
AcDbArc
 50
359.9912711192
 51
60.0004816527
  0
ARC
  5
2E8
100
AcDbEntity
  8
0
100
AcDbCircle
 62
7
  6
BYLAYER
 10
13.3165574239
 20
30.2367738367
 40
0.4999999998
100
AcDbArc
 50
101.17046062
 51
179.999062891
  0
ARC
  5
2E9
100
AcDbEntity
  8
0
100
AcDbCircle
 62
7
  6
BYLAYER
 10
26.6570325302
 20
21.1822671383
 40
0.4267862393
100
AcDbArc
 50
27.2905209879
 51
28.8351387909
  0
ARC
  5
2EA
100
AcDbEntity
  8
0
100
AcDbCircle
 62
7
  6
BYLAYER
 10
26.1315850286
 20
20.260634264
 40
0.4155116215
100
AcDbArc
 50
269.195693108
 51
271.1770099876
  0
ARC
  5
2EB
100
AcDbEntity
  8
0
100
AcDbCircle
 62
7
  6
BYLAYER
 10
5.2231771551
 20
25.7674752208
 40
0.2979425862
100
AcDbArc
 50
143.0190885695
 51
149.333733762
  0
ARC
  5
2EC
100
AcDbEntity
  8
0
100
AcDbCircle
 62
7
  6
BYLAYER
 10
23.2420536591
 20
50.1559970811
 40
0.2891206842
100
AcDbArc
 50
28.3523374171
 51
30.5293253056
  0
ARC
  5
2ED
100
AcDbEntity
  8
0
100
AcDbCircle
 62
7
  6
BYLAYER
 10
26.1817354418
 20
20.2780256009
 40
0.2549273716
100
AcDbArc
 50
247.2113678766
 51
249.0425295202
  0
ARC
  5
2EE
100
AcDbEntity
  8
0
100
AcDbCircle
 62
7
  6
BYLAYER
 10
19.4806289062
 20
26.7894644462
 40
0.2208840439
100
AcDbArc
 50
83.4674769847
 51
84.8967017242
  0
ARC
  5
2EF
100
AcDbEntity
  8
0
100
AcDbCircle
 62
7
  6
BYLAYER
 10
22.5671532389
 20
50.0936486921
 40
0.1690883004
100
AcDbArc
 50
150.4172016924
 51
159.3750874942
  0
ARC
  5
2F0
100
AcDbEntity
  8
0
100
AcDbCircle
 62
7
  6
BYLAYER
 10
19.4679350066
 20
47.6366109666
 40
0.1192632529
100
AcDbArc
 50
329.7335353003
 51
342.0865197353
  0
ARC
  5
2F1
100
AcDbEntity
  8
0
100
AcDbCircle
 62
7
  6
BYLAYER
 10
19.4724739244
 20
47.6349842173
 40
0.1144441168
100
AcDbArc
 50
342.162520193
 51
352.1464115904
  0
ARC
  5
2F2
100
AcDbEntity
  8
0
100
AcDbCircle
 62
7
  6
BYLAYER
 10
18.3455551533
 20
48.2838184855
 40
0.1000000008
100
AcDbArc
 50
60.0020743757
 51
82.0486966132
  0
ARC
  5
2F3
100
AcDbEntity
  8
0
100
AcDbCircle
 62
7
  6
BYLAYER
 10
19.5002763139
 20
47.6171457664
 40
0.1000000002
100
AcDbArc
 50
0.00905622
 51
60.0005852568
  0
ARC
  5
2F4
100
AcDbEntity
  8
0
100
AcDbCircle
 62
7
  6
BYLAYER
 10
22.4701065429
 20
50.1482561209
 40
0.1000000003
100
AcDbArc
 50
150.0001366366
 51
179.9891187719
  0
ARC
  5
2F5
100
AcDbEntity
  8
0
100
AcDbCircle
 62
7
  6
BYLAYER
 10
18.3786007461
 20
48.3409736628
 40
0.0339793937
100
AcDbArc
 50
60.0690912321
 51
72.6218168452
  0
SPLINE
  5
2F6
100
AcDbEntity
  8
0
100
AcDbSpline
 62
7
  6
BYLAYER
 70
0
 71
3
 72
14
 73
10
 74
0
 42
0.0000001
 43
0.0000001
 44
0.0000000001
 40
0.0
 40
0.0
 40
0.0
 40
0.0
 40
0.1485935507
 40
0.2896325823
 40
0.548444204
 40
0.667848121
 40
0.7818428013
 40
0.8919403448
 40
1.0
 40
1.0
 40
1.0
 40
1.0
 10
5.6409545523
 20
18.2567602803
 30
0.0
 10
5.5733201138
 20
18.2958081581
 30
0.0
 10
5.444526042
 20
18.3774806796
 30
0.0
 10
5.2163943568
 20
18.5539699295
 30
0.0
 10
5.0262753465
 20
18.7540181307
 30
0.0
 10
4.8888534679
 20
18.9740739515
 30
0.0
 10
4.8161451012
 20
19.1401098009
 30
0.0
 10
4.7721557904
 20
19.3098131461
 30
0.0
 10
4.762271187
 20
19.4246992701
 30
0.0
 10
4.7622711856
 20
19.4814927418
 30
0.0
  0
SPLINE
  5
2F7
100
AcDbEntity
  8
0
100
AcDbSpline
 62
7
  6
BYLAYER
 70
0
 71
3
 72
17
 73
13
 74
0
 42
0.0000001
 43
0.0000001
 44
0.0000000001
 40
0.0
 40
0.0
 40
0.0
 40
0.0
 40
0.0558318892
 40
0.114220514
 40
0.2373710272
 40
0.3669983383
 40
0.4999994972
 40
0.6330007256
 40
0.7626282418
 40
0.8857790746
 40
0.9441678938
 40
1.0
 40
1.0
 40
1.0
 40
1.0
 10
29.6826675433
 20
6.8260293515
 30
0.0
 10
29.6116292431
 20
6.7850156146
 30
0.0
 10
29.4625870046
 20
6.7074109632
 30
0.0
 10
29.1415586452
 20
6.5704876538
 30
0.0
 10
28.7026960366
 20
6.4371233785
 30
0.0
 10
28.1429438398
 20
6.3404030505
 30
0.0
 10
27.5613507018
 20
6.3077527411
 30
0.0
 10
26.9797571102
 20
6.3404003046
 30
0.0
 10
26.4200035756
 20
6.4371179873
 30
0.0
 10
25.9811392322
 20
6.5704801384
 30
0.0
 10
25.6601090293
 20
6.7074018555
 30
0.0
 10
25.5110657286
 20
6.7850057695
 30
0.0
 10
25.4400268565
 20
6.8260191536
 30
0.0
  0
SPLINE
  5
2F8
100
AcDbEntity
  8
0
100
AcDbSpline
 62
7
  6
BYLAYER
 70
0
 71
3
 72
15
 73
11
 74
0
 42
0.0000001
 43
0.0000001
 44
0.0000000001
 40
0.0
 40
0.0
 40
0.0
 40
0.0
 40
0.1210906558
 40
0.2481156392
 40
0.3788325188
 40
0.5106947811
 40
0.6411118962
 40
0.7675532619
 40
0.8878290433
 40
1.0
 40
1.0
 40
1.0
 40
1.0
 10
31.5635055296
 20
11.9137981024
 30
0.0
 10
31.460420991
 20
11.9539324258
 30
0.0
 10
31.2437423604
 20
12.0225899373
 30
0.0
 10
30.903696445
 20
12.0900998335
 30
0.0
 10
30.5487177059
 20
12.123346976
 30
0.0
 10
30.1891202873
 20
12.1212910355
 30
0.0
 10
29.8353690816
 20
12.0839962772
 30
0.0
 10
29.4976267412
 20
12.0125924847
 30
0.0
 10
29.1858043558
 20
11.909059311
 30
0.0
 10
28.9935590459
 20
11.8169975812
 30
0.0
 10
28.9048144628
 20
11.7657611781
 30
0.0
  0
SPLINE
  5
2F9
100
AcDbEntity
  8
0
100
AcDbSpline
 62
7
  6
BYLAYER
 70
0
 71
3
 72
15
 73
11
 74
0
 42
0.0000001
 43
0.0000001
 44
0.0000000001
 40
0.0
 40
0.0
 40
0.0
 40
0.0
 40
0.1125193704
 40
0.233481027
 40
0.3606251513
 40
0.491614421
 40
0.6237620248
 40
0.7542718653
 40
0.8804733725
 40
1.0
 40
1.0
 40
1.0
 40
1.0
 10
26.0763873375
 20
20.0940790338
 30
0.0
 10
26.0763873375
 20
20.1445415929
 30
0.0
 10
26.084776073
 20
20.2493364389
 30
0.0
 10
26.1183856233
 20
20.4079081648
 30
0.0
 10
26.1726680515
 20
20.5694011524
 30
0.0
 10
26.2458505699
 20
20.7287418495
 30
0.0
 10
26.3356296981
 20
20.8811051496
 30
0.0
 10
26.4393174244
 20
21.0217338496
 30
0.0
 10
26.5536468938
 20
21.1462689973
 30
0.0
 10
26.6374005166
 20
21.218427372
 30
0.0
 10
26.6803332368
 20
21.2505255859
 30
0.0
  0
SPLINE
  5
2FA
100
AcDbEntity
  8
0
100
AcDbSpline
 62
7
  6
BYLAYER
 70
0
 71
3
 72
14
 73
10
 74
0
 42
0.0000001
 43
0.0000001
 44
0.0000000001
 40
0.0
 40
0.0
 40
0.0
 40
0.0
 40
0.2966707642
 40
0.4322258931
 40
0.5590637184
 40
0.6777657379
 40
0.7894971332
 40
0.8961162385
 40
1.0
 40
1.0
 40
1.0
 40
1.0
 10
26.6803332368
 20
21.2505255859
 30
0.0
 10
26.7317472725
 20
21.2889647696
 30
0.0
 10
26.8116705708
 20
21.3391009835
 30
0.0
 10
26.9236739444
 20
21.385425857
 30
0.0
 10
27.0034634198
 20
21.4072283161
 30
0.0
 10
27.0804745406
 20
21.4168350403
 30
0.0
 10
27.1537193005
 20
21.4138718634
 30
0.0
 10
27.2221185795
 20
21.3983853991
 30
0.0
 10
27.2640093107
 20
21.3795823078
 30
0.0
 10
27.283472154
 20
21.3683353729
 30
0.0
  0
SPLINE
  5
2FB
100
AcDbEntity
  8
0
100
AcDbSpline
 62
7
  6
BYLAYER
 70
0
 71
3
 72
12
 73
8
 74
0
 42
0.0000001
 43
0.0000001
 44
0.0000000001
 40
0.0
 40
0.0
 40
0.0
 40
0.0
 40
0.1113521671
 40
0.228124476
 40
0.474877238
 40
0.7345328568
 40
1.0
 40
1.0
 40
1.0
 40
1.0
 10
30.4604676329
 20
11.2759177436
 30
0.0
 10
30.4075062489
 20
11.2453406569
 30
0.0
 10
30.2960476307
 20
11.1877157002
 30
0.0
 10
30.055224257
 20
11.087038623
 30
0.0
 10
29.7252801239
 20
10.9914325892
 30
0.0
 10
29.3052842387
 20
10.9270651374
 30
0.0
 10
29.0161913864
 20
10.9181207624
 30
0.0
 10
28.8704580062
 20
10.9223303946
 30
0.0
  0
SPLINE
  5
2FC
100
AcDbEntity
  8
0
100
AcDbSpline
 62
7
  6
BYLAYER
 70
0
 71
3
 72
12
 73
8
 74
0
 42
0.0000001
 43
0.0000001
 44
0.0000000001
 40
0.0
 40
0.0
 40
0.0
 40
0.0
 40
0.1094630496
 40
0.2207468762
 40
0.4547380862
 40
0.7129924927
 40
1.0
 40
1.0
 40
1.0
 40
1.0
 10
26.2835101955
 20
19.6363110025
 30
0.0
 10
26.2680547826
 20
19.6452421755
 30
0.0
 10
26.2382878484
 20
19.6658091142
 30
0.0
 10
26.1844620918
 20
19.7171969053
 30
0.0
 10
26.1299912315
 20
19.8009099339
 30
0.0
 10
26.0895193863
 20
19.9224364738
 30
0.0
 10
26.0789631646
 20
20.0113111015
 30
0.0
 10
26.0770979768
 20
20.0580768345
 30
0.0
  0
SPLINE
  5
2FD
100
AcDbEntity
  8
0
100
AcDbSpline
 62
7
  6
BYLAYER
 70
0
 71
3
 72
15
 73
11
 74
0
 42
0.0000001
 43
0.0000001
 44
0.0000000001
 40
0.0
 40
0.0
 40
0.0
 40
0.0
 40
0.1105598261
 40
0.233409696
 40
0.3645951859
 40
0.4999899808
 40
0.6353866811
 40
0.7665772662
 40
0.8894330134
 40
1.0
 40
1.0
 40
1.0
 40
1.0
 10
19.9745383926
 20
41.4405913705
 30
0.0
 10
19.9497488205
 20
41.4262791901
 30
0.0
 10
19.9001381294
 20
41.3912610982
 30
0.0
 10
19.8311342583
 20
41.3264980638
 30
0.0
 10
19.7665391592
 20
41.2487633968
 30
0.0
 10
19.709469851
 20
41.1614742327
 30
0.0
 10
19.6624090444
 20
41.0684052015
 30
0.0
 10
19.6273836923
 20
40.9735942374
 30
0.0
 10
19.6057989136
 20
40.8814488727
 30
0.0
 10
19.6002763153
 20
40.8209724444
 30
0.0
 10
19.6002763154
 20
40.792346101
 30
0.0
  0
SPLINE
  5
2FE
100
AcDbEntity
  8
0
100
AcDbSpline
 62
7
  6
BYLAYER
 70
0
 71
3
 72
9
 73
5
 74
0
 42
0.0000001
 43
0.0000001
 44
0.0000000001
 40
0.0
 40
0.0
 40
0.0
 40
0.0
 40
0.516879188
 40
1.0
 40
1.0
 40
1.0
 40
1.0
 10
12.8142195669
 20
26.7545571722
 30
0.0
 10
12.6687713941
 20
26.7137281617
 30
0.0
 10
12.3913090559
 20
26.619686209
 30
0.0
 10
12.1271573661
 20
26.4922698335
 30
0.0
 10
12.0048714236
 20
26.4216684331
 30
0.0
  0
SPLINE
  5
2FF
100
AcDbEntity
  8
0
100
AcDbSpline
 62
7
  6
BYLAYER
 70
0
 71
3
 72
11
 73
7
 74
0
 42
0.0000001
 43
0.0000001
 44
0.0000000001
 40
0.0
 40
0.0
 40
0.0
 40
0.0
 40
0.3414632438
 40
0.6158677481
 40
0.8294974681
 40
1.0
 40
1.0
 40
1.0
 40
1.0
 10
19.6002763159
 20
29.3613122597
 30
0.0
 10
19.6002763158
 20
29.3373519398
 30
0.0
 10
19.6035370498
 20
29.2940025467
 30
0.0
 10
19.6196380825
 20
29.2374759032
 30
0.0
 10
19.6436241596
 20
29.1974173528
 30
0.0
 10
19.6639415378
 20
29.1787574945
 30
0.0
 10
19.6743017299
 20
29.1727737042
 30
0.0
  0
SPLINE
  5
300
100
AcDbEntity
  8
0
100
AcDbSpline
 62
7
  6
BYLAYER
 70
0
 71
3
 72
15
 73
11
 74
0
 42
0.0000001
 43
0.0000001
 44
0.0000000001
 40
0.0
 40
0.0
 40
0.0
 40
0.0
 40
0.1105598232
 40
0.2334096918
 40
0.3645951815
 40
0.4999899771
 40
0.6353866786
 40
0.766577265
 40
0.8894330131
 40
1.0
 40
1.0
 40
1.0
 40
1.0
 10
21.9958444702
 20
31.2441773527
 30
0.0
 10
22.0206340409
 20
31.2584895317
 30
0.0
 10
22.0702447297
 20
31.2935076206
 30
0.0
 10
22.1392485979
 20
31.3582706507
 30
0.0
 10
22.203843695
 20
31.4360053136
 30
0.0
 10
22.2609130018
 20
31.5232944739
 30
0.0
 10
22.3079738078
 20
31.6163635014
 30
0.0
 10
22.3429991599
 20
31.7111744619
 30
0.0
 10
22.3645839389
 20
31.8033198232
 30
0.0
 10
22.3701065378
 20
31.8637962492
 30
0.0
 10
22.370106538
 20
31.8924225914
 30
0.0
  0
SPLINE
  5
301
100
AcDbEntity
  8
0
100
AcDbSpline
 62
7
  6
BYLAYER
 70
0
 71
3
 72
11
 73
7
 74
0
 42
0.0000001
 43
0.0000001
 44
0.0000000001
 40
0.0
 40
0.0
 40
0.0
 40
0.0
 40
0.1704129969
 40
0.3841105036
 40
0.6585581885
 40
1.0
 40
1.0
 40
1.0
 40
1.0
 10
23.0031908527
 20
43.1037542548
 30
0.0
 10
22.9928390516
 20
43.1097331986
 30
0.0
 10
22.9665232722
 20
43.1179867375
 30
0.0
 10
22.9198524821
 20
43.1186998401
 30
0.0
 10
22.8628562466
 20
43.1043992639
 30
0.0
 10
22.823696806
 20
43.085543929
 30
0.0
 10
22.8029537442
 20
43.0735679881
 30
0.0
  0
SPLINE
  5
302
100
AcDbEntity
  8
0
100
AcDbSpline
 62
7
  6
BYLAYER
 70
0
 71
3
 72
13
 73
9
 74
0
 42
0.0000001
 43
0.0000001
 44
0.0000000001
 40
0.0
 40
0.0
 40
0.0
 40
0.0
 40
0.2737664062
 40
0.5280118776
 40
0.6491573931
 40
0.7673419822
 40
0.8838122978
 40
1.0
 40
1.0
 40
1.0
 40
1.0
 10
22.5908078432
 20
51.7791840491
 30
0.0
 10
22.5451744537
 20
51.8055299011
 30
0.0
 10
22.4527002389
 20
51.8492547307
 30
0.0
 10
22.32973067
 20
51.8778493658
 30
0.0
 10
22.2344821078
 20
51.8805092205
 30
0.0
 10
22.1662055796
 20
51.872442043
 30
0.0
 10
22.1009373954
 20
51.8540742521
 30
0.0
 10
22.0601778571
 20
51.8349369709
 30
0.0
 10
22.040810921
 20
51.8237555318
 30
0.0
  0
SPLINE
  5
303
100
AcDbEntity
  8
0
100
AcDbSpline
 62
7
  6
BYLAYER
 70
0
 71
3
 72
13
 73
9
 74
0
 42
0.0000001
 43
0.0000001
 44
0.0000000001
 40
0.0
 40
0.0
 40
0.0
 40
0.0
 40
0.2737671923
 40
0.5280128847
 40
0.6491582774
 40
0.7673426286
 40
0.8838126339
 40
1.0
 40
1.0
 40
1.0
 40
1.0
 10
21.0973060834
 20
50.9169013604
 30
0.0
 10
21.0973060849
 20
50.9695954036
 30
0.0
 10
21.1056756346
 20
51.0715456148
 30
0.0
 10
21.1423967184
 20
51.1923411512
 30
0.0
 10
21.1877181468
 20
51.2761610365
 30
0.0
 10
21.2288435597
 20
51.3312580344
 30
0.0
 10
21.2773856936
 20
51.3785990999
 30
0.0
 10
21.314339731
 20
51.4043296984
 30
0.0
 10
21.3337070858
 20
51.4155113791
 30
0.0
  0
SPLINE
  5
304
100
AcDbEntity
  8
0
100
AcDbSpline
 62
7
  6
BYLAYER
 70
0
 71
3
 72
11
 73
7
 74
0
 42
0.0000001
 43
0.0000001
 44
0.0000000001
 40
0.0
 40
0.0
 40
0.0
 40
0.0
 40
0.2633642025
 40
0.5214511061
 40
0.7685844018
 40
1.0
 40
1.0
 40
1.0
 40
1.0
 10
21.3189282004
 20
30.851859152
 30
0.0
 10
21.2842712331
 20
30.9084557267
 30
0.0
 10
21.2223198419
 20
31.0247531298
 30
0.0
 10
21.1523423553
 20
31.2058718767
 30
0.0
 10
21.1083684888
 20
31.3867657646
 30
0.0
 10
21.0973060876
 20
31.507480026
 30
0.0
 10
21.0973060865
 20
31.5657940794
 30
0.0
  0
SPLINE
  5
305
100
AcDbEntity
  8
0
100
AcDbSpline
 62
7
  6
BYLAYER
 70
0
 71
3
 72
12
 73
8
 74
0
 42
0.0000001
 43
0.0000001
 44
0.0000000001
 40
0.0
 40
0.0
 40
0.0
 40
0.0
 40
0.2786905141
 40
0.5341485774
 40
0.7715325915
 40
0.8862526593
 40
1.0
 40
1.0
 40
1.0
 40
1.0
 10
23.2979175582
 20
51.3709432766
 30
0.0
 10
23.3654653381
 20
51.3319454323
 30
0.0
 10
23.4892705071
 20
51.2463236268
 30
0.0
 10
23.6386746309
 20
51.0878794998
 30
0.0
 10
23.7200759269
 20
50.9354979833
 30
0.0
 10
23.7525232066
 20
50.8087057048
 30
0.0
 10
23.7579730345
 20
50.7446329015
 30
0.0
 10
23.7579730362
 20
50.7127984735
 30
0.0
  0
SPLINE
  5
306
100
AcDbEntity
  8
0
100
AcDbSpline
 62
7
  6
BYLAYER
 70
0
 71
3
 72
11
 73
7
 74
0
 42
0.0000001
 43
0.0000001
 44
0.0000000001
 40
0.0
 40
0.0
 40
0.0
 40
0.0
 40
0.2370856653
 40
0.4795104597
 40
0.7325057156
 40
1.0
 40
1.0
 40
1.0
 40
1.0
 10
23.7579227769
 20
29.8918275646
 30
0.0
 10
23.7579019765
 20
29.8455269946
 30
0.0
 10
23.7462800245
 20
29.7514982322
 30
0.0
 10
23.6950464615
 20
29.6166636397
 30
0.0
 10
23.6133363533
 20
29.4909264803
 30
0.0
 10
23.5428280191
 20
29.416924318
 30
0.0
 10
23.5040348683
 20
29.381938409
 30
0.0
  0
SPLINE
  5
307
100
AcDbEntity
  8
0
100
AcDbSpline
 62
7
  6
BYLAYER
 70
0
 71
3
 72
15
 73
11
 74
0
 42
0.0000001
 43
0.0000001
 44
0.0000000001
 40
0.0
 40
0.0
 40
0.0
 40
0.0
 40
0.1158405343
 40
0.2392662502
 40
0.3681356649
 40
0.5000020146
 40
0.6318681266
 40
0.7607367387
 40
0.8841596784
 40
1.0
 40
1.0
 40
1.0
 40
1.0
 10
16.6925580591
 20
27.437564276
 30
0.0
 10
16.6448488332
 20
27.465108589
 30
0.0
 10
16.5511472139
 20
27.5306093198
 30
0.0
 10
16.4227725713
 20
27.6503255834
 30
0.0
 10
16.3054322111
 20
27.7909353144
 30
0.0
 10
16.202877255
 20
27.947431986
 30
0.0
 10
16.1186249016
 20
28.114495231
 30
0.0
 10
16.0555240482
 20
28.2864180539
 30
0.0
 10
16.0160332212
 20
28.4574498357
 30
0.0
 10
16.0061584596
 20
28.5713467145
 30
0.0
 10
16.0061584586
 20
28.6264361715
 30
0.0
  0
SPLINE
  5
308
100
AcDbEntity
  8
0
100
AcDbSpline
 62
7
  6
BYLAYER
 70
0
 71
3
 72
13
 73
9
 74
0
 42
0.0000001
 43
0.0000001
 44
0.0000000001
 40
0.0
 40
0.0
 40
0.0
 40
0.0
 40
0.2737671925
 40
0.5280128849
 40
0.6491582776
 40
0.7673426287
 40
0.883812634
 40
1.0
 40
1.0
 40
1.0
 40
1.0
 10
16.0061584556
 20
47.9775434496
 30
0.0
 10
16.006158457
 20
48.0302374931
 30
0.0
 10
16.0145280063
 20
48.1321877048
 30
0.0
 10
16.0512490899
 20
48.252983242
 30
0.0
 10
16.0965705184
 20
48.3368031278
 30
0.0
 10
16.1376959314
 20
48.3919001261
 30
0.0
 10
16.1862380654
 20
48.4392411918
 30
0.0
 10
16.223192103
 20
48.4649717905
 30
0.0
 10
16.2425594578
 20
48.4761534712
 30
0.0
  0
SPLINE
  5
309
100
AcDbEntity
  8
0
100
AcDbSpline
 62
7
  6
BYLAYER
 70
0
 71
3
 72
13
 73
9
 74
0
 42
0.0000001
 43
0.0000001
 44
0.0000000001
 40
0.0
 40
0.0
 40
0.0
 40
0.0
 40
0.2737664061
 40
0.5280118775
 40
0.649157393
 40
0.7673419821
 40
0.8838122978
 40
1.0
 40
1.0
 40
1.0
 40
1.0
 10
17.4996602134
 20
48.8398261423
 30
0.0
 10
17.4540268241
 20
48.8661719941
 30
0.0
 10
17.3615526095
 20
48.9098968233
 30
0.0
 10
17.238583041
 20
48.938491458
 30
0.0
 10
17.1433344792
 20
48.9411513126
 30
0.0
 10
17.0750579512
 20
48.933084135
 30
0.0
 10
17.0097897673
 20
48.9147163442
 30
0.0
 10
16.9690302291
 20
48.895579063
 30
0.0
 10
16.949663293
 20
48.8843976239
 30
0.0
  0
SPLINE
  5
30A
100
AcDbEntity
  8
0
100
AcDbSpline
 62
7
  6
BYLAYER
 70
0
 71
3
 72
15
 73
11
 74
0
 42
0.0000001
 43
0.0000001
 44
0.0000000001
 40
0.0
 40
0.0
 40
0.0
 40
0.0
 40
0.1133605775
 40
0.2337945486
 40
0.3597207237
 40
0.4893437625
 40
0.6204421752
 40
0.7506833842
 40
0.8779178275
 40
1.0
 40
1.0
 40
1.0
 40
1.0
 10
17.3996677867
 20
27.0293235348
 30
0.0
 10
17.461361551
 20
26.9937054284
 30
0.0
 10
17.5942108535
 20
26.9297288088
 30
0.0
 10
17.8088964657
 20
26.8574529399
 30
0.0
 10
18.0402325381
 20
26.8072204175
 30
0.0
 10
18.2820896661
 20
26.7800842307
 30
0.0
 10
18.5281408413
 20
26.7767424193
 30
0.0
 10
18.7718728475
 20
26.7972127767
 30
0.0
 10
19.0067303602
 20
26.8410731918
 30
0.0
 10
19.1571470033
 20
26.8863392127
 30
0.0
 10
19.2291073515
 20
26.912936016
 30
0.0
  0
SPLINE
  5
30B
100
AcDbEntity
  8
0
100
AcDbSpline
 62
7
  6
BYLAYER
 70
0
 71
3
 72
9
 73
5
 74
0
 42
0.0000001
 43
0.0000001
 44
0.0000000001
 40
0.0
 40
0.0
 40
0.0
 40
0.0
 40
0.5365653453
 40
1.0
 40
1.0
 40
1.0
 40
1.0
 10
18.3593882902
 20
48.3828570884
 30
0.0
 10
18.3308844879
 20
48.3868383352
 30
0.0
 10
18.2782334733
 20
48.3983415873
 30
0.0
 10
18.2282976162
 20
48.4191566472
 30
0.0
 10
18.2067699342
 20
48.4315853802
 30
0.0
  0
SPLINE
  5
30C
100
AcDbEntity
  8
0
100
AcDbSpline
 62
7
  6
BYLAYER
 70
0
 71
3
 72
11
 73
7
 74
0
 42
0.0000001
 43
0.0000001
 44
0.0000000001
 40
0.0
 40
0.0
 40
0.0
 40
0.0
 40
0.341463244
 40
0.6158677483
 40
0.8294974683
 40
1.0
 40
1.0
 40
1.0
 40
1.0
 10
19.6002763159
 20
43.2418533518
 30
0.0
 10
19.6002763157
 20
43.2178930318
 30
0.0
 10
19.6035370497
 20
43.1745436385
 30
0.0
 10
19.6196380824
 20
43.1180169947
 30
0.0
 10
19.6436241595
 20
43.0779584441
 30
0.0
 10
19.6639415378
 20
43.0592985857
 30
0.0
 10
19.6743017299
 20
43.0533147954
 30
0.0
  0
SPLINE
  5
30D
100
AcDbEntity
  8
0
100
AcDbSpline
 62
7
  6
BYLAYER
 70
0
 71
3
 72
15
 73
11
 74
0
 42
0.0000001
 43
0.0000001
 44
0.0000000001
 40
0.0
 40
0.0
 40
0.0
 40
0.0
 40
0.110559823
 40
0.2334096914
 40
0.3645951811
 40
0.4999899767
 40
0.6353866783
 40
0.7665772648
 40
0.889433013
 40
1.0
 40
1.0
 40
1.0
 40
1.0
 10
21.9958444685
 20
45.1247184429
 30
0.0
 10
22.0206340393
 20
45.1390306218
 30
0.0
 10
22.0702447282
 20
45.1740487106
 30
0.0
 10
22.1392485966
 20
45.2388117406
 30
0.0
 10
22.203843694
 20
45.3165464035
 30
0.0
 10
22.2609130012
 20
45.403835564
 30
0.0
 10
22.3079738075
 20
45.4969045917
 30
0.0
 10
22.3429991597
 20
45.5917155525
 30
0.0
 10
22.3645839389
 20
45.6838609141
 30
0.0
 10
22.3701065378
 20
45.7443373403
 30
0.0
 10
22.370106538
 20
45.7729636826
 30
0.0
  0
SPLINE
  5
30E
100
AcDbEntity
  8
0
100
AcDbSpline
 62
7
  6
BYLAYER
 70
0
 71
3
 72
11
 73
7
 74
0
 42
0.0000001
 43
0.0000001
 44
0.0000000001
 40
0.0
 40
0.0
 40
0.0
 40
0.0
 40
0.2644552193
 40
0.5289830763
 40
0.7788819296
 40
1.0
 40
1.0
 40
1.0
 40
1.0
 10
23.3258660376
 20
29.192161965
 30
0.0
 10
23.2966745918
 20
29.1558470419
 30
0.0
 10
23.2439793894
 20
29.0784683092
 30
0.0
 10
23.1839977572
 20
28.9544878294
 30
0.0
 10
23.1459237703
 20
28.8300818513
 30
0.0
 10
23.1357955022
 20
28.7470327641
 30
0.0
 10
23.1357955031
 20
28.7080750543
 30
0.0
  0
SPLINE
  5
30F
100
AcDbEntity
  8
0
100
AcDbSpline
 62
7
  6
BYLAYER
 70
0
 71
3
 72
14
 73
10
 74
0
 42
0.0000001
 43
0.0000001
 44
0.0000000001
 40
0.0
 40
0.0
 40
0.0
 40
0.0
 40
0.1159163775
 40
0.236154521
 40
0.3600284253
 40
0.4868136695
 40
0.7444484291
 40
0.8731680347
 40
1.0
 40
1.0
 40
1.0
 40
1.0
 10
16.0240311254
 20
30.3903635438
 30
0.0
 10
15.9254086244
 20
30.4413550086
 30
0.0
 10
15.7187360107
 20
30.5343982792
 30
0.0
 10
15.3917788052
 20
30.6453781073
 30
0.0
 10
15.0462000581
 20
30.7296496241
 30
0.0
 10
14.5649523646
 20
30.8058188687
 30
0.0
 10
14.0714799422
 20
30.825306113
 30
0.0
 10
13.581012218
 20
30.7883204094
 30
0.0
 10
13.3387935382
 20
30.7508389344
 30
0.0
 10
13.2196186656
 20
30.7272867236
 30
0.0
  0
SPLINE
  5
310
100
AcDbEntity
  8
0
100
AcDbSpline
 62
7
  6
BYLAYER
 70
0
 71
3
 72
11
 73
7
 74
0
 42
0.0000001
 43
0.0000001
 44
0.0000000001
 40
0.0
 40
0.0
 40
0.0
 40
0.0
 40
0.2525332411
 40
0.5027348842
 40
0.7515862516
 40
1.0
 40
1.0
 40
1.0
 40
1.0
 10
4.9669034221
 20
25.9194328902
 30
0.0
 10
4.9343020005
 20
25.8644449241
 30
0.0
 10
4.8758416231
 20
25.7509716184
 30
0.0
 10
4.811055822
 20
25.5715107684
 30
0.0
 10
4.7711989387
 20
25.3859518594
 30
0.0
 10
4.7622660631
 20
25.2598929008
 30
0.0
 10
4.7622660602
 20
25.1970097385
 30
0.0
  0
SPLINE
  5
311
100
AcDbEntity
  8
0
100
AcDbSpline
 62
7
  6
BYLAYER
 70
0
 71
3
 72
22
 73
18
 74
0
 42
0.0000001
 43
0.0000001
 44
0.0000000001
 40
0.0
 40
0.0
 40
0.0
 40
0.0
 40
0.0021391091
 40
0.0042751604
 40
0.0072350065
 40
0.0116398802
 40
0.0253708206
 40
0.0466870263
 40
0.0766729146
 40
0.1163449001
 40
0.1668706344
 40
0.2295281901
 40
0.3048813153
 40
0.392461391
 40
0.491801793
 40
0.7242694364
 40
1.0
 40
1.0
 40
1.0
 40
1.0
 10
23.5914751671
 20
15.807473668
 30
0.0
 10
23.5914751671
 20
15.8076638796
 30
0.0
 10
23.5913814572
 20
15.8083865704
 30
0.0
 10
23.5913899295
 20
15.8072641414
 30
0.0
 10
23.5915379048
 20
15.8066216937
 30
0.0
 10
23.5919335048
 20
15.8046646703
 30
0.0
 10
23.5929771909
 20
15.8014101753
 30
0.0
 10
23.5950479316
 20
15.7959532244
 30
0.0
 10
23.5984888622
 20
15.7886465816
 30
0.0
 10
23.6037622342
 20
15.7793302792
 30
0.0
 10
23.6113115795
 20
15.7680177201
 30
0.0
 10
23.6215414228
 20
15.7547200049
 30
0.0
 10
23.634716624
 20
15.7395793144
 30
0.0
 10
23.6509991972
 20
15.7228658314
 30
0.0
 10
23.6784636464
 20
15.6976112661
 30
0.0
 10
23.7213221589
 20
15.6645516374
 30
0.0
 10
23.7595816404
 20
15.6403815001
 30
0.0
 10
23.7808151636
 20
15.6281225973
 30
0.0
  0
SPLINE
  5
312
100
AcDbEntity
  8
0
100
AcDbSpline
 62
7
  6
BYLAYER
 70
0
 71
3
 72
14
 73
10
 74
0
 42
0.0000001
 43
0.0000001
 44
0.0000000001
 40
0.0
 40
0.0
 40
0.0
 40
0.0
 40
0.1080599057
 40
0.2181576606
 40
0.3321524822
 40
0.4515564544
 40
0.710367899
 40
0.8514067111
 40
1.0
 40
1.0
 40
1.0
 40
1.0
 10
36.9252677814
 20
11.7249490001
 30
0.0
 10
36.9252677828
 20
11.6681561296
 30
0.0
 10
36.9153833891
 20
11.5532712497
 30
0.0
 10
36.8713950223
 20
11.3835696837
 30
0.0
 10
36.7986881944
 20
11.2175354918
 30
0.0
 10
36.6612692322
 20
10.9974817982
 30
0.0
 10
36.471154111
 20
10.7974351066
 30
0.0
 10
36.2430268582
 20
10.6209467744
 30
0.0
 10
36.1142352436
 20
10.5392745296
 30
0.0
 10
36.0466020787
 20
10.5002267367
 30
0.0
  0
SPLINE
  5
313
100
AcDbEntity
  8
0
100
AcDbSpline
 62
7
  6
BYLAYER
 70
0
 71
3
 72
13
 73
9
 74
0
 42
0.0000001
 43
0.0000001
 44
0.0000000001
 40
0.0
 40
0.0
 40
0.0
 40
0.0
 40
0.1196202119
 40
0.2391109792
 40
0.3597327643
 40
0.4820155833
 40
0.7336260194
 40
1.0
 40
1.0
 40
1.0
 40
1.0
 10
36.9252729068
 20
17.4404659192
 30
0.0
 10
36.925272906
 20
17.5136858574
 30
0.0
 10
36.9131589729
 20
17.6603301165
 30
0.0
 10
36.8594423348
 20
17.8747915929
 30
0.0
 10
36.7724962092
 20
18.079788996
 30
0.0
 10
36.6152671581
 20
18.3395056988
 30
0.0
 10
36.3461805144
 20
18.6301683835
 30
0.0
 10
36.0842331294
 20
18.8125686331
 30
0.0
 10
35.9430282587
 20
18.8940914605
 30
0.0
  0
SPLINE
  5
314
100
AcDbEntity
  8
0
100
AcDbSpline
 62
7
  6
BYLAYER
 70
0
 71
3
 72
15
 73
11
 74
0
 42
0.0000001
 43
0.0000001
 44
0.0000000001
 40
0.0
 40
0.0
 40
0.0
 40
0.0
 40
0.1080104539
 40
0.2180640309
 40
0.3319995658
 40
0.4513356273
 40
0.5772425727
 40
0.7105237624
 40
0.8515187675
 40
1.0
 40
1.0
 40
1.0
 40
1.0
 10
32.4897294484
 20
12.9497116361
 30
0.0
 10
32.4897294489
 20
12.9099571506
 30
0.0
 10
32.482846322
 20
12.8295317717
 30
0.0
 10
32.4519931019
 20
12.7107555908
 30
0.0
 10
32.4011513524
 20
12.594529703
 30
0.0
 10
32.3308956369
 20
12.4820450514
 30
0.0
 10
32.2420098184
 20
12.3742986225
 30
0.0
 10
32.1353780513
 20
12.2722470474
 30
0.0
 10
32.0121180346
 20
12.1768822641
 30
0.0
 10
31.9220038569
 20
12.1197310391
 30
0.0
 10
31.8746753079
 20
12.0924060517
 30
0.0
  0
SPLINE
  5
315
100
AcDbEntity
  8
0
100
AcDbSpline
 62
7
  6
BYLAYER
 70
0
 71
3
 72
17
 73
13
 74
0
 42
0.0000001
 43
0.0000001
 44
0.0000000001
 40
0.0
 40
0.0
 40
0.0
 40
0.0
 40
0.058993848
 40
0.1213816185
 40
0.2538666732
 40
0.392747097
 40
0.5324527156
 40
0.6672350962
 40
0.7920173635
 40
0.8495321834
 40
0.9033912714
 40
1.0
 40
1.0
 40
1.0
 40
1.0
 10
26.4299802999
 20
19.9360664309
 30
0.0
 10
26.458597756
 20
19.9525886283
 30
0.0
 10
26.5156049112
 20
19.9899027504
 30
0.0
 10
26.6267860091
 20
20.0788165787
 30
0.0
 10
26.7567530477
 20
20.2144691516
 30
0.0
 10
26.8899397188
 20
20.4032158347
 30
0.0
 10
26.9957090947
 20
20.6101057552
 30
0.0
 10
27.0676477155
 20
20.8227304012
 30
0.0
 10
27.0967120074
 20
20.9990293865
 30
0.0
 10
27.0979947251
 20
21.1315974996
 30
0.0
 10
27.0859154758
 20
21.2475391636
 30
0.0
 10
27.0611288406
 20
21.3298605136
 30
0.0
 10
27.036314516
 20
21.3779497111
 30
0.0
  0
SPLINE
  5
316
100
AcDbEntity
  8
0
100
AcDbSpline
 62
7
  6
BYLAYER
 70
0
 71
3
 72
11
 73
7
 74
0
 42
0.0000001
 43
0.0000001
 44
0.0000000001
 40
0.0
 40
0.0
 40
0.0
 40
0.0
 40
0.2663467641
 40
0.5252308442
 40
0.7712302337
 40
1.0
 40
1.0
 40
1.0
 40
1.0
 10
30.4731830288
 20
20.4279985308
 30
0.0
 10
30.5635497342
 20
20.4250912751
 30
0.0
 10
30.7415976562
 20
20.4100235734
 30
0.0
 10
30.999101448
 20
20.3598737153
 30
0.0
 10
31.2368373582
 20
20.2837329089
 30
0.0
 10
31.3831285076
 20
20.2145213369
 30
0.0
 10
31.4503823922
 20
20.1756931663
 30
0.0
  0
SPLINE
  5
317
100
AcDbEntity
  8
0
100
AcDbSpline
 62
7
  6
BYLAYER
 70
0
 71
3
 72
10
 73
6
 74
0
 42
0.0000001
 43
0.0000001
 44
0.0000000001
 40
0.0
 40
0.0
 40
0.0
 40
0.0
 40
0.4623284422
 40
0.7214708014
 40
1.0
 40
1.0
 40
1.0
 40
1.0
 10
31.6384832953
 20
21.2101696288
 30
0.0
 10
31.6144354995
 20
21.1583537073
 30
0.0
 10
31.5593372699
 20
21.0852754946
 30
0.0
 10
31.4652986334
 20
21.005014527
 30
0.0
 10
31.4094699642
 20
20.9685608184
 30
0.0
 10
31.3796661171
 20
20.9513536619
 30
0.0
  0
SPLINE
  5
318
100
AcDbEntity
  8
0
100
AcDbSpline
 62
7
  6
BYLAYER
 70
0
 71
3
 72
12
 73
8
 74
0
 42
0.0000001
 43
0.0000001
 44
0.0000000001
 40
0.0
 40
0.0
 40
0.0
 40
0.0
 40
0.2589296032
 40
0.5178844038
 40
0.7671624817
 40
0.8861653446
 40
1.0
 40
1.0
 40
1.0
 40
1.0
 10
23.3096075619
 20
29.2025793186
 30
0.0
 10
23.2809368229
 20
29.1657724601
 30
0.0
 10
23.2288295406
 20
29.0879607586
 30
0.0
 10
23.167213764
 20
28.963777762
 30
0.0
 10
23.1320587314
 20
28.8558691823
 30
0.0
 10
23.11462976
 20
28.7707009441
 30
0.0
 10
23.1095338574
 20
28.7289898114
 30
0.0
 10
23.1080483855
 20
28.7085321599
 30
0.0
  0
SPLINE
  5
319
100
AcDbEntity
  8
0
100
AcDbSpline
 62
7
  6
BYLAYER
 70
0
 71
3
 72
9
 73
5
 74
0
 42
0.0000001
 43
0.0000001
 44
0.0000000001
 40
0.0
 40
0.0
 40
0.0
 40
0.0
 40
0.2540943099
 40
1.0
 40
1.0
 40
1.0
 40
1.0
 10
23.1080483855
 20
28.7085321599
 30
0.0
 10
23.1077949616
 20
28.7050420516
 30
0.0
 10
23.1069133753
 20
28.6912985723
 30
0.0
 10
23.1065064724
 20
28.6775233372
 30
0.0
 10
23.1065064725
 20
28.6672509876
 30
0.0
  0
SPLINE
  5
31A
100
AcDbEntity
  8
0
100
AcDbSpline
 62
7
  6
BYLAYER
 70
0
 71
3
 72
15
 73
11
 74
0
 42
0.0000001
 43
0.0000001
 44
0.0000000001
 40
0.0
 40
0.0
 40
0.0
 40
0.0
 40
0.1212533775
 40
0.2371815435
 40
0.3509134776
 40
0.466185853
 40
0.5864486425
 40
0.71440165
 40
0.8519331763
 40
1.0
 40
1.0
 40
1.0
 40
1.0
 10
36.2905445279
 20
17.3812874722
 30
0.0
 10
36.3239775825
 20
17.4376781328
 30
0.0
 10
36.3796940928
 20
17.5542242779
 30
0.0
 10
36.4251646362
 20
17.7398806709
 30
0.0
 10
36.4284898269
 20
17.9279309117
 30
0.0
 10
36.3896205636
 20
18.1142438386
 30
0.0
 10
36.3098477688
 20
18.2952648619
 30
0.0
 10
36.1910513558
 20
18.4679772501
 30
0.0
 10
36.0356322941
 20
18.6298567422
 30
0.0
 10
35.9137583881
 20
18.7254935632
 30
0.0
 10
35.8480197994
 20
18.7711774009
 30
0.0
  0
SPLINE
  5
31B
100
AcDbEntity
  8
0
100
AcDbSpline
 62
7
  6
BYLAYER
 70
0
 71
3
 72
9
 73
5
 74
0
 42
0.0000001
 43
0.0000001
 44
0.0000000001
 40
0.0
 40
0.0
 40
0.0
 40
0.0
 40
0.2343001187
 40
1.0
 40
1.0
 40
1.0
 40
1.0
 10
22.5967567847
 20
50.7959716811
 30
0.0
 10
22.5993160165
 20
50.7852346543
 30
0.0
 10
22.6080909899
 20
50.7388987445
 30
0.0
 10
22.6090079549
 20
50.6912843053
 30
0.0
 10
22.6065716232
 20
50.6552947542
 30
0.0
  0
SPLINE
  5
31C
100
AcDbEntity
  8
0
100
AcDbSpline
 62
7
  6
BYLAYER
 70
0
 71
3
 72
10
 73
6
 74
0
 42
0.0000001
 43
0.0000001
 44
0.0000000001
 40
0.0
 40
0.0
 40
0.0
 40
0.0
 40
0.4790307733
 40
0.7368181388
 40
1.0
 40
1.0
 40
1.0
 40
1.0
 10
22.6065716232
 20
50.6552947542
 30
0.0
 10
22.6025097107
 20
50.5952920839
 30
0.0
 10
22.5826577361
 20
50.5036806081
 30
0.0
 10
22.5371641405
 20
50.3866028935
 30
0.0
 10
22.5073376717
 20
50.3282135646
 30
0.0
 10
22.4908171347
 20
50.2995989964
 30
0.0
  0
SPLINE
  5
31D
100
AcDbEntity
  8
0
100
AcDbSpline
 62
7
  6
BYLAYER
 70
0
 71
3
 72
12
 73
8
 74
0
 42
0.0000001
 43
0.0000001
 44
0.0000000001
 40
0.0
 40
0.0
 40
0.0
 40
0.0
 40
0.1081678375
 40
0.2183538064
 40
0.4513088211
 40
0.7105869577
 40
1.0
 40
1.0
 40
1.0
 40
1.0
 10
27.283472154
 20
21.3683353729
 30
0.0
 10
27.2998644243
 20
21.3588628209
 30
0.0
 10
27.3313793667
 20
21.3368588164
 30
0.0
 10
27.3879520868
 20
21.2812800746
 30
0.0
 10
27.4439671372
 20
21.1899441441
 30
0.0
 10
27.482870639
 20
21.0575962205
 30
0.0
 10
27.490595012
 20
20.9612227267
 30
0.0
 10
27.490595012
 20
20.9105673416
 30
0.0
  0
SPLINE
  5
31E
100
AcDbEntity
  8
0
100
AcDbSpline
 62
7
  6
BYLAYER
 70
0
 71
3
 72
11
 73
7
 74
0
 42
0.0000001
 43
0.0000001
 44
0.0000000001
 40
0.0
 40
0.0
 40
0.0
 40
0.0
 40
0.2299164968
 40
0.4687425022
 40
0.7239846582
 40
1.0
 40
1.0
 40
1.0
 40
1.0
 10
23.7579592407
 20
29.8918406404
 30
0.0
 10
23.7579469698
 20
29.8505902994
 30
0.0
 10
23.7473171088
 20
29.7661573692
 30
0.0
 10
23.7004543076
 20
29.6438520647
 30
0.0
 10
23.6242472898
 20
29.5275394112
 30
0.0
 10
23.5580576337
 20
29.4582371635
 30
0.0
 10
23.5212828515
 20
29.4250715354
 30
0.0
  0
SPLINE
  5
31F
100
AcDbEntity
  8
0
100
AcDbSpline
 62
7
  6
BYLAYER
 70
0
 71
3
 72
13
 73
9
 74
0
 42
0.0000001
 43
0.0000001
 44
0.0000000001
 40
0.0
 40
0.0
 40
0.0
 40
0.0
 40
0.1141728887
 40
0.2375633665
 40
0.4999983932
 40
0.7624342989
 40
0.885825805
 40
1.0
 40
1.0
 40
1.0
 40
1.0
 10
22.0458442398
 20
45.119766006
 30
0.0
 10
22.0700298287
 20
45.1337294786
 30
0.0
 10
22.1178283664
 20
45.1672676654
 30
0.0
 10
22.2073751098
 20
45.2509983028
 30
0.0
 10
22.3018776729
 20
45.3801923933
 30
0.0
 10
22.366511081
 20
45.5266316006
 30
0.0
 10
22.3942504416
 20
45.646047502
 30
0.0
 10
22.3993961573
 20
45.7042119008
 30
0.0
 10
22.3993961575
 20
45.732139291
 30
0.0
  0
SPLINE
  5
320
100
AcDbEntity
  8
0
100
AcDbSpline
 62
7
  6
BYLAYER
 70
0
 71
3
 72
14
 73
10
 74
0
 42
0.0000001
 43
0.0000001
 44
0.0000000001
 40
0.0
 40
0.0
 40
0.0
 40
0.0
 40
0.1141013816
 40
0.2374066648
 40
0.3670986369
 40
0.5001870608
 40
0.7624191208
 40
0.8858156858
 40
1.0
 40
1.0
 40
1.0
 40
1.0
 10
22.8236649333
 20
44.5890509231
 30
0.0
 10
22.8526826962
 20
44.6058042362
 30
0.0
 10
22.9100532589
 20
44.6459953668
 30
0.0
 10
22.9890615558
 20
44.7197436082
 30
0.0
 10
23.0618156155
 20
44.8070932734
 30
0.0
 10
23.1463074278
 20
44.9363006515
 30
0.0
 10
23.2083146798
 20
45.0772852178
 30
0.0
 10
23.241630031
 20
45.220535124
 30
0.0
 10
23.247927241
 20
45.2903677355
 30
0.0
 10
23.247927241
 20
45.3238988658
 30
0.0
  0
SPLINE
  5
321
100
AcDbEntity
  8
0
100
AcDbSpline
 62
7
  6
BYLAYER
 70
0
 71
3
 72
11
 73
7
 74
0
 42
0.0000001
 43
0.0000001
 44
0.0000000001
 40
0.0
 40
0.0
 40
0.0
 40
0.0
 40
0.2372177765
 40
0.4999989133
 40
0.7627806415
 40
1.0
 40
1.0
 40
1.0
 40
1.0
 10
22.7529539665
 20
44.7115252506
 30
0.0
 10
22.7629920154
 20
44.7057299114
 30
0.0
 10
22.7819897998
 20
44.689741765
 30
0.0
 10
22.8041632765
 20
44.6594415083
 30
0.0
 10
22.8193175153
 20
44.6250885826
 30
0.0
 10
22.8236649398
 20
44.6006418785
 30
0.0
 10
22.8236649389
 20
44.5890509263
 30
0.0
  0
SPLINE
  5
322
100
AcDbEntity
  8
0
100
AcDbSpline
 62
7
  6
BYLAYER
 70
0
 71
3
 72
13
 73
9
 74
0
 42
0.0000001
 43
0.0000001
 44
0.0000000001
 40
0.0
 40
0.0
 40
0.0
 40
0.0
 40
0.114174195
 40
0.237565701
 40
0.5000016067
 40
0.7624366336
 40
0.8858271109
 40
1.0
 40
1.0
 40
1.0
 40
1.0
 10
23.1065058839
 20
45.3238985357
 30
0.0
 10
23.1065058838
 20
45.2959711456
 30
0.0
 10
23.1013601681
 20
45.2378067467
 30
0.0
 10
23.0736208072
 20
45.1183908455
 30
0.0
 10
23.0089873994
 20
44.9719516381
 30
0.0
 10
22.9144848363
 20
44.8427575476
 30
0.0
 10
22.8249380928
 20
44.7590269103
 30
0.0
 10
22.777139555
 20
44.7254887237
 30
0.0
 10
22.7529539662
 20
44.7115252508
 30
0.0
  0
SPLINE
  5
323
100
AcDbEntity
  8
0
100
AcDbSpline
 62
7
  6
BYLAYER
 70
0
 71
3
 72
11
 73
7
 74
0
 42
0.0000001
 43
0.0000001
 44
0.0000000001
 40
0.0
 40
0.0
 40
0.0
 40
0.0
 40
0.2372178133
 40
0.4999994733
 40
0.7627814201
 40
1.0
 40
1.0
 40
1.0
 40
1.0
 10
23.247927241
 20
45.3238988743
 30
0.0
 10
23.2378892504
 20
45.3181034722
 30
0.0
 10
23.2145441707
 20
45.309645211
 30
0.0
 10
23.1772166739
 20
45.3055926523
 30
0.0
 10
23.1398891207
 20
45.3096450404
 30
0.0
 10
23.1165439491
 20
45.3181031857
 30
0.0
 10
23.1065058842
 20
45.323898534
 30
0.0
  0
SPLINE
  5
324
100
AcDbEntity
  8
0
100
AcDbSpline
 62
7
  6
BYLAYER
 70
0
 71
3
 72
9
 73
5
 74
0
 42
0.0000001
 43
0.0000001
 44
0.0000000001
 40
0.0
 40
0.0
 40
0.0
 40
0.0
 40
0.2365873497
 40
1.0
 40
1.0
 40
1.0
 40
1.0
 10
22.3779741679
 20
50.125776489
 30
0.0
 10
22.3788433989
 20
50.1245832104
 30
0.0
 10
22.3827425848
 20
50.1197035365
 30
0.0
 10
22.3874578167
 20
50.1155094103
 30
0.0
 10
22.3912871377
 20
50.1126758456
 30
0.0
  0
SPLINE
  5
325
100
AcDbEntity
  8
0
100
AcDbSpline
 62
7
  6
BYLAYER
 70
0
 71
3
 72
9
 73
5
 74
0
 42
0.0000001
 43
0.0000001
 44
0.0000000001
 40
0.0
 40
0.0
 40
0.0
 40
0.0
 40
0.243565052
 40
1.0
 40
1.0
 40
1.0
 40
1.0
 10
22.3912871377
 20
50.1126758456
 30
0.0
 10
22.3919627226
 20
50.1121759362
 30
0.0
 10
22.3947691168
 20
50.1101678014
 30
0.0
 10
22.3976991459
 20
50.1083338959
 30
0.0
 10
22.399966022
 20
50.1070400857
 30
0.0
  0
SPLINE
  5
326
100
AcDbEntity
  8
0
100
AcDbSpline
 62
7
  6
BYLAYER
 70
0
 71
3
 72
9
 73
5
 74
0
 42
0.0000001
 43
0.0000001
 44
0.0000000001
 40
0.0
 40
0.0
 40
0.0
 40
0.0
 40
0.256092649
 40
1.0
 40
1.0
 40
1.0
 40
1.0
 10
22.4089024055
 20
50.1532098123
 30
0.0
 10
22.408166324
 20
50.1512496268
 30
0.0
 10
22.4054426073
 20
50.1435403548
 30
0.0
 10
22.4033247521
 20
50.1356121366
 30
0.0
 10
22.4021630263
 20
50.1296418661
 30
0.0
  0
SPLINE
  5
327
100
AcDbEntity
  8
0
100
AcDbSpline
 62
7
  6
BYLAYER
 70
0
 71
3
 72
9
 73
5
 74
0
 42
0.0000001
 43
0.0000001
 44
0.0000000001
 40
0.0
 40
0.0
 40
0.0
 40
0.0
 40
0.2603398894
 40
1.0
 40
1.0
 40
1.0
 40
1.0
 10
22.4021630263
 20
50.1296418661
 30
0.0
 10
22.4017873403
 20
50.1277111636
 30
0.0
 10
22.4005121659
 20
50.120264752
 30
0.0
 10
22.3999137538
 20
50.1126920544
 30
0.0
 10
22.39996375
 20
50.1071040139
 30
0.0
  0
SPLINE
  5
328
100
AcDbEntity
  8
0
100
AcDbSpline
 62
7
  6
BYLAYER
 70
0
 71
3
 72
12
 73
8
 74
0
 42
0.0000001
 43
0.0000001
 44
0.0000000001
 40
0.0
 40
0.0
 40
0.0
 40
0.0
 40
0.23769183
 40
0.3674754615
 40
0.5006059076
 40
0.7629565003
 40
1.0
 40
1.0
 40
1.0
 40
1.0
 10
23.1065058842
 20
49.6991909496
 30
0.0
 10
23.1158425448
 20
49.6922744693
 30
0.0
 10
23.133844477
 20
49.6870234699
 30
0.0
 10
23.1578961254
 20
49.6833020727
 30
0.0
 10
23.1835692243
 20
49.6815021766
 30
0.0
 10
23.214743744
 20
49.6846461639
 30
0.0
 10
23.2375802095
 20
49.6939745515
 30
0.0
 10
23.247927241
 20
49.6991912899
 30
0.0
  0
SPLINE
  5
329
100
AcDbEntity
  8
0
100
AcDbSpline
 62
7
  6
BYLAYER
 70
0
 71
3
 72
12
 73
8
 74
0
 42
0.0000001
 43
0.0000001
 44
0.0000000001
 40
0.0
 40
0.0
 40
0.0
 40
0.0
 40
0.2657867324
 40
0.5254228595
 40
0.6503673032
 40
0.7705927726
 40
1.0
 40
1.0
 40
1.0
 40
1.0
 10
23.1272163637
 20
49.7688836497
 30
0.0
 10
23.123842047
 20
49.7633163713
 30
0.0
 10
23.1180375911
 20
49.7517681204
 30
0.0
 10
23.1127836055
 20
49.7366979714
 30
0.0
 10
23.1095933191
 20
49.7247431564
 30
0.0
 10
23.1069263677
 20
49.7134535202
 30
0.0
 10
23.1059381652
 20
49.7047815026
 30
0.0
 10
23.1065054025
 20
49.6991912289
 30
0.0
  0
SPLINE
  5
32A
100
AcDbEntity
  8
0
100
AcDbSpline
 62
7
  6
BYLAYER
 70
0
 71
3
 72
9
 73
5
 74
0
 42
0.0000001
 43
0.0000001
 44
0.0000000001
 40
0.0
 40
0.0
 40
0.0
 40
0.0
 40
0.5301329573
 40
1.0
 40
1.0
 40
1.0
 40
1.0
 10
19.5709872886
 20
43.2010292744
 30
0.0
 10
19.5709872883
 20
43.1679342306
 30
0.0
 10
19.5763421518
 20
43.1053011991
 30
0.0
 10
19.5960296453
 20
43.045134384
 30
0.0
 10
19.6094561856
 20
43.0190548967
 30
0.0
  0
SPLINE
  5
32B
100
AcDbEntity
  8
0
100
AcDbSpline
 62
7
  6
BYLAYER
 70
0
 71
3
 72
15
 73
11
 74
0
 42
0.0000001
 43
0.0000001
 44
0.0000000001
 40
0.0
 40
0.0
 40
0.0
 40
0.0
 40
0.1198613121
 40
0.2334713139
 40
0.3449192187
 40
0.4585943424
 40
0.5786050929
 40
0.708005486
 40
0.8484345953
 40
1.0
 40
1.0
 40
1.0
 40
1.0
 10
19.6094561856
 20
43.0190548967
 30
0.0
 10
19.6175576816
 20
43.0033186862
 30
0.0
 10
19.6363626502
 20
42.9740545524
 30
0.0
 10
19.6732988753
 20
42.9382946956
 30
0.0
 10
19.7171399931
 20
42.9131341563
 30
0.0
 10
19.7667064596
 20
42.8993058428
 30
0.0
 10
19.8206789279
 20
42.8970098856
 30
0.0
 10
19.8778737031
 20
42.9058843947
 30
0.0
 10
19.9371485106
 20
42.9255764538
 30
0.0
 10
19.9758672654
 20
42.9448839872
 30
0.0
 10
19.995249622
 20
42.9560743292
 30
0.0
  0
SPLINE
  5
32C
100
AcDbEntity
  8
0
100
AcDbSpline
 62
7
  6
BYLAYER
 70
0
 71
3
 72
12
 73
8
 74
0
 42
0.0000001
 43
0.0000001
 44
0.0000000001
 40
0.0
 40
0.0
 40
0.0
 40
0.0
 40
0.1081723755
 40
0.2183771151
 40
0.4513313072
 40
0.7105192563
 40
1.0
 40
1.0
 40
1.0
 40
1.0
 10
16.9496632932
 20
48.8843976244
 30
0.0
 10
16.9660596707
 20
48.8938640187
 30
0.0
 10
17.0008840079
 20
48.9101444396
 30
0.0
 10
17.0773124206
 20
48.9313172834
 30
0.0
 10
17.1843992998
 20
48.9341750924
 30
0.0
 10
17.3184705885
 20
48.9017177376
 30
0.0
 10
17.4057824327
 20
48.8602061053
 30
0.0
 10
17.4496610577
 20
48.8348733437
 30
0.0
  0
SPLINE
  5
32D
100
AcDbEntity
  8
0
100
AcDbSpline
 62
7
  6
BYLAYER
 70
0
 71
3
 72
11
 73
7
 74
0
 42
0.0000001
 43
0.0000001
 44
0.0000000001
 40
0.0
 40
0.0
 40
0.0
 40
0.0
 40
0.2895312967
 40
0.5491036868
 40
0.782249987
 40
1.0
 40
1.0
 40
1.0
 40
1.0
 10
19.9245386164
 20
43.0785486347
 30
0.0
 10
19.9026155866
 20
43.0658914431
 30
0.0
 10
19.8589679582
 20
43.0451524221
 30
0.0
 10
19.79190649
 20
43.0289159151
 30
0.0
 10
19.728948642
 20
43.0304871909
 30
0.0
 10
19.6910747269
 20
43.0442716515
 30
0.0
 10
19.6745848484
 20
43.0537872766
 30
0.0
  0
SPLINE
  5
32E
100
AcDbEntity
  8
0
100
AcDbSpline
 62
7
  6
BYLAYER
 70
0
 71
3
 72
11
 73
7
 74
0
 42
0.0000001
 43
0.0000001
 44
0.0000000001
 40
0.0
 40
0.0
 40
0.0
 40
0.0
 40
0.2372193585
 40
0.5000010867
 40
0.7627822235
 40
1.0
 40
1.0
 40
1.0
 40
1.0
 10
19.9952495888
 20
42.9560743101
 30
0.0
 10
19.9952495896
 20
42.9676652622
 30
0.0
 10
19.9909021652
 20
42.9921119664
 30
0.0
 10
19.9757479263
 20
43.0264648921
 30
0.0
 10
19.9535744496
 20
43.0567651488
 30
0.0
 10
19.9345766652
 20
43.0727532952
 30
0.0
 10
19.9245386163
 20
43.0785486343
 30
0.0
  0
SPLINE
  5
32F
100
AcDbEntity
  8
0
100
AcDbSpline
 62
7
  6
BYLAYER
 70
0
 71
3
 72
11
 73
7
 74
0
 42
0.0000001
 43
0.0000001
 44
0.0000000001
 40
0.0
 40
0.0
 40
0.0
 40
0.0
 40
0.2898421483
 40
0.5500501531
 40
0.7829424234
 40
1.0
 40
1.0
 40
1.0
 40
1.0
 10
19.5709872886
 20
47.5760669337
 30
0.0
 10
19.5753685663
 20
47.5786521781
 30
0.0
 10
19.5833138268
 20
47.5842414706
 30
0.0
 10
19.592840565
 20
47.5943067011
 30
0.0
 10
19.5988754416
 20
47.6054051202
 30
0.0
 10
19.6002849142
 20
47.6133571959
 30
0.0
 10
19.6002764795
 20
47.6171668608
 30
0.0
  0
SPLINE
  5
330
100
AcDbEntity
  8
0
100
AcDbSpline
 62
7
  6
BYLAYER
 70
0
 71
3
 72
9
 73
5
 74
0
 42
0.0000001
 43
0.0000001
 44
0.0000000001
 40
0.0
 40
0.0
 40
0.0
 40
0.0
 40
0.4880073467
 40
1.0
 40
1.0
 40
1.0
 40
1.0
 10
19.5502761059
 20
47.7037484265
 30
0.0
 10
19.5580862222
 20
47.6992393558
 30
0.0
 10
19.5722569867
 20
47.6865098756
 30
0.0
 10
19.5805173942
 20
47.6694674168
 30
0.0
 10
19.5831796001
 20
47.6603881339
 30
0.0
  0
SPLINE
  5
331
100
AcDbEntity
  8
0
100
AcDbSpline
 62
7
  6
BYLAYER
 70
0
 71
3
 72
9
 73
5
 74
0
 42
0.0000001
 43
0.0000001
 44
0.0000000001
 40
0.0
 40
0.0
 40
0.0
 40
0.0
 40
0.2424147117
 40
1.0
 40
1.0
 40
1.0
 40
1.0
 10
19.5831796001
 20
47.6603881339
 30
0.0
 10
19.5841187061
 20
47.6571853732
 30
0.0
 10
19.5872320812
 20
47.6437534225
 30
0.0
 10
19.5872647534
 20
47.6296797483
 30
0.0
 10
19.5858446095
 20
47.6193463267
 30
0.0
  0
SPLINE
  5
332
100
AcDbEntity
  8
0
100
AcDbSpline
 62
7
  6
BYLAYER
 70
0
 71
3
 72
15
 73
11
 74
0
 42
0.0000001
 43
0.0000001
 44
0.0000000001
 40
0.0
 40
0.0
 40
0.0
 40
0.0
 40
0.1108856828
 40
0.2285363968
 40
0.3517783793
 40
0.4793046758
 40
0.6095594079
 40
0.7408718803
 40
0.8716072041
 40
1.0
 40
1.0
 40
1.0
 40
1.0
 10
25.4400268565
 20
12.54153607
 30
0.0
 10
25.5418665882
 20
12.4827402042
 30
0.0
 10
25.7594182251
 20
12.3745302392
 30
0.0
 10
26.1095730257
 20
12.2441847465
 30
0.0
 10
26.487530509
 20
12.1430419171
 30
0.0
 10
26.8859728493
 20
12.0729812247
 30
0.0
 10
27.2973450006
 20
12.0353794459
 30
0.0
 10
27.7138077432
 20
12.0308974339
 30
0.0
 10
28.1272928776
 20
12.0596852749
 30
0.0
 10
28.399333775
 20
12.1011900348
 30
0.0
 10
28.5329101777
 20
12.1275883834
 30
0.0
  0
SPLINE
  5
333
100
AcDbEntity
  8
0
100
AcDbSpline
 62
7
  6
BYLAYER
 70
0
 71
3
 72
13
 73
9
 74
0
 42
0.0000001
 43
0.0000001
 44
0.0000000001
 40
0.0
 40
0.0
 40
0.0
 40
0.0
 40
0.1141728896
 40
0.237563367
 40
0.4999983941
 40
0.7624342995
 40
0.8858258052
 40
1.0
 40
1.0
 40
1.0
 40
1.0
 10
25.7935787714
 20
13.1539093569
 30
0.0
 10
25.7693931827
 20
13.1399458838
 30
0.0
 10
25.7215946451
 20
13.106407697
 30
0.0
 10
25.6320479021
 20
13.0226770593
 30
0.0
 10
25.5375453396
 20
12.8934829688
 30
0.0
 10
25.4729119325
 20
12.7470437616
 30
0.0
 10
25.4451725719
 20
12.6276278608
 30
0.0
 10
25.4400268564
 20
12.5694634622
 30
0.0
 10
25.4400268565
 20
12.5415360722
 30
0.0
  0
SPLINE
  5
334
100
AcDbEntity
  8
0
100
AcDbSpline
 62
7
  6
BYLAYER
 70
0
 71
3
 72
12
 73
8
 74
0
 42
0.0000001
 43
0.0000001
 44
0.0000000001
 40
0.0
 40
0.0
 40
0.0
 40
0.0
 40
0.2875384293
 40
0.5470592502
 40
0.7816260591
 40
0.8922763566
 40
1.0
 40
1.0
 40
1.0
 40
1.0
 10
23.5308194014
 20
15.6033586545
 30
0.0
 10
23.4694180028
 20
15.6388079664
 30
0.0
 10
23.357310659
 20
15.7152145042
 30
0.0
 10
23.2203274393
 20
15.8526531056
 30
0.0
 10
23.1418916322
 20
15.981748134
 30
0.0
 10
23.1058449906
 20
16.0878291679
 30
0.0
 10
23.0963515473
 20
16.1410957194
 30
0.0
 10
23.0937993178
 20
16.1675347904
 30
0.0
  0
SPLINE
  5
335
100
AcDbEntity
  8
0
100
AcDbSpline
 62
7
  6
BYLAYER
 70
0
 71
3
 72
15
 73
11
 74
0
 42
0.0000001
 43
0.0000001
 44
0.0000000001
 40
0.0
 40
0.0
 40
0.0
 40
0.0
 40
0.1108605595
 40
0.2285423717
 40
0.3517853005
 40
0.4793066274
 40
0.6095515137
 40
0.7408649182
 40
0.8716383094
 40
1.0
 40
1.0
 40
1.0
 40
1.0
 10
25.7935787522
 20
13.153909368
 30
0.0
 10
25.8784258395
 20
13.1049239878
 30
0.0
 10
26.0597349998
 20
13.0147715865
 30
0.0
 10
26.3515206003
 20
12.9061114772
 30
0.0
 10
26.6665100119
 20
12.8218172018
 30
0.0
 10
26.998540015
 20
12.7634848792
 30
0.0
 10
27.3413315691
 20
12.7321009802
 30
0.0
 10
27.6884114766
 20
12.7283706576
 30
0.0
 10
28.0329853194
 20
12.7523952804
 30
0.0
 10
28.2596950144
 20
12.786959693
 30
0.0
 10
28.3709815485
 20
12.8089529539
 30
0.0
  0
SPLINE
  5
336
100
AcDbEntity
  8
0
100
AcDbSpline
 62
7
  6
BYLAYER
 70
0
 71
3
 72
10
 73
6
 74
0
 42
0.0000001
 43
0.0000001
 44
0.0000000001
 40
0.0
 40
0.0
 40
0.0
 40
0.0
 40
0.3864419953
 40
0.6596501301
 40
1.0
 40
1.0
 40
1.0
 40
1.0
 10
18.3593879814
 20
48.3828548523
 30
0.0
 10
18.3580352584
 20
48.3830427599
 30
0.0
 10
18.355645348
 20
48.3819204339
 30
0.0
 10
18.3532185642
 20
48.3794111027
 30
0.0
 10
18.3519219006
 20
48.3776488898
 30
0.0
 10
18.351260465
 20
48.376644262
 30
0.0
  0
SPLINE
  5
337
100
AcDbEntity
  8
0
100
AcDbSpline
 62
7
  6
BYLAYER
 70
0
 71
3
 72
9
 73
5
 74
0
 42
0.0000001
 43
0.0000001
 44
0.0000000001
 40
0.0
 40
0.0
 40
0.0
 40
0.0
 40
0.214623555
 40
1.0
 40
1.0
 40
1.0
 40
1.0
 10
18.351260465
 20
48.376644262
 30
0.0
 10
18.3507664216
 20
48.3758938794
 30
0.0
 10
18.34859202
 20
48.3723137213
 30
0.0
 10
18.3468257302
 20
48.3685008767
 30
0.0
 10
18.345555155
 20
48.3654687283
 30
0.0
  0
SPLINE
  5
338
100
AcDbEntity
  8
0
100
AcDbSpline
 62
7
  6
BYLAYER
 70
0
 71
3
 72
9
 73
5
 74
0
 42
0.0000001
 43
0.0000001
 44
0.0000000001
 40
0.0
 40
0.0
 40
0.0
 40
0.0
 40
0.4773840405
 40
1.0
 40
1.0
 40
1.0
 40
1.0
 10
22.1873162329
 20
15.6441796613
 30
0.0
 10
22.1219256489
 20
15.6064266154
 30
0.0
 10
21.9754840948
 20
15.5434409924
 30
0.0
 10
21.8207184732
 20
15.5073888207
 30
0.0
 10
21.7390295687
 20
15.4947514736
 30
0.0
  0
SPLINE
  5
339
100
AcDbEntity
  8
0
100
AcDbSpline
 62
7
  6
BYLAYER
 70
0
 71
3
 72
11
 73
7
 74
0
 42
0.0000001
 43
0.0000001
 44
0.0000000001
 40
0.0
 40
0.0
 40
0.0
 40
0.0
 40
0.2895353836
 40
0.5491065872
 40
0.7822495576
 40
1.0
 40
1.0
 40
1.0
 40
1.0
 10
23.5308194107
 20
15.6033586492
 30
0.0
 10
23.5527456476
 20
15.6160176922
 30
0.0
 10
23.5963995979
 20
15.6367591327
 30
0.0
 10
23.6634709424
 20
15.6529944822
 30
0.0
 10
23.7264370053
 20
15.651416161
 30
0.0
 10
23.7643134497
 20
15.6376228247
 30
0.0
 10
23.7808035493
 20
15.6281024741
 30
0.0
  0
SPLINE
  5
33A
100
AcDbEntity
  8
0
100
AcDbSpline
 62
7
  6
BYLAYER
 70
0
 71
3
 72
11
 73
7
 74
0
 42
0.0000001
 43
0.0000001
 44
0.0000000001
 40
0.0
 40
0.0
 40
0.0
 40
0.0
 40
0.2325878709
 40
0.4821399652
 40
0.7427577865
 40
1.0
 40
1.0
 40
1.0
 40
1.0
 10
19.4206950175
 20
26.9506913211
 30
0.0
 10
19.428854485
 20
26.9499648128
 30
0.0
 10
19.4462373172
 20
26.9519315459
 30
0.0
 10
19.4697270114
 20
26.9646390563
 30
0.0
 10
19.4884180744
 20
26.9846990737
 30
0.0
 10
19.4969996142
 20
27.0010263371
 30
0.0
 10
19.5002768954
 20
27.0094728962
 30
0.0
  0
SPLINE
  5
33B
100
AcDbEntity
  8
0
100
AcDbSpline
 62
7
  6
BYLAYER
 70
0
 71
3
 72
12
 73
8
 74
0
 42
0.0000001
 43
0.0000001
 44
0.0000000001
 40
0.0
 40
0.0
 40
0.0
 40
0.0
 40
0.2991363492
 40
0.5626944494
 40
0.7917314361
 40
0.8973799157
 40
1.0
 40
1.0
 40
1.0
 40
1.0
 10
28.6493782109
 20
12.1609168673
 30
0.0
 10
28.6814937969
 20
12.1733455305
 30
0.0
 10
28.7401727622
 20
12.2018905293
 30
0.0
 10
28.8123669728
 20
12.2589097096
 30
0.0
 10
28.8526300909
 20
12.3166181379
 30
0.0
 10
28.8683655907
 20
12.3647637655
 30
0.0
 10
28.8709777428
 20
12.3888119246
 30
0.0
 10
28.8709818597
 20
12.4006255715
 30
0.0
  0
SPLINE
  5
33C
100
AcDbEntity
  8
0
100
AcDbSpline
 62
7
  6
BYLAYER
 70
0
 71
3
 72
11
 73
7
 74
0
 42
0.0000001
 43
0.0000001
 44
0.0000000001
 40
0.0
 40
0.0
 40
0.0
 40
0.0
 40
0.2632733338
 40
0.5331947085
 40
0.7811773338
 40
1.0
 40
1.0
 40
1.0
 40
1.0
 10
19.5002769232
 20
47.6171475056
 30
0.0
 10
19.506502922
 20
47.6279313118
 30
0.0
 10
19.5154249613
 20
47.6519514415
 30
0.0
 10
19.5177592864
 20
47.68968433
 30
0.0
 10
19.5047484385
 20
47.7232010911
 30
0.0
 10
19.4884334727
 20
47.7392375681
 30
0.0
 10
19.4795610205
 20
47.7445662776
 30
0.0
  0
LINE
  5
33D
100
AcDbEntity
  8
0
100
AcDbLine
 62
7
  6
BYLAYER
 10
19.4335061671
 20
47.6507354558
 11
19.3988883609
 21
47.6682473947
  0
SPLINE
  5
33E
100
AcDbEntity
  8
0
100
AcDbSpline
 62
7
  6
BYLAYER
 70
0
 71
3
 72
11
 73
7
 74
0
 42
0.0000001
 43
0.0000001
 44
0.0000000001
 40
0.0
 40
0.0
 40
0.0
 40
0.0
 40
0.2991838017
 40
0.5697493265
 40
0.800861426
 40
1.0
 40
1.0
 40
1.0
 40
1.0
 10
19.2483553737
 20
26.9581104323
 30
0.0
 10
19.2483553398
 20
26.9529532193
 30
0.0
 10
19.2477570495
 20
26.9431084033
 30
0.0
 10
19.244499017
 20
26.9295975473
 30
0.0
 10
19.2386244201
 20
26.918786481
 30
0.0
 10
19.2323813866
 20
26.9141586751
 30
0.0
 10
19.2291651634
 20
26.9129590295
 30
0.0
  0
SPLINE
  5
33F
100
AcDbEntity
  8
0
100
AcDbSpline
 62
7
  6
BYLAYER
 70
0
 71
3
 72
9
 73
5
 74
0
 42
0.0000001
 43
0.0000001
 44
0.0000000001
 40
0.0
 40
0.0
 40
0.0
 40
0.0
 40
0.2364964868
 40
1.0
 40
1.0
 40
1.0
 40
1.0
 10
19.5002769029
 20
27.0094728961
 30
0.0
 10
19.4943826168
 20
27.0097343722
 30
0.0
 10
19.469430604
 20
27.0101808623
 30
0.0
 10
19.444466642
 20
27.0081634283
 30
0.0
 10
19.425590955
 20
27.0056087216
 30
0.0
  0
SPLINE
  5
340
100
AcDbEntity
  8
0
100
AcDbSpline
 62
7
  6
BYLAYER
 70
0
 71
3
 72
9
 73
5
 74
0
 42
0.0000001
 43
0.0000001
 44
0.0000000001
 40
0.0
 40
0.0
 40
0.0
 40
0.0
 40
0.2405342893
 40
1.0
 40
1.0
 40
1.0
 40
1.0
 10
19.4106668015
 20
27.0033754704
 30
0.0
 10
19.4050813625
 20
27.0024620085
 30
0.0
 10
19.3819168883
 20
26.9983204867
 30
0.0
 10
19.3589892381
 20
26.9929037246
 30
0.0
 10
19.3417353455
 20
26.9882525385
 30
0.0
  0
SPLINE
  5
341
100
AcDbEntity
  8
0
100
AcDbSpline
 62
7
  6
BYLAYER
 70
0
 71
3
 72
9
 73
5
 74
0
 42
0.0000001
 43
0.0000001
 44
0.0000000001
 40
0.0
 40
0.0
 40
0.0
 40
0.0
 40
0.2410628205
 40
1.0
 40
1.0
 40
1.0
 40
1.0
 10
19.3417353455
 20
26.9882525385
 30
0.0
 10
19.3341208798
 20
26.9861998829
 30
0.0
 10
19.3026534003
 20
26.9772416651
 30
0.0
 10
19.2716471701
 20
26.9667091933
 30
0.0
 10
19.2483553552
 20
26.9581104243
 30
0.0
  0
SPLINE
  5
342
100
AcDbEntity
  8
0
100
AcDbSpline
 62
7
  6
BYLAYER
 70
0
 71
3
 72
11
 73
7
 74
0
 42
0.0000001
 43
0.0000001
 44
0.0000000001
 40
0.0
 40
0.0
 40
0.0
 40
0.0
 40
0.2177999926
 40
0.4509113156
 40
0.7102997606
 40
1.0
 40
1.0
 40
1.0
 40
1.0
 10
19.4674305364
 20
26.936571772
 30
0.0
 10
19.483927954
 20
26.9270533041
 30
0.0
 10
19.5147870384
 20
26.9011075808
 30
0.0
 10
19.5476302796
 20
26.8473876343
 30
0.0
 10
19.5671486591
 20
26.7811938092
 30
0.0
 10
19.5709866968
 20
26.7330127296
 30
0.0
 10
19.5709866973
 20
26.7076786989
 30
0.0
  0
SPLINE
  5
343
100
AcDbEntity
  8
0
100
AcDbSpline
 62
7
  6
BYLAYER
 70
0
 71
3
 72
11
 73
7
 74
0
 42
0.0000001
 43
0.0000001
 44
0.0000000001
 40
0.0
 40
0.0
 40
0.0
 40
0.0
 40
0.2059125743
 40
0.4467203349
 40
0.714590657
 40
1.0
 40
1.0
 40
1.0
 40
1.0
 10
28.3709815543
 20
12.8089529567
 30
0.0
 10
28.3827037632
 20
12.789181951
 30
0.0
 10
28.4052175196
 20
12.7445622697
 30
0.0
 10
28.435008368
 20
12.6705058891
 30
0.0
 10
28.4625089215
 20
12.5861795363
 30
0.0
 10
28.4783234453
 20
12.5264439306
 30
0.0
 10
28.485675492
 20
12.4954452485
 30
0.0
  0
SPLINE
  5
344
100
AcDbEntity
  8
0
100
AcDbSpline
 62
7
  6
BYLAYER
 70
0
 71
3
 72
14
 73
10
 74
0
 42
0.0000001
 43
0.0000001
 44
0.0000000001
 40
0.0
 40
0.0
 40
0.0
 40
0.0
 40
0.2928404935
 40
0.4244623958
 40
0.5468630604
 40
0.6621966282
 40
0.7739758551
 40
0.8855407249
 40
1.0
 40
1.0
 40
1.0
 40
1.0
 10
19.7124080557
 20
26.7076790394
 30
0.0
 10
19.7124080553
 20
26.746901749
 30
0.0
 10
19.706401437
 20
26.8042927007
 30
0.0
 10
19.6828601652
 20
26.8739168213
 30
0.0
 10
19.6590933714
 20
26.9176574846
 30
0.0
 10
19.6285072779
 20
26.9535741964
 30
0.0
 10
19.5920863184
 20
26.9811924674
 30
0.0
 10
19.5508132419
 20
27.0005168192
 30
0.0
 10
19.5209892274
 20
27.0071699318
 30
0.0
 10
19.505758261
 20
27.0089143866
 30
0.0
  0
SPLINE
  5
345
100
AcDbEntity
  8
0
100
AcDbSpline
 62
7
  6
BYLAYER
 70
0
 71
3
 72
11
 73
7
 74
0
 42
0.0000001
 43
0.0000001
 44
0.0000000001
 40
0.0
 40
0.0
 40
0.0
 40
0.0
 40
0.2372185806
 40
0.5000005277
 40
0.7627821876
 40
1.0
 40
1.0
 40
1.0
 40
1.0
 10
19.5709866981
 20
26.7076786997
 30
0.0
 10
19.5810247631
 20
26.7018833513
 30
0.0
 10
19.6043699349
 20
26.693425206
 30
0.0
 10
19.6416974884
 20
26.689372818
 30
0.0
 10
19.6790249853
 20
26.6934253768
 30
0.0
 10
19.7023700651
 20
26.7018836382
 30
0.0
 10
19.7124080557
 20
26.7076790404
 30
0.0
  0
SPLINE
  5
346
100
AcDbEntity
  8
0
100
AcDbSpline
 62
7
  6
BYLAYER
 70
0
 71
3
 72
9
 73
5
 74
0
 42
0.0000001
 43
0.0000001
 44
0.0000000001
 40
0.0
 40
0.0
 40
0.0
 40
0.0
 40
0.2572691737
 40
1.0
 40
1.0
 40
1.0
 40
1.0
 10
28.5329101776
 20
12.1275883873
 30
0.0
 10
28.5431088869
 20
12.1296039312
 30
0.0
 10
28.5825860315
 20
12.1382333063
 30
0.0
 10
28.6213881708
 20
12.1500847815
 30
0.0
 10
28.6493782109
 20
12.1609168673
 30
0.0
  0
SPLINE
  5
347
100
AcDbEntity
  8
0
100
AcDbSpline
 62
7
  6
BYLAYER
 70
0
 71
3
 72
10
 73
6
 74
0
 42
0.0000001
 43
0.0000001
 44
0.0000000001
 40
0.0
 40
0.0
 40
0.0
 40
0.0
 40
0.5232650092
 40
0.7719266148
 40
1.0
 40
1.0
 40
1.0
 40
1.0
 10
28.485675492
 20
12.4954452485
 30
0.0
 10
28.5006305073
 20
12.4323899129
 30
0.0
 10
28.5179953633
 20
12.3381388209
 30
0.0
 10
28.5305264949
 20
12.2148876125
 30
0.0
 10
28.5329101778
 20
12.1558344759
 30
0.0
 10
28.5329101776
 20
12.1275883873
 30
0.0
  0
SPLINE
  5
348
100
AcDbEntity
  8
0
100
AcDbSpline
 62
7
  6
BYLAYER
 70
0
 71
3
 72
14
 73
10
 74
0
 42
0.0000001
 43
0.0000001
 44
0.0000000001
 40
0.0
 40
0.0
 40
0.0
 40
0.0
 40
0.09280322
 40
0.1964688684
 40
0.4341027466
 40
0.5669473291
 40
0.7076154653
 40
0.8536900625
 40
1.0
 40
1.0
 40
1.0
 40
1.0
 10
20.7731026705
 20
15.2359250525
 30
0.0
 10
20.8032053738
 20
15.2431244695
 30
0.0
 10
20.866634713
 20
15.2596173103
 30
0.0
 10
21.0058838905
 20
15.299276966
 30
0.0
 10
21.1571046349
 20
15.3455533376
 30
0.0
 10
21.3204999641
 20
15.3941753016
 30
0.0
 10
21.4550896498
 20
15.4325420625
 30
0.0
 10
21.5950977148
 20
15.4681018214
 30
0.0
 10
21.6908060523
 20
15.4872912518
 30
0.0
 10
21.7390295697
 20
15.4947514737
 30
0.0
  0
SPLINE
  5
349
100
AcDbEntity
  8
0
100
AcDbSpline
 62
7
  6
BYLAYER
 70
0
 71
3
 72
9
 73
5
 74
0
 42
0.0000001
 43
0.0000001
 44
0.0000000001
 40
0.0
 40
0.0
 40
0.0
 40
0.0
 40
0.2735331451
 40
1.0
 40
1.0
 40
1.0
 40
1.0
 10
18.3455551536
 20
48.3654687279
 30
0.0
 10
18.3479929666
 20
48.3668761915
 30
0.0
 10
18.3571116024
 20
48.3716131674
 30
0.0
 10
18.3672869342
 20
48.3746401527
 30
0.0
 10
18.3747523291
 20
48.3750400441
 30
0.0
  0
SPLINE
  5
34A
100
AcDbEntity
  8
0
100
AcDbSpline
 62
7
  6
BYLAYER
 70
0
 71
3
 72
9
 73
5
 74
0
 42
0.0000001
 43
0.0000001
 44
0.0000000001
 40
0.0
 40
0.0
 40
0.0
 40
0.0
 40
0.2602446094
 40
1.0
 40
1.0
 40
1.0
 40
1.0
 10
18.3747523291
 20
48.3750400441
 30
0.0
 10
18.3759766876
 20
48.3751056281
 30
0.0
 10
18.3806875552
 20
48.3751722252
 30
0.0
 10
18.3854240165
 20
48.374444863
 30
0.0
 10
18.3887496237
 20
48.3734020374
 30
0.0
  0
SPLINE
  5
34B
100
AcDbEntity
  8
0
100
AcDbSpline
 62
7
  6
BYLAYER
 70
0
 71
3
 72
11
 73
7
 74
0
 42
0.0000001
 43
0.0000001
 44
0.0000000001
 40
0.0
 40
0.0
 40
0.0
 40
0.0
 40
0.2178455119
 40
0.4526684603
 40
0.7126566942
 40
1.0
 40
1.0
 40
1.0
 40
1.0
 10
26.8273158963
 20
21.3414867209
 30
0.0
 10
26.848892552
 20
21.3258183782
 30
0.0
 10
26.8886403144
 20
21.2857780409
 30
0.0
 10
26.9304392629
 20
21.2081438947
 30
0.0
 10
26.9552835886
 20
21.1149782555
 30
0.0
 10
26.9602641901
 20
21.0477990997
 30
0.0
 10
26.9602641901
 20
21.0126266804
 30
0.0
  0
SPLINE
  5
34C
100
AcDbEntity
  8
0
100
AcDbSpline
 62
7
  6
BYLAYER
 70
0
 71
3
 72
9
 73
5
 74
0
 42
0.0000001
 43
0.0000001
 44
0.0000000001
 40
0.0
 40
0.0
 40
0.0
 40
0.0
 40
0.2456709907
 40
1.0
 40
1.0
 40
1.0
 40
1.0
 10
22.3701065427
 20
50.148255898
 30
0.0
 10
22.3701065515
 20
50.1469770297
 30
0.0
 10
22.370401634
 20
50.1417723081
 30
0.0
 10
22.3719331743
 20
50.1366645608
 30
0.0
 10
22.3736014676
 20
50.1331098278
 30
0.0
  0
SPLINE
  5
34D
100
AcDbEntity
  8
0
100
AcDbSpline
 62
7
  6
BYLAYER
 70
0
 71
3
 72
9
 73
5
 74
0
 42
0.0000001
 43
0.0000001
 44
0.0000000001
 40
0.0
 40
0.0
 40
0.0
 40
0.0
 40
0.2438058466
 40
1.0
 40
1.0
 40
1.0
 40
1.0
 10
22.3736014676
 20
50.1331098278
 30
0.0
 10
22.3738965234
 20
50.1324811347
 30
0.0
 10
22.3751715317
 20
50.1299332091
 30
0.0
 10
22.3767012606
 20
50.1275141867
 30
0.0
 10
22.3779741679
 20
50.125776489
 30
0.0
  0
SPLINE
  5
34E
100
AcDbEntity
  8
0
100
AcDbSpline
 62
7
  6
BYLAYER
 70
0
 71
3
 72
9
 73
5
 74
0
 42
0.0000001
 43
0.0000001
 44
0.0000000001
 40
0.0
 40
0.0
 40
0.0
 40
0.0
 40
0.2533814304
 40
1.0
 40
1.0
 40
1.0
 40
1.0
 10
18.3455551538
 20
48.3654687278
 30
0.0
 10
18.3396694682
 20
48.3663013698
 30
0.0
 10
18.3164862
 20
48.3698961501
 30
0.0
 10
18.2934909074
 20
48.3747326812
 30
0.0
 10
18.2765299055
 20
48.3791052364
 30
0.0
  0
SPLINE
  5
34F
100
AcDbEntity
  8
0
100
AcDbSpline
 62
7
  6
BYLAYER
 70
0
 71
3
 72
9
 73
5
 74
0
 42
0.0000001
 43
0.0000001
 44
0.0000000001
 40
0.0
 40
0.0
 40
0.0
 40
0.0
 40
0.2578653494
 40
1.0
 40
1.0
 40
1.0
 40
1.0
 10
18.2765299055
 20
48.3791052364
 30
0.0
 10
18.2693126258
 20
48.3809658549
 30
0.0
 10
18.2414682392
 20
48.3887197278
 30
0.0
 10
18.2142148442
 20
48.3986684853
 30
0.0
 10
18.1946332968
 20
48.4074253942
 30
0.0
  0
SPLINE
  5
350
100
AcDbEntity
  8
0
100
AcDbSpline
 62
7
  6
BYLAYER
 70
0
 71
3
 72
9
 73
5
 74
0
 42
0.0000001
 43
0.0000001
 44
0.0000000001
 40
0.0
 40
0.0
 40
0.0
 40
0.0
 40
0.2555315268
 40
1.0
 40
1.0
 40
1.0
 40
1.0
 10
18.1946332968
 20
48.4074253942
 30
0.0
 10
18.1913313398
 20
48.4089020362
 30
0.0
 10
18.1784789889
 20
48.4148344004
 30
0.0
 10
18.1659104729
 20
48.4213867894
 30
0.0
 10
18.1567708243
 20
48.4266325695
 30
0.0
  0
SPLINE
  5
351
100
AcDbEntity
  8
0
100
AcDbSpline
 62
7
  6
BYLAYER
 70
0
 71
3
 72
15
 73
11
 74
0
 42
0.0000001
 43
0.0000001
 44
0.0000000001
 40
0.0
 40
0.0
 40
0.0
 40
0.0
 40
0.1117353924
 40
0.2313861218
 40
0.3570604358
 40
0.4868109818
 40
0.6183338465
 40
0.7492352807
 40
0.8772735701
 40
1.0
 40
1.0
 40
1.0
 40
1.0
 10
17.449666939
 20
48.0183884415
 30
0.0
 10
17.5064093041
 20
47.9856289635
 30
0.0
 10
17.6290431882
 20
47.9264732844
 30
0.0
 10
17.8276501752
 20
47.8588822118
 30
0.0
 10
18.0427328277
 20
47.8109955342
 30
0.0
 10
18.2683893275
 20
47.7840733653
 30
0.0
 10
18.4986363536
 20
47.7787074652
 30
0.0
 10
18.7273684829
 20
47.7951603338
 30
0.0
 10
18.9483004532
 20
47.8330166234
 30
0.0
 10
19.0902328931
 20
47.8727758418
 30
0.0
 10
19.1582562341
 20
47.896266155
 30
0.0
  0
SPLINE
  5
352
100
AcDbEntity
  8
0
100
AcDbSpline
 62
7
  6
BYLAYER
 70
0
 71
3
 72
11
 73
7
 74
0
 42
0.0000001
 43
0.0000001
 44
0.0000000001
 40
0.0
 40
0.0
 40
0.0
 40
0.0
 40
0.2904478202
 40
0.5498985261
 40
0.7827388076
 40
1.0
 40
1.0
 40
1.0
 40
1.0
 10
19.1582562341
 20
47.896266155
 30
0.0
 10
19.1626453469
 20
47.8988267548
 30
0.0
 10
19.1713740006
 20
47.9030216761
 30
0.0
 10
19.1847981402
 20
47.906302191
 30
0.0
 10
19.1973826041
 20
47.9059643201
 30
0.0
 10
19.2049388344
 20
47.9031709841
 30
0.0
 10
19.2082137276
 20
47.9012415167
 30
0.0
  0
SPLINE
  5
353
100
AcDbEntity
  8
0
100
AcDbSpline
 62
7
  6
BYLAYER
 70
0
 71
3
 72
8
 73
4
 74
0
 42
0.0000001
 43
0.0000001
 44
0.0000000001
 40
0.0
 40
0.0
 40
0.0
 40
0.0
 40
1.0
 40
1.0
 40
1.0
 40
1.0
 10
19.2189514263
 20
47.8930182317
 30
0.0
 10
19.2157697388
 20
47.8962121355
 30
0.0
 10
19.2121334321
 20
47.899014395
 30
0.0
 10
19.2082133009
 20
47.9012407661
 30
0.0
  0
SPLINE
  5
354
100
AcDbEntity
  8
0
100
AcDbSpline
 62
7
  6
BYLAYER
 70
0
 71
3
 72
13
 73
9
 74
0
 42
0.0000001
 43
0.0000001
 44
0.0000000001
 40
0.0
 40
0.0
 40
0.0
 40
0.0
 40
0.2819728946
 40
0.4181780272
 40
0.5473597215
 40
0.6695636066
 40
0.7861647366
 40
1.0
 40
1.0
 40
1.0
 40
1.0
 10
19.2268313711
 20
47.7949344395
 30
0.0
 10
19.2310642839
 20
47.8037290477
 30
0.0
 10
19.2352111126
 20
47.817864052
 30
0.0
 10
19.2372054425
 20
47.8367184208
 30
0.0
 10
19.2371133054
 20
47.8501691396
 30
0.0
 10
19.2352719292
 20
47.8628319701
 30
0.0
 10
19.2304266871
 20
47.8777770209
 30
0.0
 10
19.2241133462
 20
47.8877134958
 30
0.0
 10
19.2189514263
 20
47.8930182317
 30
0.0
  0
SPLINE
  5
355
100
AcDbEntity
  8
0
100
AcDbSpline
 62
7
  6
BYLAYER
 70
0
 71
3
 72
9
 73
5
 74
0
 42
0.0000001
 43
0.0000001
 44
0.0000000001
 40
0.0
 40
0.0
 40
0.0
 40
0.0
 40
0.2371985076
 40
1.0
 40
1.0
 40
1.0
 40
1.0
 10
19.2095879629
 20
47.765068464
 30
0.0
 10
19.211228654
 20
47.7672446129
 30
0.0
 10
19.2178132161
 20
47.7766668184
 30
0.0
 10
19.2231755013
 20
47.7869272223
 30
0.0
 10
19.2265698916
 20
47.7950075861
 30
0.0
  0
SPLINE
  5
356
100
AcDbEntity
  8
0
100
AcDbSpline
 62
7
  6
BYLAYER
 70
0
 71
3
 72
9
 73
5
 74
0
 42
0.0000001
 43
0.0000001
 44
0.0000000001
 40
0.0
 40
0.0
 40
0.0
 40
0.0
 40
0.2612782839
 40
1.0
 40
1.0
 40
1.0
 40
1.0
 10
19.2079262206
 20
47.7871413455
 30
0.0
 10
19.208195211
 20
47.785231524
 30
0.0
 10
19.2091194109
 20
47.7779083616
 30
0.0
 10
19.2095879434
 20
47.7705214794
 30
0.0
 10
19.2095879433
 20
47.7650684753
 30
0.0
  0
SPLINE
  5
357
100
AcDbEntity
  8
0
100
AcDbSpline
 62
7
  6
BYLAYER
 70
0
 71
3
 72
9
 73
5
 74
0
 42
0.0000001
 43
0.0000001
 44
0.0000000001
 40
0.0
 40
0.0
 40
0.0
 40
0.0
 40
0.2253229044
 40
1.0
 40
1.0
 40
1.0
 40
1.0
 10
19.1582562343
 20
47.8962661552
 30
0.0
 10
19.1601273072
 20
47.8944601202
 30
0.0
 10
19.1681069903
 20
47.8861123328
 30
0.0
 10
19.1748888566
 20
47.8766479921
 30
0.0
 10
19.1794538317
 20
47.8689604517
 30
0.0
  0
SPLINE
  5
358
100
AcDbEntity
  8
0
100
AcDbSpline
 62
7
  6
BYLAYER
 70
0
 71
3
 72
9
 73
5
 74
0
 42
0.0000001
 43
0.0000001
 44
0.0000000001
 40
0.0
 40
0.0
 40
0.0
 40
0.0
 40
0.2405426639
 40
1.0
 40
1.0
 40
1.0
 40
1.0
 10
19.1794538317
 20
47.8689604517
 30
0.0
 10
19.1812291306
 20
47.8659708009
 30
0.0
 10
19.1881740051
 20
47.8532834244
 30
0.0
 10
19.193647577
 20
47.8398332586
 30
0.0
 10
19.1972440337
 20
47.8294611984
 30
0.0
  0
SPLINE
  5
359
100
AcDbEntity
  8
0
100
AcDbSpline
 62
7
  6
BYLAYER
 70
0
 71
3
 72
9
 73
5
 74
0
 42
0.0000001
 43
0.0000001
 44
0.0000000001
 40
0.0
 40
0.0
 40
0.0
 40
0.0
 40
0.2569210767
 40
1.0
 40
1.0
 40
1.0
 40
1.0
 10
19.1972440337
 20
47.8294611984
 30
0.0
 10
19.1984695764
 20
47.8259267745
 30
0.0
 10
19.2029729369
 20
47.8120843145
 30
0.0
 10
19.2064172311
 20
47.7978551151
 30
0.0
 10
19.2079262206
 20
47.7871413455
 30
0.0
  0
SPLINE
  5
35A
100
AcDbEntity
  8
0
100
AcDbSpline
 62
7
  6
BYLAYER
 70
0
 71
3
 72
11
 73
7
 74
0
 42
0.0000001
 43
0.0000001
 44
0.0000000001
 40
0.0
 40
0.0
 40
0.0
 40
0.0
 40
0.2372172691
 40
0.4999983811
 40
0.7627803744
 40
1.0
 40
1.0
 40
1.0
 40
1.0
 10
17.4496669444
 20
48.0183884384
 30
0.0
 10
17.4396289647
 20
48.012593043
 30
0.0
 10
17.4206313297
 20
47.9966047867
 30
0.0
 10
17.3984580521
 20
47.9663044352
 30
0.0
 10
17.3833039491
 20
47.9319514529
 30
0.0
 10
17.3789565593
 20
47.9075047387
 30
0.0
 10
17.3789565593
 20
47.8959137805
 30
0.0
  0
SPLINE
  5
35B
100
AcDbEntity
  8
0
100
AcDbSpline
 62
7
  6
BYLAYER
 70
0
 71
3
 72
15
 73
11
 74
0
 42
0.0000001
 43
0.0000001
 44
0.0000000001
 40
0.0
 40
0.0
 40
0.0
 40
0.0
 40
0.1117700552
 40
0.2313772344
 40
0.3570499825
 40
0.4868092099
 40
0.6183451989
 40
0.7492451083
 40
0.8772337538
 40
1.0
 40
1.0
 40
1.0
 40
1.0
 10
17.3789565602
 20
47.8959137774
 30
0.0
 10
17.4397709972
 20
47.8608033414
 30
0.0
 10
17.5711463615
 20
47.7973948525
 30
0.0
 10
17.7839511596
 20
47.7250216443
 30
0.0
 10
18.0143719451
 20
47.6737219663
 30
0.0
 10
18.2561550882
 20
47.6448172814
 30
0.0
 10
18.5028649036
 20
47.6391263405
 30
0.0
 10
18.7479089248
 20
47.6567482216
 30
0.0
 10
18.9846243955
 20
47.6972654998
 30
0.0
 10
19.1366819253
 20
47.7398920407
 30
0.0
 10
19.2095879441
 20
47.7650684749
 30
0.0
  0
SPLINE
  5
35C
100
AcDbEntity
  8
0
100
AcDbSpline
 62
7
  6
BYLAYER
 70
0
 71
3
 72
15
 73
11
 74
0
 42
0.0000001
 43
0.0000001
 44
0.0000000001
 40
0.0
 40
0.0
 40
0.0
 40
0.0
 40
0.1141241597
 40
0.2373483675
 40
0.3669736385
 40
0.5000010132
 40
0.6330282463
 40
0.7626531026
 40
0.885876683
 40
1.0
 40
1.0
 40
1.0
 40
1.0
 10
16.0354480816
 20
28.5856117556
 30
0.0
 10
16.0354480821
 20
28.5353193325
 30
0.0
 10
16.0446824695
 20
28.4306291493
 30
0.0
 10
16.081386345
 20
28.2726976006
 30
0.0
 10
16.1402548643
 20
28.112724539
 30
0.0
 10
16.2189910461
 20
27.9567314044
 30
0.0
 10
16.3147175489
 20
27.8105478984
 30
0.0
 10
16.4238243665
 20
27.6795806912
 30
0.0
 10
16.5422452644
 20
27.568829745
 30
0.0
 10
16.6282923953
 20
27.5084884978
 30
0.0
 10
16.6718468357
 20
27.4833428979
 30
0.0
  0
SPLINE
  5
35D
100
AcDbEntity
  8
0
100
AcDbSpline
 62
7
  6
BYLAYER
 70
0
 71
3
 72
15
 73
11
 74
0
 42
0.0000001
 43
0.0000001
 44
0.0000000001
 40
0.0
 40
0.0
 40
0.0
 40
0.0
 40
0.1460285328
 40
0.2772658757
 40
0.3954582022
 40
0.5055537416
 40
0.6146557665
 40
0.7301820115
 40
0.8577391175
 40
1.0
 40
1.0
 40
1.0
 40
1.0
 10
16.6718468371
 20
48.3041545336
 30
0.0
 10
16.6335224431
 20
48.3262806327
 30
0.0
 10
16.5572561665
 20
48.3627646587
 30
0.0
 10
16.4401215351
 20
48.3923128195
 30
0.0
 10
16.3297509002
 20
48.3918851686
 30
0.0
 10
16.2306492181
 20
48.360069332
 30
0.0
 10
16.1484085701
 20
48.2974987669
 30
0.0
 10
16.087141969
 20
48.2082331821
 30
0.0
 10
16.0482936717
 20
48.0969838995
 30
0.0
 10
16.0381001132
 20
48.0152864644
 30
0.0
 10
16.0362157426
 20
47.9722164789
 30
0.0
  0
SPLINE
  5
35E
100
AcDbEntity
  8
0
100
AcDbSpline
 62
7
  6
BYLAYER
 70
0
 71
3
 72
15
 73
11
 74
0
 42
0.0000001
 43
0.0000001
 44
0.0000000001
 40
0.0
 40
0.0
 40
0.0
 40
0.0
 40
0.1220601322
 40
0.2494010358
 40
0.3798223866
 40
0.5111104414
 40
0.6409047612
 40
0.7669295481
 40
0.8872096323
 40
1.0
 40
1.0
 40
1.0
 40
1.0
 10
19.2242113356
 20
26.94937358
 30
0.0
 10
19.1525309553
 20
26.9239825679
 30
0.0
 10
19.0029144051
 20
26.8807111811
 30
0.0
 10
18.7696600191
 20
26.8387445347
 30
0.0
 10
18.5276997537
 20
26.8191186186
 30
0.0
 10
18.2834519202
 20
26.8223001782
 30
0.0
 10
18.0433107587
 20
26.8482623361
 30
0.0
 10
17.8135455665
 20
26.8962734182
 30
0.0
 10
17.6002319281
 20
26.9651187537
 30
0.0
 10
17.4678585739
 20
27.0259472803
 30
0.0
 10
17.4062496928
 20
27.0597428533
 30
0.0
  0
SPLINE
  5
35F
100
AcDbEntity
  8
0
100
AcDbSpline
 62
7
  6
BYLAYER
 70
0
 71
3
 72
13
 73
9
 74
0
 42
0.0000001
 43
0.0000001
 44
0.0000000001
 40
0.0
 40
0.0
 40
0.0
 40
0.0
 40
0.2893368746
 40
0.5483245701
 40
0.6677602489
 40
0.7817803163
 40
0.8919213592
 40
1.0
 40
1.0
 40
1.0
 40
1.0
 10
31.3796661176
 20
24.6256145393
 30
0.0
 10
31.4235496251
 20
24.650950543
 30
0.0
 10
31.5031407006
 20
24.7057286999
 30
0.0
 10
31.584539978
 20
24.7913565158
 30
0.0
 10
31.6303808736
 20
24.8647197982
 30
0.0
 10
31.6545766342
 20
24.9200765988
 30
0.0
 10
31.6692613203
 20
24.976632782
 30
0.0
 10
31.6725582028
 20
25.0149272316
 30
0.0
 10
31.6725570648
 20
25.0338552932
 30
0.0
  0
SPLINE
  5
360
100
AcDbEntity
  8
0
100
AcDbSpline
 62
7
  6
BYLAYER
 70
0
 71
3
 72
13
 73
9
 74
0
 42
0.0000001
 43
0.0000001
 44
0.0000000001
 40
0.0
 40
0.0
 40
0.0
 40
0.0
 40
0.1141741951
 40
0.237565701
 40
0.5000016068
 40
0.7624366337
 40
0.8858271109
 40
1.0
 40
1.0
 40
1.0
 40
1.0
 10
5.6409545564
 20
23.9722771978
 30
0.0
 10
5.6409545564
 20
24.000204588
 30
0.0
 10
5.6461002721
 20
24.0583689869
 30
0.0
 10
5.6738396332
 20
24.1777848883
 30
0.0
 10
5.7384730411
 20
24.3242240959
 30
0.0
 10
5.8329756045
 20
24.4534181865
 30
0.0
 10
5.9225223482
 20
24.5371488239
 30
0.0
 10
5.9703208861
 20
24.5706870104
 30
0.0
 10
5.9945064749
 20
24.5846504833
 30
0.0
  0
SPLINE
  5
361
100
AcDbEntity
  8
0
100
AcDbSpline
 62
7
  6
BYLAYER
 70
0
 71
3
 72
15
 73
11
 74
0
 42
0.0000001
 43
0.0000001
 44
0.0000000001
 40
0.0
 40
0.0
 40
0.0
 40
0.0
 40
0.114121027
 40
0.2373422433
 40
0.3669682367
 40
0.4999977428
 40
0.633027548
 40
0.7626543716
 40
0.8858774065
 40
1.0
 40
1.0
 40
1.0
 40
1.0
 10
30.6725563928
 20
25.8503577109
 30
0.0
 10
30.7209492977
 20
25.8224186863
 30
0.0
 10
30.816556384
 20
25.7553754976
 30
0.0
 10
30.9481344834
 20
25.6323203323
 30
0.0
 10
31.0693661787
 20
25.4868018982
 30
0.0
 10
31.1757313276
 20
25.3243735787
 30
0.0
 10
31.2632171748
 20
25.1510447421
 30
0.0
 10
31.3286258056
 20
24.9732949121
 30
0.0
 10
31.3694071605
 20
24.7978155953
 30
0.0
 10
31.3796661178
 20
24.6814943037
 30
0.0
 10
31.3796661178
 20
24.6256145394
 30
0.0
  0
SPLINE
  5
362
100
AcDbEntity
  8
0
100
AcDbSpline
 62
7
  6
BYLAYER
 70
0
 71
3
 72
9
 73
5
 74
0
 42
0.0000001
 43
0.0000001
 44
0.0000000001
 40
0.0
 40
0.0
 40
0.0
 40
0.0
 40
0.2443392054
 40
1.0
 40
1.0
 40
1.0
 40
1.0
 10
5.0488760469
 20
26.0096601996
 30
0.0
 10
5.0564574168
 20
26.0152729465
 30
0.0
 10
5.0884691031
 20
26.0369022255
 30
0.0
 10
5.1241062864
 20
26.0530183892
 30
0.0
 10
5.1518487356
 20
26.0620415167
 30
0.0
  0
SPLINE
  5
363
100
AcDbEntity
  8
0
100
AcDbSpline
 62
7
  6
BYLAYER
 70
0
 71
3
 72
9
 73
5
 74
0
 42
0.0000001
 43
0.0000001
 44
0.0000000001
 40
0.0
 40
0.0
 40
0.0
 40
0.0
 40
0.2467085231
 40
1.0
 40
1.0
 40
1.0
 40
1.0
 10
5.1518487356
 20
26.0620415167
 30
0.0
 10
5.1566291542
 20
26.0635963299
 30
0.0
 10
5.176124026
 20
26.0695313292
 30
0.0
 10
5.1960568984
 20
26.0740126496
 30
0.0
 10
5.2111863494
 20
26.076599469
 30
0.0
  0
SPLINE
  5
364
100
AcDbEntity
  8
0
100
AcDbSpline
 62
7
  6
BYLAYER
 70
0
 71
3
 72
11
 73
7
 74
0
 42
0.0000001
 43
0.0000001
 44
0.0000000001
 40
0.0
 40
0.0
 40
0.0
 40
0.0
 40
0.2819563539
 40
0.5417331173
 40
0.7796688141
 40
1.0
 40
1.0
 40
1.0
 40
1.0
 10
5.3969944471
 20
26.0726905218
 30
0.0
 10
5.4141616884
 20
26.0826018608
 30
0.0
 10
5.4484158809
 20
26.0995776645
 30
0.0
 10
5.5008820649
 20
26.1163010776
 30
0.0
 10
5.5512870395
 20
26.1226159782
 30
0.0
 10
5.5837146211
 20
26.1195695538
 30
0.0
 10
5.5988249365
 20
26.1161592391
 30
0.0
  0
SPLINE
  5
365
100
AcDbEntity
  8
0
100
AcDbSpline
 62
7
  6
BYLAYER
 70
0
 71
3
 72
9
 73
5
 74
0
 42
0.0000001
 43
0.0000001
 44
0.0000000001
 40
0.0
 40
0.0
 40
0.0
 40
0.0
 40
0.2536578809
 40
1.0
 40
1.0
 40
1.0
 40
1.0
 10
5.5988249365
 20
26.1161592391
 30
0.0
 10
5.6030953802
 20
26.1151954236
 30
0.0
 10
5.6197879768
 20
26.1107912789
 30
0.0
 10
5.6358231208
 20
26.1038745922
 30
0.0
 10
5.646978557
 20
26.0974342819
 30
0.0
  0
SPLINE
  5
366
100
AcDbEntity
  8
0
100
AcDbSpline
 62
7
  6
BYLAYER
 70
0
 71
3
 72
12
 73
8
 74
0
 42
0.0000001
 43
0.0000001
 44
0.0000000001
 40
0.0
 40
0.0
 40
0.0
 40
0.0
 40
0.2894807428
 40
0.5486686934
 40
0.7816228848
 40
0.8918276245
 40
1.0
 40
1.0
 40
1.0
 40
1.0
 10
16.7425572227
 20
48.4266291911
 30
0.0
 10
16.698678599
 20
48.4519619542
 30
0.0
 10
16.611366754
 20
48.4934735853
 30
0.0
 10
16.4772954657
 20
48.5259309391
 30
0.0
 10
16.3702085866
 20
48.523073131
 30
0.0
 10
16.2937801742
 20
48.5019002874
 30
0.0
 10
16.2589558369
 20
48.4856198668
 30
0.0
 10
16.2425594594
 20
48.4761534726
 30
0.0
  0
SPLINE
  5
367
100
AcDbEntity
  8
0
100
AcDbSpline
 62
7
  6
BYLAYER
 70
0
 71
3
 72
11
 73
7
 74
0
 42
0.0000001
 43
0.0000001
 44
0.0000000001
 40
0.0
 40
0.0
 40
0.0
 40
0.0
 40
0.2372196258
 40
0.5000016189
 40
0.7627827308
 40
1.0
 40
1.0
 40
1.0
 40
1.0
 10
16.6718468375
 20
48.3041545331
 30
0.0
 10
16.6718468375
 20
48.3157454913
 30
0.0
 10
16.6761942273
 20
48.3401922055
 30
0.0
 10
16.6913483303
 20
48.3745451878
 30
0.0
 10
16.7135216079
 20
48.4048455393
 30
0.0
 10
16.7325192429
 20
48.4208337955
 30
0.0
 10
16.7425572226
 20
48.426629191
 30
0.0
  0
SPLINE
  5
368
100
AcDbEntity
  8
0
100
AcDbSpline
 62
7
  6
BYLAYER
 70
0
 71
3
 72
9
 73
5
 74
0
 42
0.0000001
 43
0.0000001
 44
0.0000000001
 40
0.0
 40
0.0
 40
0.0
 40
0.0
 40
0.2418677649
 40
1.0
 40
1.0
 40
1.0
 40
1.0
 10
5.2111841725
 20
26.0766005653
 30
0.0
 10
5.2260009474
 20
26.07913399
 30
0.0
 10
5.287776062
 20
26.0865127823
 30
0.0
 10
5.3507768167
 20
26.0818253536
 30
0.0
 10
5.3969998501
 20
26.0726904347
 30
0.0
  0
SPLINE
  5
369
100
AcDbEntity
  8
0
100
AcDbSpline
 62
7
  6
BYLAYER
 70
0
 71
3
 72
14
 73
10
 74
0
 42
0.0000001
 43
0.0000001
 44
0.0000000001
 40
0.0
 40
0.0
 40
0.0
 40
0.0
 40
0.1493874699
 40
0.287600502
 40
0.4165864424
 40
0.5390519429
 40
0.6571795923
 40
0.772688009
 40
1.0
 40
1.0
 40
1.0
 40
1.0
 10
23.0937993174
 20
16.1675347902
 30
0.0
 10
23.1289404552
 20
16.1878234146
 30
0.0
 10
23.1995581025
 20
16.2220238731
 30
0.0
 10
23.3078590193
 20
16.256063617
 30
0.0
 10
23.412585425
 20
16.2734857393
 30
0.0
 10
23.513132589
 20
16.2772715075
 30
0.0
 10
23.6097686926
 20
16.2705477471
 30
0.0
 10
23.7336359656
 20
16.2516225414
 30
0.0
 10
23.8243152029
 20
16.2300759791
 30
0.0
 10
23.8843654431
 20
16.2157144251
 30
0.0
  0
SPLINE
  5
36A
100
AcDbEntity
  8
0
100
AcDbSpline
 62
7
  6
BYLAYER
 70
0
 71
3
 72
15
 73
11
 74
0
 42
0.0000001
 43
0.0000001
 44
0.0000000001
 40
0.0
 40
0.0
 40
0.0
 40
0.0
 40
0.1128678571
 40
0.227285405
 40
0.3445609938
 40
0.4657720031
 40
0.5917466028
 40
0.7230028112
 40
0.8593590106
 40
1.0
 40
1.0
 40
1.0
 40
1.0
 10
11.9205272907
 20
25.0668097984
 30
0.0
 10
11.9090849584
 20
25.0371113345
 30
0.0
 10
11.8912607795
 20
24.9751478194
 30
0.0
 10
11.880858316
 20
24.8781036882
 30
0.0
 10
11.8866311905
 20
24.7783224489
 30
0.0
 10
11.9086181799
 20
24.6775324129
 30
0.0
 10
11.9462867771
 20
24.5773174367
 30
0.0
 10
11.9991461477
 20
24.4793729597
 30
0.0
 10
12.0660306412
 20
24.3853626333
 30
0.0
 10
12.1183851511
 20
24.3271421863
 30
0.0
 10
12.1464606885
 20
24.2991329298
 30
0.0
  0
SPLINE
  5
36B
100
AcDbEntity
  8
0
100
AcDbSpline
 62
7
  6
BYLAYER
 70
0
 71
3
 72
13
 73
9
 74
0
 42
0.0000001
 43
0.0000001
 44
0.0000000001
 40
0.0
 40
0.0
 40
0.0
 40
0.0
 40
0.2607180666
 40
0.518823109
 40
0.6454997353
 40
0.7691030093
 40
0.8880834752
 40
1.0
 40
1.0
 40
1.0
 40
1.0
 10
29.6826169062
 20
19.5633164817
 30
0.0
 10
29.7423681709
 20
19.6466009402
 30
0.0
 10
29.8611806874
 20
19.8123918911
 30
0.0
 10
30.0175628648
 20
20.0125234206
 30
0.0
 10
30.1505534527
 20
20.1618330766
 30
0.0
 10
30.2534025116
 20
20.2644668525
 30
0.0
 10
30.3598288252
 20
20.3547128179
 30
0.0
 10
30.4350778739
 20
20.40599864
 30
0.0
 10
30.4731830264
 20
20.4279985288
 30
0.0
  0
SPLINE
  5
36C
100
AcDbEntity
  8
0
100
AcDbSpline
 62
7
  6
BYLAYER
 70
0
 71
3
 72
9
 73
5
 74
0
 42
0.0000001
 43
0.0000001
 44
0.0000000001
 40
0.0
 40
0.0
 40
0.0
 40
0.0
 40
0.4876612603
 40
1.0
 40
1.0
 40
1.0
 40
1.0
 10
12.8165575881
 20
30.2367738366
 30
0.0
 10
12.8165575179
 20
30.2208925214
 30
0.0
 10
12.8213344448
 20
30.1881746391
 30
0.0
 10
12.8347760902
 20
30.1580810423
 30
0.0
 10
12.8432534065
 20
30.1437101237
 30
0.0
  0
SPLINE
  5
36D
100
AcDbEntity
  8
0
100
AcDbSpline
 62
7
  6
BYLAYER
 70
0
 71
3
 72
21
 73
17
 74
0
 42
0.0000001
 43
0.0000001
 44
0.0000000001
 40
0.0
 40
0.0
 40
0.0
 40
0.0
 40
0.0623553653
 40
0.128785971
 40
0.1984256682
 40
0.270415283
 40
0.4174512154
 40
0.5616787321
 40
0.6303060997
 40
0.6954233111
 40
0.7563968699
 40
0.8128586488
 40
0.8647826985
 40
0.9125783183
 40
0.9571731677
 40
1.0
 40
1.0
 40
1.0
 40
1.0
 10
27.490595012
 20
20.9105673416
 30
0.0
 10
27.490595012
 20
20.8691183786
 30
0.0
 10
27.4849298384
 20
20.7834583636
 30
0.0
 10
27.4618689908
 20
20.6533718786
 30
0.0
 10
27.4242349913
 20
20.5200589735
 30
0.0
 10
27.3554120373
 20
20.3407126509
 30
0.0
 10
27.2398966733
 20
20.1273010548
 30
0.0
 10
27.0918496304
 20
19.9376902684
 30
0.0
 10
26.9585738528
 20
19.8093296791
 30
0.0
 10
26.8564644267
 20
19.7293699205
 30
0.0
 10
26.7526864297
 20
19.6658936026
 30
0.0
 10
26.6493677794
 20
19.6202175859
 30
0.0
 10
26.5485482556
 20
19.5934396057
 30
0.0
 10
26.4522164035
 20
19.5863367951
 30
0.0
 10
26.362508645
 20
19.5994850986
 30
0.0
 10
26.3081586238
 20
19.6220674892
 30
0.0
 10
26.2835101955
 20
19.6363110025
 30
0.0
  0
SPLINE
  5
36E
100
AcDbEntity
  8
0
100
AcDbSpline
 62
7
  6
BYLAYER
 70
0
 71
3
 72
11
 73
7
 74
0
 42
0.0000001
 43
0.0000001
 44
0.0000000001
 40
0.0
 40
0.0
 40
0.0
 40
0.0
 40
0.2291059416
 40
0.4705793908
 40
0.7287316604
 40
1.0
 40
1.0
 40
1.0
 40
1.0
 10
10.9481884592
 20
23.0368754649
 30
0.0
 10
10.9308403123
 20
23.0468911909
 30
0.0
 10
10.8910778492
 20
23.0608982018
 30
0.0
 10
10.8264583949
 20
23.0612435878
 30
0.0
 10
10.7607021393
 20
23.0440903312
 30
0.0
 10
10.7187333432
 20
23.0239705937
 30
0.0
 10
10.6981927009
 20
23.0121115225
 30
0.0
  0
SPLINE
  5
36F
100
AcDbEntity
  8
0
100
AcDbSpline
 62
7
  6
BYLAYER
 70
0
 71
3
 72
9
 73
5
 74
0
 42
0.0000001
 43
0.0000001
 44
0.0000000001
 40
0.0
 40
0.0
 40
0.0
 40
0.0
 40
0.2480618344
 40
1.0
 40
1.0
 40
1.0
 40
1.0
 10
4.9851813479
 20
25.9467177524
 30
0.0
 10
4.9896440728
 20
25.9526444112
 30
0.0
 10
5.0085128353
 20
25.9758655302
 30
0.0
 10
5.030801502
 20
25.9962789976
 30
0.0
 10
5.0488760469
 20
26.0096601996
 30
0.0
  0
SPLINE
  5
370
100
AcDbEntity
  8
0
100
AcDbSpline
 62
7
  6
BYLAYER
 70
0
 71
3
 72
15
 73
11
 74
0
 42
0.0000001
 43
0.0000001
 44
0.0000000001
 40
0.0
 40
0.0
 40
0.0
 40
0.0
 40
0.1080034558
 40
0.2180543137
 40
0.3319979528
 40
0.4513544947
 40
0.5772597423
 40
0.7104915143
 40
0.8514579671
 40
1.0
 40
1.0
 40
1.0
 40
1.0
 10
4.7622658301
 20
25.1970096616
 30
0.0
 10
4.7622645262
 20
25.1402201024
 30
0.0
 10
4.7721464696
 20
25.0253361006
 30
0.0
 10
4.8161471684
 20
24.8556353434
 30
0.0
 10
4.8888308253
 20
24.6895977659
 30
0.0
 10
4.9892056482
 20
24.5288932728
 30
0.0
 10
5.1161878485
 20
24.3749873013
 30
0.0
 10
5.2684728071
 20
24.2292077231
 30
0.0
 10
5.4445500542
 20
24.0929661234
 30
0.0
 10
5.5733130419
 20
24.0113291612
 30
0.0
 10
5.6409545522
 20
23.9722772001
 30
0.0
  0
SPLINE
  5
371
100
AcDbEntity
  8
0
100
AcDbSpline
 62
7
  6
BYLAYER
 70
0
 71
3
 72
15
 73
11
 74
0
 42
0.0000001
 43
0.0000001
 44
0.0000000001
 40
0.0
 40
0.0
 40
0.0
 40
0.0
 40
0.0963515486
 40
0.1970931316
 40
0.3057142968
 40
0.4242815958
 40
0.5536737984
 40
0.693721162
 40
0.8433049708
 40
1.0
 40
1.0
 40
1.0
 40
1.0
 10
28.8709570416
 20
8.7264409826
 30
0.0
 10
28.8709498956
 20
8.7114401451
 30
0.0
 10
28.8667266372
 20
8.6806104952
 30
0.0
 10
28.8481074173
 20
8.6363110056
 30
0.0
 10
28.8180199991
 20
8.5946036672
 30
0.0
 10
28.7774223013
 20
8.5563341056
 30
0.0
 10
28.7272702588
 20
8.5222787444
 30
0.0
 10
28.6687300205
 20
8.4931032518
 30
0.0
 10
28.6032163365
 20
8.4695450966
 30
0.0
 10
28.5568429205
 20
8.4580572743
 30
0.0
 10
28.5329101772
 20
8.4533275098
 30
0.0
  0
SPLINE
  5
372
100
AcDbEntity
  8
0
100
AcDbSpline
 62
7
  6
BYLAYER
 70
0
 71
3
 72
15
 73
11
 74
0
 42
0.0000001
 43
0.0000001
 44
0.0000000001
 40
0.0
 40
0.0
 40
0.0
 40
0.0
 40
0.1313186457
 40
0.2519707632
 40
0.3653611795
 40
0.4768367616
 40
0.5920723441
 40
0.7158614321
 40
0.8514625654
 40
1.0
 40
1.0
 40
1.0
 40
1.0
 10
23.4594576567
 20
50.3795511314
 30
0.0
 10
23.4963528137
 20
50.415164499
 30
0.0
 10
23.5614212661
 20
50.489976569
 30
0.0
 10
23.6300783508
 20
50.6165554514
 30
0.0
 10
23.6621379819
 20
50.749386181
 30
0.0
 10
23.6556686407
 20
50.883837325
 30
0.0
 10
23.6113209162
 20
51.0150107458
 30
0.0
 10
23.5312405013
 20
51.138943789
 30
0.0
 10
23.4184962696
 20
51.2527490169
 30
0.0
 10
23.3277455211
 20
51.3174855257
 30
0.0
 10
23.2783357077
 20
51.3478669941
 30
0.0
  0
SPLINE
  5
373
100
AcDbEntity
  8
0
100
AcDbSpline
 62
7
  6
BYLAYER
 70
0
 71
3
 72
13
 73
9
 74
0
 42
0.0000001
 43
0.0000001
 44
0.0000000001
 40
0.0
 40
0.0
 40
0.0
 40
0.0
 40
0.2838686783
 40
0.4163839267
 40
0.541971209
 40
0.6622980869
 40
0.7787266726
 40
1.0
 40
1.0
 40
1.0
 40
1.0
 10
22.5408145854
 20
50.957746339
 30
0.0
 10
22.5531728266
 20
50.9505728066
 30
0.0
 10
22.5708460257
 20
50.9391382526
 30
0.0
 10
22.5916541406
 20
50.9214272913
 30
0.0
 10
22.6047463893
 20
50.907539714
 30
0.0
 10
22.6158998367
 20
50.8930703245
 30
0.0
 10
22.6284610528
 20
50.8737442731
 30
0.0
 10
22.6360269003
 20
50.8583040248
 30
0.0
 10
22.6393720433
 20
50.8476797699
 30
0.0
  0
SPLINE
  5
374
100
AcDbEntity
  8
0
100
AcDbSpline
 62
7
  6
BYLAYER
 70
0
 71
3
 72
15
 73
11
 74
0
 42
0.0000001
 43
0.0000001
 44
0.0000000001
 40
0.0
 40
0.0
 40
0.0
 40
0.0
 40
0.0956368752
 40
0.2061169846
 40
0.3304925079
 40
0.4653566974
 40
0.6055118906
 40
0.7450169425
 40
0.8782443518
 40
1.0
 40
1.0
 40
1.0
 40
1.0
 10
36.7635988459
 20
13.2052894656
 30
0.0
 10
36.7489965309
 20
13.1806601216
 30
0.0
 10
36.7071407549
 20
13.1336465231
 30
0.0
 10
36.6234905974
 20
13.0793848415
 30
0.0
 10
36.5197974557
 20
13.0388633292
 30
0.0
 10
36.4022833705
 20
13.0143095655
 30
0.0
 10
36.2779494304
 20
13.0071988286
 30
0.0
 10
36.1543407054
 20
13.017882091
 30
0.0
 10
36.0391199073
 20
13.0457984428
 30
0.0
 10
35.9685614911
 20
13.0764274197
 30
0.0
 10
35.9369926012
 20
13.0946533144
 30
0.0
  0
SPLINE
  5
375
100
AcDbEntity
  8
0
100
AcDbSpline
 62
7
  6
BYLAYER
 70
0
 71
3
 72
11
 73
7
 74
0
 42
0.0000001
 43
0.0000001
 44
0.0000000001
 40
0.0
 40
0.0
 40
0.0
 40
0.0
 40
0.2739746065
 40
0.5286844055
 40
0.7683806092
 40
1.0
 40
1.0
 40
1.0
 40
1.0
 10
23.5452779845
 20
50.2682653398
 30
0.0
 10
23.5785068755
 20
50.3003398129
 30
0.0
 10
23.6382313848
 20
50.3671082133
 30
0.0
 10
23.706598557
 20
50.4780375469
 30
0.0
 10
23.7484969735
 20
50.5940167184
 30
0.0
 10
23.7579622723
 20
50.6737545521
 30
0.0
 10
23.7579611192
 20
50.7127984357
 30
0.0
  0
SPLINE
  5
376
100
AcDbEntity
  8
0
100
AcDbSpline
 62
7
  6
BYLAYER
 70
0
 71
3
 72
11
 73
7
 74
0
 42
0.0000001
 43
0.0000001
 44
0.0000000001
 40
0.0
 40
0.0
 40
0.0
 40
0.0
 40
0.238445253
 40
0.4871267681
 40
0.7402597952
 40
1.0
 40
1.0
 40
1.0
 40
1.0
 10
23.542546184
 20
50.2897019199
 30
0.0
 10
23.5414533857
 20
50.293057494
 30
0.0
 10
23.5394763544
 20
50.2999938491
 30
0.0
 10
23.5353912962
 20
50.3101932021
 30
0.0
 10
23.5298642708
 20
50.32004358
 30
0.0
 10
23.5256218533
 20
50.3263407974
 30
0.0
 10
23.5236339996
 20
50.329631138
 30
0.0
  0
SPLINE
  5
377
100
AcDbEntity
  8
0
100
AcDbSpline
 62
7
  6
BYLAYER
 70
0
 71
3
 72
9
 73
5
 74
0
 42
0.0000001
 43
0.0000001
 44
0.0000000001
 40
0.0
 40
0.0
 40
0.0
 40
0.0
 40
0.2532514829
 40
1.0
 40
1.0
 40
1.0
 40
1.0
 10
23.5452779417
 20
50.2682665231
 30
0.0
 10
23.5453966974
 20
50.2700934044
 30
0.0
 10
23.545542658
 20
50.2773209395
 30
0.0
 10
23.5443213579
 20
50.2846039558
 30
0.0
 10
23.542546184
 20
50.2897019199
 30
0.0
  0
SPLINE
  5
378
100
AcDbEntity
  8
0
100
AcDbSpline
 62
7
  6
BYLAYER
 70
0
 71
3
 72
9
 73
5
 74
0
 42
0.0000001
 43
0.0000001
 44
0.0000000001
 40
0.0
 40
0.0
 40
0.0
 40
0.0
 40
0.3052232961
 40
1.0
 40
1.0
 40
1.0
 40
1.0
 10
23.5277821903
 20
50.2782937986
 30
0.0
 10
23.5296022332
 20
50.2773461375
 30
0.0
 10
23.5355334354
 20
50.2741858469
 30
0.0
 10
23.5414045952
 20
50.27087919
 30
0.0
 10
23.5452762159
 20
50.2682661744
 30
0.0
  0
SPLINE
  5
379
100
AcDbEntity
  8
0
100
AcDbSpline
 62
7
  6
BYLAYER
 70
0
 71
3
 72
12
 73
8
 74
0
 42
0.0000001
 43
0.0000001
 44
0.0000000001
 40
0.0
 40
0.0
 40
0.0
 40
0.0
 40
0.274117878
 40
0.4065098479
 40
0.5342951145
 40
0.7765249868
 40
1.0
 40
1.0
 40
1.0
 40
1.0
 10
23.496492561
 20
50.2932982656
 30
0.0
 10
23.499056519
 20
50.2913905752
 30
0.0
 10
23.5035525437
 20
50.2896251332
 30
0.0
 10
23.5093340563
 20
50.2873541183
 30
0.0
 10
23.5146512722
 20
50.2848799632
 30
0.0
 10
23.5209151045
 20
50.2819672964
 30
0.0
 10
23.5258404555
 20
50.2796292876
 30
0.0
 10
23.5280334403
 20
50.2782225738
 30
0.0
  0
SPLINE
  5
37A
100
AcDbEntity
  8
0
100
AcDbSpline
 62
7
  6
BYLAYER
 70
0
 71
3
 72
9
 73
5
 74
0
 42
0.0000001
 43
0.0000001
 44
0.0000000001
 40
0.0
 40
0.0
 40
0.0
 40
0.0
 40
0.2395918993
 40
1.0
 40
1.0
 40
1.0
 40
1.0
 10
23.4594576567
 20
50.3795511314
 30
0.0
 10
23.4579148014
 20
50.3786603584
 30
0.0
 10
23.4515809864
 20
50.37476029
 30
0.0
 10
23.4456727555
 20
50.370185858
 30
0.0
 10
23.441431815
 20
50.3664463126
 30
0.0
  0
SPLINE
  5
37B
100
AcDbEntity
  8
0
100
AcDbSpline
 62
7
  6
BYLAYER
 70
0
 71
3
 72
11
 73
7
 74
0
 42
0.0000001
 43
0.0000001
 44
0.0000000001
 40
0.0
 40
0.0
 40
0.0
 40
0.0
 40
0.2551125864
 40
0.5103578553
 40
0.7612150363
 40
1.0
 40
1.0
 40
1.0
 40
1.0
 10
23.5236339996
 20
50.329631138
 30
0.0
 10
23.5196323494
 20
50.3353995906
 30
0.0
 10
23.5107796312
 20
50.3463734208
 30
0.0
 10
23.4953156117
 20
50.3606393479
 30
0.0
 10
23.4779492806
 20
50.3717307637
 30
0.0
 10
23.4655772283
 20
50.3771573882
 30
0.0
 10
23.4594573376
 20
50.3795507176
 30
0.0
  0
SPLINE
  5
37C
100
AcDbEntity
  8
0
100
AcDbSpline
 62
7
  6
BYLAYER
 70
0
 71
3
 72
9
 73
5
 74
0
 42
0.0000001
 43
0.0000001
 44
0.0000000001
 40
0.0
 40
0.0
 40
0.0
 40
0.0
 40
0.2403388527
 40
1.0
 40
1.0
 40
1.0
 40
1.0
 10
23.441431815
 20
50.3664463126
 30
0.0
 10
23.4383622841
 20
50.3637396922
 30
0.0
 10
23.4261211915
 20
50.3518833666
 30
0.0
 10
23.4159254664
 20
50.3379713831
 30
0.0
 10
23.4094578657
 20
50.326769108
 30
0.0
  0
SPLINE
  5
37D
100
AcDbEntity
  8
0
100
AcDbSpline
 62
7
  6
BYLAYER
 70
0
 71
3
 72
11
 73
7
 74
0
 42
0.0000001
 43
0.0000001
 44
0.0000000001
 40
0.0
 40
0.0
 40
0.0
 40
0.0
 40
0.231343666
 40
0.4852736106
 40
0.7467107525
 40
1.0
 40
1.0
 40
1.0
 40
1.0
 10
23.4094578659
 20
50.3267691078
 30
0.0
 10
23.4163676151
 20
50.3247658187
 30
0.0
 10
23.4306045224
 20
50.3197192767
 30
0.0
 10
23.4523773431
 20
50.3116605315
 30
0.0
 10
23.4745788665
 20
50.3027847513
 30
0.0
 10
23.4892168963
 20
50.2963022284
 30
0.0
 10
23.4965014711
 20
50.2933058711
 30
0.0
  0
SPLINE
  5
37E
100
AcDbEntity
  8
0
100
AcDbSpline
 62
7
  6
BYLAYER
 70
0
 71
3
 72
11
 73
7
 74
0
 42
0.0000001
 43
0.0000001
 44
0.0000000001
 40
0.0
 40
0.0
 40
0.0
 40
0.0
 40
0.2635885217
 40
0.5213524507
 40
0.7680235846
 40
1.0
 40
1.0
 40
1.0
 40
1.0
 10
22.6225556426
 20
50.8409493748
 30
0.0
 10
22.6139327695
 20
50.8382857125
 30
0.0
 10
22.5975471122
 20
50.8307146578
 30
0.0
 10
22.5764553382
 20
50.8146560232
 30
0.0
 10
22.5605602706
 20
50.7947202652
 30
0.0
 10
22.5540276878
 20
50.7794356425
 30
0.0
 10
22.5519358078
 20
50.771773512
 30
0.0
  0
SPLINE
  5
37F
100
AcDbEntity
  8
0
100
AcDbSpline
 62
7
  6
BYLAYER
 70
0
 71
3
 72
9
 73
5
 74
0
 42
0.0000001
 43
0.0000001
 44
0.0000000001
 40
0.0
 40
0.0
 40
0.0
 40
0.0
 40
0.4997391525
 40
1.0
 40
1.0
 40
1.0
 40
1.0
 10
22.6346363852
 20
50.8441975265
 30
0.0
 10
22.6326138371
 20
50.8436926097
 30
0.0
 10
22.6285312312
 20
50.8428238858
 30
0.0
 10
22.624538438
 20
50.8415999453
 30
0.0
 10
22.6225556426
 20
50.8409493748
 30
0.0
  0
SPLINE
  5
380
100
AcDbEntity
  8
0
100
AcDbSpline
 62
7
  6
BYLAYER
 70
0
 71
3
 72
10
 73
6
 74
0
 42
0.0000001
 43
0.0000001
 44
0.0000000001
 40
0.0
 40
0.0
 40
0.0
 40
0.0
 40
0.2536737484
 40
0.5044732798
 40
1.0
 40
1.0
 40
1.0
 40
1.0
 10
22.6273106647
 20
50.8369586804
 30
0.0
 10
22.6283327224
 20
50.8378438522
 30
0.0
 10
22.6300075294
 20
50.8399723547
 30
0.0
 10
22.6339349134
 20
50.8435981733
 30
0.0
 10
22.6373953705
 20
50.8456529735
 30
0.0
 10
22.6393145125
 20
50.847467536
 30
0.0
  0
SPLINE
  5
381
100
AcDbEntity
  8
0
100
AcDbSpline
 62
7
  6
BYLAYER
 70
0
 71
3
 72
9
 73
5
 74
0
 42
0.0000001
 43
0.0000001
 44
0.0000000001
 40
0.0
 40
0.0
 40
0.0
 40
0.0
 40
0.5155459154
 40
1.0
 40
1.0
 40
1.0
 40
1.0
 10
22.5967567846
 20
50.7959716811
 30
0.0
 10
22.6012113908
 20
50.8035598987
 30
0.0
 10
22.6106824165
 20
50.8177992947
 30
0.0
 10
22.6215929693
 20
50.8309857918
 30
0.0
 10
22.6273106647
 20
50.8369586804
 30
0.0
  0
SPLINE
  5
382
100
AcDbEntity
  8
0
100
AcDbSpline
 62
7
  6
BYLAYER
 70
0
 71
3
 72
10
 73
6
 74
0
 42
0.0000001
 43
0.0000001
 44
0.0000000001
 40
0.0
 40
0.0
 40
0.0
 40
0.0
 40
0.1987102132
 40
0.4367387991
 40
1.0
 40
1.0
 40
1.0
 40
1.0
 10
22.5522173159
 20
50.7605122933
 30
0.0
 10
22.5539856099
 20
50.7639020671
 30
0.0
 10
22.5590292566
 20
50.7707492549
 30
0.0
 10
22.5733245062
 20
50.7837257833
 30
0.0
 10
22.5869206776
 20
50.7914219263
 30
0.0
 10
22.5967567847
 20
50.795971681
 30
0.0
  0
SPLINE
  5
383
100
AcDbEntity
  8
0
100
AcDbSpline
 62
7
  6
BYLAYER
 70
0
 71
3
 72
9
 73
5
 74
0
 42
0.0000001
 43
0.0000001
 44
0.0000000001
 40
0.0
 40
0.0
 40
0.0
 40
0.0
 40
0.2360238861
 40
1.0
 40
1.0
 40
1.0
 40
1.0
 10
22.5495606916
 20
50.7535272073
 30
0.0
 10
22.5496947184
 20
50.7541005952
 30
0.0
 10
22.5503497818
 20
50.7565094323
 30
0.0
 10
22.5513357743
 20
50.758822401
 30
0.0
 10
22.5522173159
 20
50.7605122933
 30
0.0
  0
SPLINE
  5
384
100
AcDbEntity
  8
0
100
AcDbSpline
 62
7
  6
BYLAYER
 70
0
 71
3
 72
9
 73
5
 74
0
 42
0.0000001
 43
0.0000001
 44
0.0000000001
 40
0.0
 40
0.0
 40
0.0
 40
0.0
 40
0.2544481037
 40
1.0
 40
1.0
 40
1.0
 40
1.0
 10
22.5519357599
 20
50.7717718418
 30
0.0
 10
22.5515451101
 20
50.7702586292
 30
0.0
 10
22.5501807498
 20
50.7642692856
 30
0.0
 10
22.5495606913
 20
50.7581063986
 30
0.0
 10
22.549560691
 20
50.7535272072
 30
0.0
  0
SPLINE
  5
385
100
AcDbEntity
  8
0
100
AcDbSpline
 62
7
  6
BYLAYER
 70
0
 71
3
 72
9
 73
5
 74
0
 42
0.0000001
 43
0.0000001
 44
0.0000000001
 40
0.0
 40
0.0
 40
0.0
 40
0.0
 40
0.5387707934
 40
1.0
 40
1.0
 40
1.0
 40
1.0
 10
22.4701041876
 20
50.835271689
 30
0.0
 10
22.4880654029
 20
50.8249020102
 30
0.0
 10
22.5195940628
 20
50.802014309
 30
0.0
 10
22.5426986885
 20
50.7699023509
 30
0.0
 10
22.5495606914
 20
50.7535272089
 30
0.0
  0
SPLINE
  5
386
100
AcDbEntity
  8
0
100
AcDbSpline
 62
7
  6
BYLAYER
 70
0
 71
3
 72
11
 73
7
 74
0
 42
0.0000001
 43
0.0000001
 44
0.0000000001
 40
0.0
 40
0.0
 40
0.0
 40
0.0
 40
0.2372172677
 40
0.4999983785
 40
0.7627803718
 40
1.0
 40
1.0
 40
1.0
 40
1.0
 10
22.5408145703
 20
50.9577463477
 30
0.0
 10
22.5307765908
 20
50.9519509524
 30
0.0
 10
22.511778956
 20
50.9359626966
 30
0.0
 10
22.4896056786
 20
50.9056623457
 30
0.0
 10
22.4744515754
 20
50.8713093639
 30
0.0
 10
22.4701041852
 20
50.84686265
 30
0.0
 10
22.470104185
 20
50.8352716917
 30
0.0
  0
SPLINE
  5
387
100
AcDbEntity
  8
0
100
AcDbSpline
 62
7
  6
BYLAYER
 70
0
 71
3
 72
9
 73
5
 74
0
 42
0.0000001
 43
0.0000001
 44
0.0000000001
 40
0.0
 40
0.0
 40
0.0
 40
0.0
 40
0.275560183
 40
1.0
 40
1.0
 40
1.0
 40
1.0
 10
36.0466020787
 20
12.5414827795
 30
0.0
 10
36.1247684179
 20
12.5866118671
 30
0.0
 10
36.3998727133
 20
12.7632179816
 30
0.0
 10
36.6425854088
 20
13.0011792727
 30
0.0
 10
36.7635988459
 20
13.2052894656
 30
0.0
  0
SPLINE
  5
388
100
AcDbEntity
  8
0
100
AcDbSpline
 62
7
  6
BYLAYER
 70
0
 71
3
 72
11
 73
7
 74
0
 42
0.0000001
 43
0.0000001
 44
0.0000000001
 40
0.0
 40
0.0
 40
0.0
 40
0.0
 40
0.2175665598
 40
0.4506251555
 40
0.7103029754
 40
1.0
 40
1.0
 40
1.0
 40
1.0
 10
28.6209750476
 20
12.8337129843
 30
0.0
 10
28.6044966311
 20
12.8432217402
 30
0.0
 10
28.5666388125
 20
12.8569884169
 30
0.0
 10
28.5036897404
 20
12.8586026719
 30
0.0
 10
28.4365996345
 20
12.8423609317
 30
0.0
 10
28.392920217
 20
12.8216191733
 30
0.0
 10
28.3709815491
 20
12.8089529535
 30
0.0
  0
SPLINE
  5
389
100
AcDbEntity
  8
0
100
AcDbSpline
 62
7
  6
BYLAYER
 70
0
 71
3
 72
11
 73
7
 74
0
 42
0.0000001
 43
0.0000001
 44
0.0000000001
 40
0.0
 40
0.0
 40
0.0
 40
0.0
 40
0.2647637947
 40
0.5208437914
 40
0.7664080861
 40
1.0
 40
1.0
 40
1.0
 40
1.0
 10
28.5329101772
 20
8.4533275098
 30
0.0
 10
28.6391494362
 20
8.4743232927
 30
0.0
 10
28.8467908785
 20
8.5229232075
 30
0.0
 10
29.1461447019
 20
8.6169863962
 30
0.0
 10
29.4251630009
 20
8.7300600507
 30
0.0
 10
29.5999238091
 20
8.8195135623
 30
0.0
 10
29.6826675433
 20
8.8672853944
 30
0.0
  0
SPLINE
  5
38A
100
AcDbEntity
  8
0
100
AcDbSpline
 62
7
  6
BYLAYER
 70
0
 71
3
 72
11
 73
7
 74
0
 42
0.0000001
 43
0.0000001
 44
0.0000000001
 40
0.0
 40
0.0
 40
0.0
 40
0.0
 40
0.2279507023
 40
0.474790709
 40
0.7344411457
 40
1.0
 40
1.0
 40
1.0
 40
1.0
 10
21.1265957087
 20
31.5249696639
 30
0.0
 10
21.1265957093
 20
31.4714960161
 30
0.0
 10
21.1370319733
 20
31.3600111233
 30
0.0
 10
21.1782251565
 20
31.1922081042
 30
0.0
 10
21.244001359
 20
31.0229703725
 30
0.0
 10
21.302286303
 20
30.9140309918
 30
0.0
 10
21.334910528
 20
30.8609608246
 30
0.0
  0
SPLINE
  5
38B
100
AcDbEntity
  8
0
100
AcDbSpline
 62
7
  6
BYLAYER
 70
0
 71
3
 72
15
 73
11
 74
0
 42
0.0000001
 43
0.0000001
 44
0.0000000001
 40
0.0
 40
0.0
 40
0.0
 40
0.0
 40
0.1460285326
 40
0.2772658754
 40
0.3954582018
 40
0.5055537411
 40
0.6146557662
 40
0.7301820111
 40
0.8577391172
 40
1.0
 40
1.0
 40
1.0
 40
1.0
 10
21.7629944625
 20
51.2435124447
 30
0.0
 10
21.7246700686
 20
51.2656385437
 30
0.0
 10
21.6484037922
 20
51.3021225693
 30
0.0
 10
21.5312691611
 20
51.3316707293
 30
0.0
 10
21.4208985265
 20
51.331243078
 30
0.0
 10
21.3217968449
 20
51.2994272411
 30
0.0
 10
21.2395561972
 20
51.2368566761
 30
0.0
 10
21.178289596
 20
51.1475910917
 30
0.0
 10
21.1394412985
 20
51.0363418093
 30
0.0
 10
21.1292477403
 20
50.9546443742
 30
0.0
 10
21.1273633701
 20
50.9115743887
 30
0.0
  0
SPLINE
  5
38C
100
AcDbEntity
  8
0
100
AcDbSpline
 62
7
  6
BYLAYER
 70
0
 71
3
 72
11
 73
7
 74
0
 42
0.0000001
 43
0.0000001
 44
0.0000000001
 40
0.0
 40
0.0
 40
0.0
 40
0.0
 40
0.2894493853
 40
0.5491298614
 40
0.7822953729
 40
1.0
 40
1.0
 40
1.0
 40
1.0
 10
12.9630055055
 20
26.3583908826
 30
0.0
 10
12.9410857744
 20
26.371045959
 30
0.0
 10
12.901305732
 20
26.3984938724
 30
0.0
 10
12.8536853271
 20
26.4484471765
 30
0.0
 10
12.8235884033
 20
26.5037825151
 30
0.0
 10
12.8165728568
 20
26.5434759062
 30
0.0
 10
12.8165819255
 20
26.562512845
 30
0.0
  0
SPLINE
  5
38D
100
AcDbEntity
  8
0
100
AcDbSpline
 62
7
  6
BYLAYER
 70
0
 71
3
 72
11
 73
7
 74
0
 42
0.0000001
 43
0.0000001
 44
0.0000000001
 40
0.0
 40
0.0
 40
0.0
 40
0.0
 40
0.2177504419
 40
0.4508934119
 40
0.7104646156
 40
1.0
 40
1.0
 40
1.0
 40
1.0
 10
35.9430166349
 20
18.8940713414
 30
0.0
 10
35.9265265351
 20
18.9035916926
 30
0.0
 10
35.8886500901
 20
18.9173850296
 30
0.0
 10
35.8256840257
 20
18.9189633511
 30
0.0
 10
35.7586126796
 20
18.902728001
 30
0.0
 10
35.7149587284
 20
18.8819865597
 30
0.0
 10
35.693032491
 20
18.8693275162
 30
0.0
  0
SPLINE
  5
38E
100
AcDbEntity
  8
0
100
AcDbSpline
 62
7
  6
BYLAYER
 70
0
 71
3
 72
12
 73
8
 74
0
 42
0.0000001
 43
0.0000001
 44
0.0000000001
 40
0.0
 40
0.0
 40
0.0
 40
0.0
 40
0.1081712361
 40
0.218374993
 40
0.4513281548
 40
0.7105167939
 40
1.0
 40
1.0
 40
1.0
 40
1.0
 10
23.5914751673
 20
15.8074736656
 30
0.0
 10
23.5914751682
 20
15.8264061691
 30
0.0
 10
23.594788024
 20
15.8647044297
 30
0.0
 10
23.6146660978
 20
15.941478473
 30
0.0
 10
23.6657351532
 20
16.0356457251
 30
0.0
 10
23.7608805179
 20
16.1355241739
 30
0.0
 10
23.8404870308
 20
16.190381358
 30
0.0
 10
23.8843654431
 20
16.2157144206
 30
0.0
  0
SPLINE
  5
38F
100
AcDbEntity
  8
0
100
AcDbSpline
 62
7
  6
BYLAYER
 70
0
 71
3
 72
12
 73
8
 74
0
 42
0.0000001
 43
0.0000001
 44
0.0000000001
 40
0.0
 40
0.0
 40
0.0
 40
0.0
 40
0.1081878653
 40
0.2183664454
 40
0.4513088412
 40
0.7105431684
 40
1.0
 40
1.0
 40
1.0
 40
1.0
 10
31.1725490745
 20
25.8998876152
 30
0.0
 10
31.1561499867
 20
25.9093543859
 30
0.0
 10
31.1213306615
 20
25.9256397058
 30
0.0
 10
31.0449056499
 20
25.9468110597
 30
0.0
 10
30.9378181671
 20
25.9496534411
 30
0.0
 10
30.8037468633
 20
25.9171993776
 30
0.0
 10
30.7164308048
 20
25.8756884631
 30
0.0
 10
30.6725563945
 20
25.8503577119
 30
0.0
  0
SPLINE
  5
390
100
AcDbEntity
  8
0
100
AcDbSpline
 62
7
  6
BYLAYER
 70
0
 71
3
 72
12
 73
8
 74
0
 42
0.0000001
 43
0.0000001
 44
0.0000000001
 40
0.0
 40
0.0
 40
0.0
 40
0.0
 40
0.2894807428
 40
0.5486686934
 40
0.7816228848
 40
0.8918276245
 40
1.0
 40
1.0
 40
1.0
 40
1.0
 10
21.8337048512
 20
51.3659870992
 30
0.0
 10
21.7898262274
 20
51.3913198624
 30
0.0
 10
21.7025143824
 20
51.4328314934
 30
0.0
 10
21.5684430941
 20
51.4652888473
 30
0.0
 10
21.4613562151
 20
51.4624310392
 30
0.0
 10
21.3849278026
 20
51.4412581956
 30
0.0
 10
21.3501034654
 20
51.4249777749
 30
0.0
 10
21.3337070879
 20
51.4155113807
 30
0.0
  0
SPLINE
  5
391
100
AcDbEntity
  8
0
100
AcDbSpline
 62
7
  6
BYLAYER
 70
0
 71
3
 72
11
 73
7
 74
0
 42
0.0000001
 43
0.0000001
 44
0.0000000001
 40
0.0
 40
0.0
 40
0.0
 40
0.0
 40
0.2372196275
 40
0.5000016207
 40
0.7627827317
 40
1.0
 40
1.0
 40
1.0
 40
1.0
 10
21.7629944655
 20
51.243512443
 30
0.0
 10
21.7629944657
 20
51.2551034012
 30
0.0
 10
21.7673418559
 20
51.279550115
 30
0.0
 10
21.782495959
 20
51.3139030968
 30
0.0
 10
21.8046692365
 20
51.3442034478
 30
0.0
 10
21.8236668713
 20
51.3601917037
 30
0.0
 10
21.8337048508
 20
51.365987099
 30
0.0
  0
SPLINE
  5
392
100
AcDbEntity
  8
0
100
AcDbSpline
 62
7
  6
BYLAYER
 70
0
 71
3
 72
15
 73
11
 74
0
 42
0.0000001
 43
0.0000001
 44
0.0000000001
 40
0.0
 40
0.0
 40
0.0
 40
0.0
 40
0.1141236058
 40
0.2373475863
 40
0.3669728832
 40
0.5000004527
 40
0.6330279587
 40
0.7626530686
 40
0.8858767806
 40
1.0
 40
1.0
 40
1.0
 40
1.0
 10
31.0968304697
 20
15.889059006
 30
0.0
 10
31.0484366133
 20
15.91699858
 30
0.0
 10
30.9425683269
 20
15.9662727722
 30
0.0
 10
30.7702079131
 20
16.0186928103
 30
0.0
 10
30.5835692601
 20
16.05091962
 30
0.0
 10
30.3897225929
 20
16.0618182536
 30
0.0
 10
30.1958760678
 20
16.050918722
 30
0.0
 10
30.00923782
 20
16.0186910395
 30
0.0
 10
29.8368780893
 20
15.9662701613
 30
0.0
 10
29.7310103976
 20
15.9169954347
 30
0.0
 10
29.6826169066
 20
15.8890556063
 30
0.0
  0
SPLINE
  5
393
100
AcDbEntity
  8
0
100
AcDbSpline
 62
7
  6
BYLAYER
 70
0
 71
3
 72
15
 73
11
 74
0
 42
0.0000001
 43
0.0000001
 44
0.0000000001
 40
0.0
 40
0.0
 40
0.0
 40
0.0
 40
0.1484814966
 40
0.28947671
 40
0.4227580283
 40
0.5486650146
 40
0.6680010247
 40
0.7819364217
 40
0.891989791
 40
1.0
 40
1.0
 40
1.0
 40
1.0
 10
31.8746629432
 20
13.8070243593
 30
0.0
 10
31.9219923845
 20
13.7796993118
 30
0.0
 10
32.0121082804
 20
13.7225478971
 30
0.0
 10
32.1353707221
 20
13.6271825953
 30
0.0
 10
32.2420046328
 20
13.5251302992
 30
0.0
 10
32.3308922777
 20
13.4173829777
 30
0.0
 10
32.4011494586
 20
13.3048972805
 30
0.0
 10
32.4519922923
 20
13.1886702304
 30
0.0
 10
32.4828461716
 20
13.0698927982
 30
0.0
 10
32.4897294479
 20
12.9894665448
 30
0.0
 10
32.4897294484
 20
12.9497116361
 30
0.0
  0
SPLINE
  5
394
100
AcDbEntity
  8
0
100
AcDbSpline
 62
7
  6
BYLAYER
 70
0
 71
3
 72
15
 73
11
 74
0
 42
0.0000001
 43
0.0000001
 44
0.0000000001
 40
0.0
 40
0.0
 40
0.0
 40
0.0
 40
0.1141464977
 40
0.2373352781
 40
0.3669759339
 40
0.4999994787
 40
0.633023096
 40
0.7626639634
 40
0.8858530776
 40
1.0
 40
1.0
 40
1.0
 40
1.0
 10
28.9048144628
 20
13.807017221
 30
0.0
 10
29.0064617603
 20
13.8657029651
 30
0.0
 10
29.2287611049
 20
13.9692046973
 30
0.0
 10
29.590735218
 20
14.0792464746
 30
0.0
 10
29.9826483065
 20
14.146940613
 30
0.0
 10
30.3897361989
 20
14.1698083917
 30
0.0
 10
30.7968244167
 20
14.1469425451
 30
0.0
 10
31.1887384666
 20
14.0792502674
 30
0.0
 10
31.5507141379
 20
13.9692102108
 30
0.0
 10
31.7730148444
 20
13.8657095888
 30
0.0
 10
31.8746629432
 20
13.8070243593
 30
0.0
  0
SPLINE
  5
395
100
AcDbEntity
  8
0
100
AcDbSpline
 62
7
  6
BYLAYER
 70
0
 71
3
 72
15
 73
11
 74
0
 42
0.0000001
 43
0.0000001
 44
0.0000000001
 40
0.0
 40
0.0
 40
0.0
 40
0.0
 40
0.1516581065
 40
0.2922014229
 40
0.4215541063
 40
0.5414748408
 40
0.6551008744
 40
0.7665154288
 40
0.8801093049
 40
1.0
 40
1.0
 40
1.0
 40
1.0
 10
23.2479272389
 20
42.8743916252
 30
0.0
 10
23.247927239
 20
42.896800692
 30
0.0
 10
23.2453565994
 20
42.9400418443
 30
0.0
 10
23.232958423
 20
43.0013277202
 30
0.0
 10
23.2120506523
 20
43.0553495373
 30
0.0
 10
23.1829455888
 20
43.1008764755
 30
0.0
 10
23.1460762311
 20
43.136782998
 30
0.0
 10
23.102286912
 20
43.1620707889
 30
0.0
 10
23.0527735971
 20
43.17603237
 30
0.0
 10
23.0180024145
 20
43.1775826751
 30
0.0
 10
23.0003092823
 20
43.1767007111
 30
0.0
  0
SPLINE
  5
396
100
AcDbEntity
  8
0
100
AcDbSpline
 62
7
  6
BYLAYER
 70
0
 71
3
 72
9
 73
5
 74
0
 42
0.0000001
 43
0.0000001
 44
0.0000000001
 40
0.0
 40
0.0
 40
0.0
 40
0.0
 40
0.4701018703
 40
1.0
 40
1.0
 40
1.0
 40
1.0
 10
23.0003092823
 20
43.1767007111
 30
0.0
 10
22.9710429835
 20
43.17524185
 30
0.0
 10
22.9091941691
 20
43.1623417434
 30
0.0
 10
22.852269711
 20
43.1358614543
 30
0.0
 10
22.8236649457
 20
43.119346584
 30
0.0
  0
SPLINE
  5
397
100
AcDbEntity
  8
0
100
AcDbSpline
 62
7
  6
BYLAYER
 70
0
 71
3
 72
11
 73
7
 74
0
 42
0.0000001
 43
0.0000001
 44
0.0000000001
 40
0.0
 40
0.0
 40
0.0
 40
0.0
 40
0.2372185791
 40
0.5000005249
 40
0.762782185
 40
1.0
 40
1.0
 40
1.0
 40
1.0
 10
23.1065058842
 20
42.8743912852
 30
0.0
 10
23.1165439489
 20
42.868595937
 30
0.0
 10
23.1398891201
 20
42.8601377919
 30
0.0
 10
23.1772166725
 20
42.8560854036
 30
0.0
 10
23.2145441687
 20
42.8601379618
 30
0.0
 10
23.2378892483
 20
42.8685962226
 30
0.0
 10
23.2479272389
 20
42.8743916244
 30
0.0
  0
SPLINE
  5
398
100
AcDbEntity
  8
0
100
AcDbSpline
 62
7
  6
BYLAYER
 70
0
 71
3
 72
9
 73
5
 74
0
 42
0.0000001
 43
0.0000001
 44
0.0000000001
 40
0.0
 40
0.0
 40
0.0
 40
0.0
 40
0.2408494505
 40
1.0
 40
1.0
 40
1.0
 40
1.0
 10
11.2270713337
 20
24.0130360837
 30
0.0
 10
11.253766592
 20
24.0284485063
 30
0.0
 10
11.3661070243
 20
24.0898242521
 30
0.0
 10
11.4838345955
 20
24.1411501637
 30
0.0
 10
11.5748976256
 20
24.175024719
 30
0.0
  0
SPLINE
  5
399
100
AcDbEntity
  8
0
100
AcDbSpline
 62
7
  6
BYLAYER
 70
0
 71
3
 72
13
 73
9
 74
0
 42
0.0000001
 43
0.0000001
 44
0.0000000001
 40
0.0
 40
0.0
 40
0.0
 40
0.0
 40
0.1141728886
 40
0.2375633662
 40
0.4999983921
 40
0.7624342976
 40
0.8858258043
 40
1.0
 40
1.0
 40
1.0
 40
1.0
 10
22.0458442421
 20
31.2392249156
 30
0.0
 10
22.0700298305
 20
31.2531883881
 30
0.0
 10
22.1178283673
 20
31.2867265744
 30
0.0
 10
22.207375109
 20
31.3704572103
 30
0.0
 10
22.3018776709
 20
31.4996512981
 30
0.0
 10
22.3665110787
 20
31.6460905025
 30
0.0
 10
22.3942504407
 20
31.7655064017
 30
0.0
 10
22.3993961574
 20
31.8236707999
 30
0.0
 10
22.3993961579
 20
31.8515981898
 30
0.0
  0
SPLINE
  5
39A
100
AcDbEntity
  8
0
100
AcDbSpline
 62
7
  6
BYLAYER
 70
0
 71
3
 72
14
 73
10
 74
0
 42
0.0000001
 43
0.0000001
 44
0.0000000001
 40
0.0
 40
0.0
 40
0.0
 40
0.0
 40
0.1141013821
 40
0.2374066662
 40
0.3670986378
 40
0.5001870611
 40
0.7624191196
 40
0.8858156853
 40
1.0
 40
1.0
 40
1.0
 40
1.0
 10
22.8236649388
 20
30.7085098424
 30
0.0
 10
22.8526827013
 20
30.7252631554
 30
0.0
 10
22.9100532623
 20
30.7654542873
 30
0.0
 10
22.9890615564
 20
30.8392025293
 30
0.0
 10
23.0618156145
 20
30.9265521931
 30
0.0
 10
23.1463074243
 20
31.055759569
 30
0.0
 10
23.2083146739
 20
31.1967441328
 30
0.0
 10
23.2416300271
 20
31.3399940357
 30
0.0
 10
23.2479272389
 20
31.4098266464
 30
0.0
 10
23.2479272389
 20
31.4433577762
 30
0.0
  0
SPLINE
  5
39B
100
AcDbEntity
  8
0
100
AcDbSpline
 62
7
  6
BYLAYER
 70
0
 71
3
 72
11
 73
7
 74
0
 42
0.0000001
 43
0.0000001
 44
0.0000000001
 40
0.0
 40
0.0
 40
0.0
 40
0.0
 40
0.2372177741
 40
0.4999989082
 40
0.7627806366
 40
1.0
 40
1.0
 40
1.0
 40
1.0
 10
22.7529539666
 20
30.8309841594
 30
0.0
 10
22.7629920149
 20
30.8251888206
 30
0.0
 10
22.7819897983
 20
30.8092006753
 30
0.0
 10
22.8041632743
 20
30.7789004207
 30
0.0
 10
22.8193175135
 20
30.744547497
 30
0.0
 10
22.823664939
 20
30.7201007941
 30
0.0
 10
22.823664939
 20
30.7085098423
 30
0.0
  0
SPLINE
  5
39C
100
AcDbEntity
  8
0
100
AcDbSpline
 62
7
  6
BYLAYER
 70
0
 71
3
 72
13
 73
9
 74
0
 42
0.0000001
 43
0.0000001
 44
0.0000000001
 40
0.0
 40
0.0
 40
0.0
 40
0.0
 40
0.1141741957
 40
0.2375657022
 40
0.5000016078
 40
0.7624366339
 40
0.885827111
 40
1.0
 40
1.0
 40
1.0
 40
1.0
 10
23.1065058839
 20
31.4433574348
 30
0.0
 10
23.1065058836
 20
31.4154300449
 30
0.0
 10
23.1013601668
 20
31.3572656468
 30
0.0
 10
23.0736208045
 20
31.2378497477
 30
0.0
 10
23.008987397
 20
31.0914105431
 30
0.0
 10
22.9144848351
 20
30.9622164553
 30
0.0
 10
22.8249380932
 20
30.8784858195
 30
0.0
 10
22.7771395564
 20
30.8449476333
 30
0.0
 10
22.7529539681
 20
30.8309841606
 30
0.0
  0
SPLINE
  5
39D
100
AcDbEntity
  8
0
100
AcDbSpline
 62
7
  6
BYLAYER
 70
0
 71
3
 72
11
 73
7
 74
0
 42
0.0000001
 43
0.0000001
 44
0.0000000001
 40
0.0
 40
0.0
 40
0.0
 40
0.0
 40
0.2372178149
 40
0.499999475
 40
0.7627814209
 40
1.0
 40
1.0
 40
1.0
 40
1.0
 10
23.2479272389
 20
31.4433577819
 30
0.0
 10
23.2378892483
 20
31.4375623801
 30
0.0
 10
23.2145441687
 20
31.4291041194
 30
0.0
 10
23.1772166725
 20
31.4250515612
 30
0.0
 10
23.1398891201
 20
31.4291039495
 30
0.0
 10
23.1165439489
 20
31.4375620946
 30
0.0
 10
23.1065058842
 20
31.4433574428
 30
0.0
  0
SPLINE
  5
39E
100
AcDbEntity
  8
0
100
AcDbSpline
 62
7
  6
BYLAYER
 70
0
 71
3
 72
11
 73
7
 74
0
 42
0.0000001
 43
0.0000001
 44
0.0000000001
 40
0.0
 40
0.0
 40
0.0
 40
0.0
 40
0.2895312967
 40
0.5491036869
 40
0.782249987
 40
1.0
 40
1.0
 40
1.0
 40
1.0
 10
19.9245386167
 20
29.1980075437
 30
0.0
 10
19.9026155869
 20
29.1853503521
 30
0.0
 10
19.8589679585
 20
29.164611331
 30
0.0
 10
19.7919064901
 20
29.1483748239
 30
0.0
 10
19.728948642
 20
29.1499460997
 30
0.0
 10
19.6910747269
 20
29.1637305603
 30
0.0
 10
19.6745848483
 20
29.1732461854
 30
0.0
  0
SPLINE
  5
39F
100
AcDbEntity
  8
0
100
AcDbSpline
 62
7
  6
BYLAYER
 70
0
 71
3
 72
11
 73
7
 74
0
 42
0.0000001
 43
0.0000001
 44
0.0000000001
 40
0.0
 40
0.0
 40
0.0
 40
0.0
 40
0.2372193634
 40
0.5000010918
 40
0.7627822259
 40
1.0
 40
1.0
 40
1.0
 40
1.0
 10
19.9952495884
 20
29.0755332257
 30
0.0
 10
19.9952495884
 20
29.0871241776
 30
0.0
 10
19.9909021629
 20
29.1115708805
 30
0.0
 10
19.9757479237
 20
29.1459238042
 30
0.0
 10
19.9535744476
 20
29.1762240588
 30
0.0
 10
19.9345766642
 20
29.1922122041
 30
0.0
 10
19.9245386159
 20
29.1980075429
 30
0.0
  0
SPLINE
  5
3A0
100
AcDbEntity
  8
0
100
AcDbSpline
 62
7
  6
BYLAYER
 70
0
 71
3
 72
9
 73
5
 74
0
 42
0.0000001
 43
0.0000001
 44
0.0000000001
 40
0.0
 40
0.0
 40
0.0
 40
0.0
 40
0.5301329571
 40
1.0
 40
1.0
 40
1.0
 40
1.0
 10
19.5709872885
 20
29.3204881833
 30
0.0
 10
19.5709872883
 20
29.2873931398
 30
0.0
 10
19.5763421518
 20
29.2247601087
 30
0.0
 10
19.5960296449
 20
29.1645932938
 30
0.0
 10
19.609456185
 20
29.1385138066
 30
0.0
  0
SPLINE
  5
3A1
100
AcDbEntity
  8
0
100
AcDbSpline
 62
7
  6
BYLAYER
 70
0
 71
3
 72
15
 73
11
 74
0
 42
0.0000001
 43
0.0000001
 44
0.0000000001
 40
0.0
 40
0.0
 40
0.0
 40
0.0
 40
0.1198613138
 40
0.2334713174
 40
0.3449192233
 40
0.4585943472
 40
0.578605097
 40
0.7080054886
 40
0.8484345958
 40
1.0
 40
1.0
 40
1.0
 40
1.0
 10
19.609456185
 20
29.1385138066
 30
0.0
 10
19.6175576804
 20
29.1227775972
 30
0.0
 10
19.6363626474
 20
29.0935134651
 30
0.0
 10
19.6732988689
 20
29.0577536096
 30
0.0
 10
19.7171399822
 20
29.03259307
 30
0.0
 10
19.7667064441
 20
29.018764755
 30
0.0
 10
19.8206789077
 20
29.0164687954
 30
0.0
 10
19.8778736781
 20
29.0253433005
 30
0.0
 10
19.9371484814
 20
29.0450353545
 30
0.0
 10
19.9758672333
 20
29.0643428852
 30
0.0
 10
19.9952495883
 20
29.0755332263
 30
0.0
  0
SPLINE
  5
3A2
100
AcDbEntity
  8
0
100
AcDbSpline
 62
7
  6
BYLAYER
 70
0
 71
3
 72
13
 73
9
 74
0
 42
0.0000001
 43
0.0000001
 44
0.0000000001
 40
0.0
 40
0.0
 40
0.0
 40
0.0
 40
0.2395636318
 40
0.3683812274
 40
0.4999163812
 40
0.7598101376
 40
0.8835551794
 40
1.0
 40
1.0
 40
1.0
 40
1.0
 10
19.9607556149
 20
41.4648311064
 30
0.0
 10
19.9077487538
 20
41.4292411136
 30
0.0
 10
19.8339894723
 20
41.3625066954
 30
0.0
 10
19.7504924344
 20
41.2585415848
 30
0.0
 10
19.6751637104
 20
41.1419005621
 30
0.0
 10
19.6180816398
 20
41.0157235521
 30
0.0
 10
19.5836353069
 20
40.8867539688
 30
0.0
 10
19.5745735561
 20
40.8231602562
 30
0.0
 10
19.5724288887
 20
40.7922005515
 30
0.0
  0
SPLINE
  5
3A3
100
AcDbEntity
  8
0
100
AcDbSpline
 62
7
  6
BYLAYER
 70
0
 71
3
 72
9
 73
5
 74
0
 42
0.0000001
 43
0.0000001
 44
0.0000000001
 40
0.0
 40
0.0
 40
0.0
 40
0.0
 40
0.2677630464
 40
1.0
 40
1.0
 40
1.0
 40
1.0
 10
15.8939601969
 20
30.3000686545
 30
0.0
 10
15.9037360801
 20
30.3057127291
 30
0.0
 10
15.9409682466
 20
30.3254335408
 30
0.0
 10
15.9814533276
 20
30.3396342571
 30
0.0
 10
16.0118910964
 20
30.3447773334
 30
0.0
  0
SPLINE
  5
3A4
100
AcDbEntity
  8
0
100
AcDbSpline
 62
7
  6
BYLAYER
 70
0
 71
3
 72
13
 73
9
 74
0
 42
0.0000001
 43
0.0000001
 44
0.0000000001
 40
0.0
 40
0.0
 40
0.0
 40
0.0
 40
0.3444374825
 40
0.6204738972
 40
0.7338449754
 40
0.8326726266
 40
0.9198978188
 40
1.0
 40
1.0
 40
1.0
 40
1.0
 10
13.3165573804
 20
30.6450250496
 30
0.0
 10
13.3088289681
 20
30.6580600068
 30
0.0
 10
13.2938349381
 20
30.6809266997
 30
0.0
 10
13.2723229649
 20
30.7053174954
 30
0.0
 10
13.255265127
 20
30.7184869618
 30
0.0
 10
13.2435960857
 20
30.7247657829
 30
0.0
 10
13.2322386265
 20
30.7280315042
 30
0.0
 10
13.2247548505
 20
30.7280890577
 30
0.0
 10
13.2212688279
 20
30.7275719636
 30
0.0
  0
SPLINE
  5
3A5
100
AcDbEntity
  8
0
100
AcDbSpline
 62
7
  6
BYLAYER
 70
0
 71
3
 72
13
 73
9
 74
0
 42
0.0000001
 43
0.0000001
 44
0.0000000001
 40
0.0
 40
0.0
 40
0.0
 40
0.0
 40
0.1141741943
 40
0.2375657001
 40
0.5000016049
 40
0.7624366319
 40
0.8858271098
 40
1.0
 40
1.0
 40
1.0
 40
1.0
 10
12.9630054968
 20
30.0326517647
 30
0.0
 10
12.9630054962
 20
30.0605791543
 30
0.0
 10
12.968151212
 20
30.1187435522
 30
0.0
 10
12.9958905728
 20
30.2381594512
 30
0.0
 10
13.0605239783
 20
30.384598657
 30
0.0
 10
13.1550265391
 20
30.5137927464
 30
0.0
 10
13.2445732806
 20
30.5975233841
 30
0.0
 10
13.2923718174
 20
30.6310615713
 30
0.0
 10
13.3165574058
 20
30.6450250447
 30
0.0
  0
SPLINE
  5
3A6
100
AcDbEntity
  8
0
100
AcDbSpline
 62
7
  6
BYLAYER
 70
0
 71
3
 72
9
 73
5
 74
0
 42
0.0000001
 43
0.0000001
 44
0.0000000001
 40
0.0
 40
0.0
 40
0.0
 40
0.0
 40
0.2305109738
 40
1.0
 40
1.0
 40
1.0
 40
1.0
 10
12.8563465272
 20
30.1239246186
 30
0.0
 10
12.8627650006
 20
30.1151997999
 30
0.0
 10
12.8930924765
 20
30.0791714309
 30
0.0
 10
12.931692224
 20
30.0507300809
 30
0.0
 10
12.9630055055
 20
30.0326517597
 30
0.0
  0
SPLINE
  5
3A7
100
AcDbEntity
  8
0
100
AcDbSpline
 62
7
  6
BYLAYER
 70
0
 71
3
 72
9
 73
5
 74
0
 42
0.0000001
 43
0.0000001
 44
0.0000000001
 40
0.0
 40
0.0
 40
0.0
 40
0.0
 40
0.246424216
 40
1.0
 40
1.0
 40
1.0
 40
1.0
 10
12.8432534065
 20
30.1437101237
 30
0.0
 10
12.8442438157
 20
30.1420311619
 30
0.0
 10
12.8483528343
 20
30.1352711629
 30
0.0
 10
12.8528141072
 20
30.1287263405
 30
0.0
 10
12.8563465272
 20
30.1239246186
 30
0.0
  0
SPLINE
  5
3A8
100
AcDbEntity
  8
0
100
AcDbSpline
 62
7
  6
BYLAYER
 70
0
 71
3
 72
15
 73
11
 74
0
 42
0.0000001
 43
0.0000001
 44
0.0000000001
 40
0.0
 40
0.0
 40
0.0
 40
0.0
 40
0.1108605606
 40
0.228542371
 40
0.3517853
 40
0.4793066267
 40
0.6095515126
 40
0.740864917
 40
0.8716383086
 40
1.0
 40
1.0
 40
1.0
 40
1.0
 10
15.8939603125
 20
30.3000685877
 30
0.0
 10
15.8091132182
 20
30.3490539659
 30
0.0
 10
15.6278040523
 20
30.4392063725
 30
0.0
 10
15.3360184416
 20
30.5478664911
 30
0.0
 10
15.021029018
 20
30.6321607689
 30
0.0
 10
14.6889990021
 20
30.6904930968
 30
0.0
 10
14.3462074345
 20
30.7218770013
 30
0.0
 10
13.9991275126
 20
30.7256073287
 30
0.0
 10
13.654553654
 20
30.7015827132
 30
0.0
 10
13.4278439475
 20
30.6670183043
 30
0.0
 10
13.3165574078
 20
30.6450250435
 30
0.0
  0
SPLINE
  5
3A9
100
AcDbEntity
  8
0
100
AcDbSpline
 62
7
  6
BYLAYER
 70
0
 71
3
 72
12
 73
8
 74
0
 42
0.0000001
 43
0.0000001
 44
0.0000000001
 40
0.0
 40
0.0
 40
0.0
 40
0.0
 40
0.2318919868
 40
0.4885586489
 40
0.7512180354
 40
0.8787175996
 40
1.0
 40
1.0
 40
1.0
 40
1.0
 10
35.9369926014
 20
16.7689141914
 30
0.0
 10
35.9805471325
 20
16.74376854
 30
0.0
 10
36.0806593708
 20
16.7050195994
 30
0.0
 10
36.2426083007
 20
16.6802446832
 30
0.0
 10
36.3838226494
 20
16.685990988
 30
0.0
 10
36.4927933701
 20
16.7075295504
 30
0.0
 10
36.5444106361
 20
16.7237581192
 30
0.0
 10
36.5689411876
 20
16.7332513903
 30
0.0
  0
SPLINE
  5
3AA
100
AcDbEntity
  8
0
100
AcDbSpline
 62
7
  6
BYLAYER
 70
0
 71
3
 72
11
 73
7
 74
0
 42
0.0000001
 43
0.0000001
 44
0.0000000001
 40
0.0
 40
0.0
 40
0.0
 40
0.0
 40
0.2177490384
 40
0.450891404
 40
0.7104631305
 40
1.0
 40
1.0
 40
1.0
 40
1.0
 10
23.0029381092
 20
43.1032642413
 30
0.0
 10
23.0194287553
 20
43.0937435747
 30
0.0
 10
23.0503138389
 20
43.0678377574
 30
0.0
 10
23.0831652134
 20
43.0140947946
 30
0.0
 10
23.1026414619
 20
42.9478888756
 30
0.0
 10
23.1065058836
 20
42.899710628
 30
0.0
 10
23.1065058839
 20
42.8743912959
 30
0.0
  0
SPLINE
  5
3AB
100
AcDbEntity
  8
0
100
AcDbSpline
 62
7
  6
BYLAYER
 70
0
 71
3
 72
11
 73
7
 74
0
 42
0.0000001
 43
0.0000001
 44
0.0000000001
 40
0.0
 40
0.0
 40
0.0
 40
0.0
 40
0.251514142
 40
0.5140865134
 40
0.7691985524
 40
1.0
 40
1.0
 40
1.0
 40
1.0
 10
36.2004153078
 20
17.3157633843
 30
0.0
 10
36.1612878714
 20
17.2812619831
 30
0.0
 10
36.0894326401
 20
17.2012681145
 30
0.0
 10
36.0065834974
 20
17.0639182215
 30
0.0
 10
35.9519580868
 20
16.9176721272
 30
0.0
 10
35.9369926013
 20
16.8167843169
 30
0.0
 10
35.9369926014
 20
16.7689141914
 30
0.0
  0
SPLINE
  5
3AC
100
AcDbEntity
  8
0
100
AcDbSpline
 62
7
  6
BYLAYER
 70
0
 71
3
 72
9
 73
5
 74
0
 42
0.0000001
 43
0.0000001
 44
0.0000000001
 40
0.0
 40
0.0
 40
0.0
 40
0.0
 40
0.2395930641
 40
1.0
 40
1.0
 40
1.0
 40
1.0
 10
36.2905445199
 20
17.3812874768
 30
0.0
 10
36.2828301861
 20
17.3768336307
 30
0.0
 10
36.2511617991
 20
17.3573322003
 30
0.0
 10
36.2216199976
 20
17.3344610444
 30
0.0
 10
36.2004153078
 20
17.3157633843
 30
0.0
  0
SPLINE
  5
3AD
100
AcDbEntity
  8
0
100
AcDbSpline
 62
7
  6
BYLAYER
 70
0
 71
3
 72
13
 73
9
 74
0
 42
0.0000001
 43
0.0000001
 44
0.0000000001
 40
0.0
 40
0.0
 40
0.0
 40
0.0
 40
0.1106731065
 40
0.2273053874
 40
0.3495851395
 40
0.4768226433
 40
0.7391336786
 40
1.0
 40
1.0
 40
1.0
 40
1.0
 10
36.7635988478
 20
16.8795503466
 30
0.0
 10
36.7635988476
 20
16.9068438903
 30
0.0
 10
36.7569872003
 20
16.9630380589
 30
0.0
 10
36.72954175
 20
17.0453018472
 30
0.0
 10
36.6853526132
 20
17.1246185236
 30
0.0
 10
36.6058413475
 20
17.2232927226
 30
0.0
 10
36.4766886263
 20
17.3227064487
 30
0.0
 10
36.3536572107
 20
17.3688150243
 30
0.0
 10
36.2905445209
 20
17.3812874773
 30
0.0
  0
SPLINE
  5
3AE
100
AcDbEntity
  8
0
100
AcDbSpline
 62
7
  6
BYLAYER
 70
0
 71
3
 72
15
 73
11
 74
0
 42
0.0000001
 43
0.0000001
 44
0.0000000001
 40
0.0
 40
0.0
 40
0.0
 40
0.0
 40
0.1120324112
 40
0.2321365906
 40
0.3584949758
 40
0.4888736374
 40
0.6207451463
 40
0.7515264444
 40
0.8788121712
 40
1.0
 40
1.0
 40
1.0
 40
1.0
 10
20.7731026705
 20
19.318437139
 30
0.0
 10
20.8152355835
 20
19.2941122407
 30
0.0
 10
20.9064809228
 20
19.2503778998
 30
0.0
 10
21.0545217837
 20
19.201155426
 30
0.0
 10
21.2149140526
 20
19.1671078099
 30
0.0
 10
21.3830076051
 20
19.1492550582
 30
0.0
 10
21.5539538816
 20
19.1480855793
 30
0.0
 10
21.7228613361
 20
19.1636724271
 30
0.0
 10
21.8847129581
 20
19.1956392838
 30
0.0
 10
21.9879205012
 20
19.2281177489
 30
0.0
 10
22.0369998435
 20
19.2471113496
 30
0.0
  0
SPLINE
  5
3AF
100
AcDbEntity
  8
0
100
AcDbSpline
 62
7
  6
BYLAYER
 70
0
 71
3
 72
15
 73
11
 74
0
 42
0.0000001
 43
0.0000001
 44
0.0000000001
 40
0.0
 40
0.0
 40
0.0
 40
0.0
 40
0.1231471636
 40
0.2513963724
 40
0.3823751023
 40
0.513860219
 40
0.6434866514
 40
0.768986763
 40
0.8883724514
 40
1.0
 40
1.0
 40
1.0
 40
1.0
 10
21.2999477184
 20
20.4121357358
 30
0.0
 10
21.2615829663
 20
20.3783068467
 30
0.0
 10
21.1872478478
 20
20.304631926
 30
0.0
 10
21.0862954903
 20
20.1817119397
 30
0.0
 10
20.9957592085
 20
20.0467300438
 30
0.0
 10
20.9180424005
 20
19.9033419125
 30
0.0
 10
20.8551717991
 20
19.7553105841
 30
0.0
 10
20.8087998492
 20
19.6065326172
 30
0.0
 10
20.7801529896
 20
19.4609533468
 30
0.0
 10
20.7731078703
 20
19.3649294166
 30
0.0
 10
20.7731026793
 20
19.3185648269
 30
0.0
  0
SPLINE
  5
3B0
100
AcDbEntity
  8
0
100
AcDbSpline
 62
7
  6
BYLAYER
 70
0
 71
3
 72
9
 73
5
 74
0
 42
0.0000001
 43
0.0000001
 44
0.0000000001
 40
0.0
 40
0.0
 40
0.0
 40
0.0
 40
0.2395969251
 40
1.0
 40
1.0
 40
1.0
 40
1.0
 10
21.4801385543
 20
20.543145317
 30
0.0
 10
21.4647153702
 20
20.5342399457
 30
0.0
 10
21.4014039184
 20
20.495245234
 30
0.0
 10
21.3423421325
 20
20.4495178599
 30
0.0
 10
21.2999477184
 20
20.4121357358
 30
0.0
  0
SPLINE
  5
3B1
100
AcDbEntity
  8
0
100
AcDbSpline
 62
7
  6
BYLAYER
 70
0
 71
3
 72
15
 73
11
 74
0
 42
0.0000001
 43
0.0000001
 44
0.0000000001
 40
0.0
 40
0.0
 40
0.0
 40
0.0
 40
0.1141225167
 40
0.23734524
 40
0.3669717312
 40
0.5000012247
 40
0.6330305498
 40
0.7626565544
 40
0.8858784478
 40
1.0
 40
1.0
 40
1.0
 40
1.0
 10
22.1873162336
 20
19.3184405388
 30
0.0
 10
22.1873162336
 20
19.3743202653
 30
0.0
 10
22.1770573192
 20
19.4906413676
 30
0.0
 10
22.1362760802
 20
19.666120347
 30
0.0
 10
22.0708676862
 20
19.8438697602
 30
0.0
 10
21.9833821616
 20
20.0171983038
 30
0.0
 10
21.8770173192
 20
20.1796265327
 30
0.0
 10
21.7557856704
 20
20.325145345
 30
0.0
 10
21.6242070713
 20
20.4482008373
 30
0.0
 10
21.528599636
 20
20.5152445573
 30
0.0
 10
21.4802065086
 20
20.5431837103
 30
0.0
  0
SPLINE
  5
3B2
100
AcDbEntity
  8
0
100
AcDbSpline
 62
7
  6
BYLAYER
 70
0
 71
3
 72
9
 73
5
 74
0
 42
0.0000001
 43
0.0000001
 44
0.0000000001
 40
0.0
 40
0.0
 40
0.0
 40
0.0
 40
0.2581374019
 40
1.0
 40
1.0
 40
1.0
 40
1.0
 10
22.0369998435
 20
19.2471113496
 30
0.0
 10
22.0503585998
 20
19.2522811598
 30
0.0
 10
22.1017495425
 20
19.2732141003
 30
0.0
 10
22.1516649769
 20
19.2978570251
 30
0.0
 10
22.1873162329
 20
19.3184401644
 30
0.0
  0
SPLINE
  5
3B3
100
AcDbEntity
  8
0
100
AcDbSpline
 62
7
  6
BYLAYER
 70
0
 71
3
 72
10
 73
6
 74
0
 42
0.0000001
 43
0.0000001
 44
0.0000000001
 40
0.0
 40
0.0
 40
0.0
 40
0.0
 40
0.2830638202
 40
0.544891537
 40
1.0
 40
1.0
 40
1.0
 40
1.0
 10
36.5689411876
 20
16.7332513903
 30
0.0
 10
36.590681557
 20
16.7416648668
 30
0.0
 10
36.6317092328
 20
16.760306237
 30
0.0
 10
36.7014822683
 20
16.804047592
 30
0.0
 10
36.7444844035
 20
16.8473105111
 30
0.0
 10
36.7635988481
 20
16.8795503465
 30
0.0
  0
SPLINE
  5
3B4
100
AcDbEntity
  8
0
100
AcDbSpline
 62
7
  6
BYLAYER
 70
0
 71
3
 72
12
 73
8
 74
0
 42
0.0000001
 43
0.0000001
 44
0.0000000001
 40
0.0
 40
0.0
 40
0.0
 40
0.0
 40
0.2894467928
 40
0.5488868925
 40
0.7817706702
 40
0.8918826165
 40
1.0
 40
1.0
 40
1.0
 40
1.0
 10
12.8534324964
 20
25.5235873024
 30
0.0
 10
12.8095623328
 20
25.5489116898
 30
0.0
 10
12.7222003789
 20
25.5903704593
 30
0.0
 10
12.5881331227
 20
25.6228988976
 30
0.0
 10
12.4810409049
 20
25.6199918068
 30
0.0
 10
12.4046588929
 20
25.5988272655
 30
0.0
 10
12.3698709221
 20
25.5825418722
 30
0.0
 10
12.3534826221
 20
25.573084901
 30
0.0
  0
SPLINE
  5
3B5
100
AcDbEntity
  8
0
100
AcDbSpline
 62
7
  6
BYLAYER
 70
0
 71
3
 72
15
 73
11
 74
0
 42
0.0000001
 43
0.0000001
 44
0.0000000001
 40
0.0
 40
0.0
 40
0.0
 40
0.0
 40
0.1141714724
 40
0.2374559048
 40
0.3670615305
 40
0.5000419535
 40
0.6330162114
 40
0.7626007076
 40
0.8858403963
 40
1.0
 40
1.0
 40
1.0
 40
1.0
 10
12.1463534579
 20
24.2991081371
 30
0.0
 10
12.1463715263
 20
24.3550038985
 30
0.0
 10
12.1566937282
 20
24.4713562114
 30
0.0
 10
12.19747857
 20
24.6468512758
 30
0.0
 10
12.2629063426
 20
24.8245619697
 30
0.0
 10
12.3503679883
 20
24.997802049
 30
0.0
 10
12.4566826155
 20
25.1601435258
 30
0.0
 10
12.577856539
 20
25.3056257279
 30
0.0
 10
12.7094302062
 20
25.4286595513
 30
0.0
 10
12.8050435196
 20
25.4957142713
 30
0.0
 10
12.8534483483
 20
25.5236545555
 30
0.0
  0
SPLINE
  5
3B6
100
AcDbEntity
  8
0
100
AcDbSpline
 62
7
  6
BYLAYER
 70
0
 71
3
 72
13
 73
9
 74
0
 42
0.0000001
 43
0.0000001
 44
0.0000000001
 40
0.0
 40
0.0
 40
0.0
 40
0.0
 40
0.2783772014
 40
0.5473271121
 40
0.6750016006
 40
0.7950431497
 40
0.9045175029
 40
1.0
 40
1.0
 40
1.0
 40
1.0
 10
10.859676315
 20
20.959314948
 30
0.0
 10
10.8127857274
 20
21.0338500597
 30
0.0
 10
10.7341512605
 20
21.189289903
 30
0.0
 10
10.6729287128
 20
21.3953357564
 30
0.0
 10
10.6517292479
 20
21.5576776434
 30
0.0
 10
10.6493579985
 20
21.6709078856
 30
0.0
 10
10.659793884
 20
21.7734259649
 30
0.0
 10
10.6759459246
 20
21.8366678323
 30
0.0
 10
10.686749442
 20
21.8648731899
 30
0.0
  0
SPLINE
  5
3B7
100
AcDbEntity
  8
0
100
AcDbSpline
 62
7
  6
BYLAYER
 70
0
 71
3
 72
9
 73
5
 74
0
 42
0.0000001
 43
0.0000001
 44
0.0000000001
 40
0.0
 40
0.0
 40
0.0
 40
0.0
 40
0.2539134294
 40
1.0
 40
1.0
 40
1.0
 40
1.0
 10
11.057160322
 20
22.8539821228
 30
0.0
 10
11.0427302359
 20
22.8587248943
 30
0.0
 10
10.9860928634
 20
22.8779846401
 30
0.0
 10
10.9302501557
 20
22.8995983255
 30
0.0
 10
10.8892018989
 20
22.9171216059
 30
0.0
  0
SPLINE
  5
3B8
100
AcDbEntity
  8
0
100
AcDbSpline
 62
7
  6
BYLAYER
 70
0
 71
3
 72
9
 73
5
 74
0
 42
0.0000001
 43
0.0000001
 44
0.0000000001
 40
0.0
 40
0.0
 40
0.0
 40
0.0
 40
0.2562429765
 40
1.0
 40
1.0
 40
1.0
 40
1.0
 10
10.8892018989
 20
22.9171216059
 30
0.0
 10
10.8724384342
 20
22.924277839
 30
0.0
 10
10.8074141771
 20
22.9531173745
 30
0.0
 10
10.7440099369
 20
22.9856595556
 30
0.0
 10
10.6981927281
 20
23.012111535
 30
0.0
  0
SPLINE
  5
3B9
100
AcDbEntity
  8
0
100
AcDbSpline
 62
7
  6
BYLAYER
 70
0
 71
3
 72
15
 73
11
 74
0
 42
0.0000001
 43
0.0000001
 44
0.0000000001
 40
0.0
 40
0.0
 40
0.0
 40
0.0
 40
0.1184705298
 40
0.2315225889
 40
0.342936035
 40
0.4570476247
 40
0.5776141197
 40
0.707405522
 40
0.8481151652
 40
1.0
 40
1.0
 40
1.0
 40
1.0
 10
5.3969944401
 20
26.0726905259
 30
0.0
 10
5.3606444744
 20
26.0113799882
 30
0.0
 10
5.3010087564
 20
25.8841332136
 30
0.0
 10
5.2573227208
 20
25.6805669181
 30
0.0
 10
5.2641292253
 20
25.4749098435
 30
0.0
 10
5.3211206002
 20
25.2726941161
 30
0.0
 10
5.4260133424
 20
25.0783627333
 30
0.0
 10
5.5760610247
 20
24.8955293437
 30
0.0
 10
5.7678028511
 20
24.7273541273
 30
0.0
 10
5.9153690658
 20
24.6303394543
 30
0.0
 10
5.9945064947
 20
24.5846504719
 30
0.0
  0
SPLINE
  5
3BA
100
AcDbEntity
  8
0
100
AcDbSpline
 62
7
  6
BYLAYER
 70
0
 71
3
 72
20
 73
16
 74
0
 42
0.0000001
 43
0.0000001
 44
0.0000000001
 40
0.0
 40
0.0
 40
0.0
 40
0.0
 40
0.0614948285
 40
0.1268856891
 40
0.2660657493
 40
0.4111360562
 40
0.5544549763
 40
0.623191448
 40
0.6888656016
 40
0.7508267785
 40
0.8086124426
 40
0.8620004256
 40
0.911209779
 40
0.9568544554
 40
1.0
 40
1.0
 40
1.0
 40
1.0
 10
26.9602641901
 20
21.0126266804
 30
0.0
 10
26.9602641901
 20
20.9827768984
 30
0.0
 10
26.9563495873
 20
20.921146587
 30
0.0
 10
26.9345714164
 20
20.7936661267
 30
0.0
 10
26.8816941959
 20
20.6313209722
 30
0.0
 10
26.7854073687
 20
20.446548058
 30
0.0
 10
26.6812900709
 20
20.3068205238
 30
0.0
 10
26.5870730734
 20
20.2101755458
 30
0.0
 10
26.514253613
 20
20.148414278
 30
0.0
 10
26.4396778193
 20
20.0976926665
 30
0.0
 10
26.364842519
 20
20.0589360974
 30
0.0
 10
26.2910925221
 20
20.0330955687
 30
0.0
 10
26.2198265488
 20
20.0206470056
 30
0.0
 10
26.1524024745
 20
20.022021462
 30
0.0
 10
26.1101117143
 20
20.0324715149
 30
0.0
 10
26.0905543266
 20
20.039962649
 30
0.0
  0
SPLINE
  5
3BB
100
AcDbEntity
  8
0
100
AcDbSpline
 62
7
  6
BYLAYER
 70
0
 71
3
 72
15
 73
11
 74
0
 42
0.0000001
 43
0.0000001
 44
0.0000000001
 40
0.0
 40
0.0
 40
0.0
 40
0.0
 40
0.1141216057
 40
0.2373437883
 40
0.3669699917
 40
0.4999994785
 40
0.6330290379
 40
0.762655453
 40
0.8858779696
 40
1.0
 40
1.0
 40
1.0
 40
1.0
 10
29.6826169062
 20
19.5633164842
 30
0.0
 10
29.7310097654
 20
19.5912559486
 30
0.0
 10
29.8368755523
 20
19.640531309
 30
0.0
 10
30.0092343357
 20
19.6929526644
 30
0.0
 10
30.1958732555
 20
19.7251820311
 30
0.0
 10
30.3897224951
 20
19.7360822465
 30
0.0
 10
30.5835718898
 20
19.7251829514
 30
0.0
 10
30.7702112676
 20
19.6929544709
 30
0.0
 10
30.9425707933
 20
19.6405339352
 30
0.0
 10
31.0484372289
 20
19.5912591038
 30
0.0
 10
31.0968304696
 20
19.5633198843
 30
0.0
  0
SPLINE
  5
3BC
100
AcDbEntity
  8
0
100
AcDbSpline
 62
7
  6
BYLAYER
 70
0
 71
3
 72
12
 73
8
 74
0
 42
0.0000001
 43
0.0000001
 44
0.0000000001
 40
0.0
 40
0.0
 40
0.0
 40
0.0
 40
0.1081723755
 40
0.2183771151
 40
0.4513313072
 40
0.7105192562
 40
1.0
 40
1.0
 40
1.0
 40
1.0
 10
22.0408109214
 20
51.8237555325
 30
0.0
 10
22.0572072989
 20
51.8332219268
 30
0.0
 10
22.0920316362
 20
51.8495023476
 30
0.0
 10
22.1684600489
 20
51.8706751915
 30
0.0
 10
22.2755469281
 20
51.8735330005
 30
0.0
 10
22.4096182169
 20
51.8410756457
 30
0.0
 10
22.4969300611
 20
51.7995640134
 30
0.0
 10
22.5408086861
 20
51.7742312517
 30
0.0
  0
SPLINE
  5
3BD
100
AcDbEntity
  8
0
100
AcDbSpline
 62
7
  6
BYLAYER
 70
0
 71
3
 72
13
 73
9
 74
0
 42
0.0000001
 43
0.0000001
 44
0.0000000001
 40
0.0
 40
0.0
 40
0.0
 40
0.0
 40
0.114174195
 40
0.2375657009
 40
0.5000016067
 40
0.7624366337
 40
0.8858271109
 40
1.0
 40
1.0
 40
1.0
 40
1.0
 10
31.0968304728
 20
19.5633198813
 30
0.0
 10
31.0968304728
 20
19.5912472715
 30
0.0
 10
31.1019761885
 20
19.6494116704
 30
0.0
 10
31.1297155496
 20
19.7688275717
 30
0.0
 10
31.1943489575
 20
19.9152667794
 30
0.0
 10
31.2888515209
 20
20.04446087
 30
0.0
 10
31.3783982646
 20
20.1281915074
 30
0.0
 10
31.4261968025
 20
20.1617296939
 30
0.0
 10
31.4503823913
 20
20.1756931668
 30
0.0
  0
ENDSEC
  0
SECTION
  2
OBJECTS
  0
DICTIONARY
  5
C
100
AcDbDictionary
280
0
281
1
  3
ACAD_GROUP
350
D
  3
ACAD_MLINESTYLE
350
17
  3
ACAD_LAYOUT
350
1A
  3
ACAD_PLOTSETTINGS
350
19
  3
ACAD_PLOTSTYLENAME
350
E
  0
DICTIONARY
  5
D
102
{ACAD_REACTORS
330
C
102
}
100
AcDbDictionary
280
0
281
1
  0
ACDBDICTIONARYWDFLT
  5
E
102
{ACAD_REACTORS
330
C
102
}
100
AcDbDictionary
281
1
  3
Normal
350
F
100
AcDbDictionaryWithDefault
340
F
  0
DICTIONARY
  5
17
102
{ACAD_REACTORS
330
C
102
}
100
AcDbDictionary
280
0
281
1
  3
Standard
350
18
  0
DICTIONARY
  5
19
102
{ACAD_REACTORS
330
C
102
}
100
AcDbDictionary
281
1
  0
DICTIONARY
  5
1A
102
{ACAD_REACTORS
330
C
102
}
100
AcDbDictionary
281
1
  3
Model
350
3BE
  3
Layout1
350
3BF
  0
ACDBPLACEHOLDER
  5
F
102
{ACAD_REACTORS
330
E
102
}
  0
MLINESTYLE
  5
18
102
{ACAD_REACTORS
330
17
102
}
100
AcDbMlineStyle
  2
STANDARD
 70
0
  3

 62
256
 51
90.0
 52
90.0
 71
2
 49
0.5
 62
256
  6
BYLAYER
 49
-0.5
 62
256
  6
BYLAYER
  0
LAYOUT
  5
3BE
102
{ACAD_REACTORS
330
1A
102
}
100
AcDbPlotSettings
  1

  2
none_device
  4

  6

 40
0.0
 41
0.0
 42
0.0
 43
0.0
 44
210.0
 45
297.0
 46
0.0
 47
0.0
 48
0.0
 49
0.0
140
0.0
141
0.0
142
1.0
143
1.0
 70
1024
 72
1
 73
0
 74
0
  7

 75
0
147
1.0
148
0.0
149
0.0
100
AcDbLayout
  1
Model
 70
0
 71
0
 10
0.0
 20
0.0
 11
210.0
 21
297.0
 12
0.0
 22
0.0
 32
0.0
 14
0.0
 24
0.0
 34
0.0
 15
0.0
 25
0.0
 35
0.0
146
0.0
 13
0.0
 23
0.0
 33
0.0
 16
1.0
 26
0.0
 36
0.0
 17
0.0
 27
1.0
 37
0.0
 76
0
330
210
345
0
346
0
  0
LAYOUT
  5
3BF
102
{ACAD_REACTORS
330
1A
102
}
100
AcDbPlotSettings
  1

  2
none_device
  4

  6

 40
0.0
 41
0.0
 42
0.0
 43
0.0
 44
210.0
 45
297.0
 46
0.0
 47
0.0
 48
0.0
 49
0.0
140
0.0
141
0.0
142
1.0
143
1.0
 70
0
 72
1
 73
0
 74
0
  7

 75
0
147
1.0
148
0.0
149
0.0
100
AcDbLayout
  1
Layout1
 70
0
 71
1
 10
0.0
 20
0.0
 11
210.0
 21
297.0
 12
0.0
 22
0.0
 32
0.0
 14
0.0
 24
0.0
 34
0.0
 15
0.0
 25
0.0
 35
0.0
146
0.0
 13
0.0
 23
0.0
 33
0.0
 16
1.0
 26
0.0
 36
0.0
 17
0.0
 27
1.0
 37
0.0
 76
0
330
211
345
0
346
0
  0
ENDSEC
  0
EOF
