999
DXF file: C:\Users\sesa63760\Dev\_Creo\CAD\MCADID0003704_3D-CAD\drw0001_1.dxf
999
Pro/ENGINEER 2019471 by Parametric Technology Corporation
  0
SECTION
  2
HEADER
  9
$ACADVER
  1
AC1024
  9
$DWGCODEPAGE
  3
ANSI_1252
  9
$EXTMAX
 10
89.3239887193
 20
126.3296411887
 30
0.0
  9
$EXTMIN
 10
-0.0
 20
0.0
 30
0.0
  9
$LIMMIN
 10
-0.0
 20
0.0
  9
$LIMMAX
 10
89.3239887193
 20
126.3296411887
  9
$VIEWCTR
 10
44.6619943597
 20
63.1648205944
  9
$VIEWSIZE
 40
126.3296411887
  9
$CLAYER
  8
0
  9
$LTSCALE
 40
8.2348210553
  9
$CELTYPE
  6
BYLAYER
  9
$DIMSCALE
 40
1.0
  9
$DIMASZ
 40
1.0633808181
  9
$DIMEXO
 40
1.0
  9
$DIMDLI
 40
5.6895127291
  9
$DIMEXE
 40
1.0
  9
$DIMCEN
 40
1.3475161727
  9
$DIMLFAC
 40
1.0
  9
$DIMBLK
  1
_FILLED
  9
$DIMALT
 70
0
  9
$DIMALTF
 40
0.0393700787
  9
$DIMTXT
 40
1.4887331453
  9
$DIMTOL
 70
1
  9
$DIMLIM
 70
0
  9
$DIMTFAC
 40
1.0
  9
$DIMTP
 40
0.01
  9
$DIMTM
 40
0.01
  9
$DIMGAP
 40
0.625
  9
$DIMDSEP
 70
46
  9
$AUNITS
 70
0
  9
$PDMODE
 70
3
  9
$PDSIZE
 40
0.3125
  9
$HANDSEED
  5
2FF
  9
$TILEMODE
 70
1
  9
$MEASUREMENT
 70
1
  9
$INSUNITS
 70
4
  0
ENDSEC
  0
SECTION
  2
CLASSES
  0
CLASS
  1
ACDBDICTIONARYWDFLT
  2
AcDbDictionaryWithDefault
  3
AutoCAD 2000
 90
0
 91
1
280
0
281
0
  0
CLASS
  1
ACDBPLACEHOLDER
  2
AcDbPlaceHolder
  3
AutoCAD 2000
 90
0
 91
1
280
0
281
0
  0
CLASS
  1
LAYOUT
  2
AcDbLayout
  3
AutoCAD 2000
 90
0
 91
0
280
0
281
0
  0
ENDSEC
  0
SECTION
  2
TABLES
  0
TABLE
  2
VPORT
  5
8
100
AcDbSymbolTable
 70
2
  0
VPORT
  5
1F4
100
AcDbSymbolTableRecord
100
AcDbViewportTableRecord
  2
*ACTIVE
 70
0
 10
0.0
 20
0.0
 11
1.0
 21
1.0
 12
44.6619943597
 22
63.1648205944
 13
0.0
 23
0.0
 14
1.0
 24
1.0
 15
0.0
 25
0.0
 16
0.0
 26
0.0
 36
1.0
 17
0.0
 27
0.0
 37
0.0
 40
126.3296411887
 41
0.7070707071
 42
50.0
 43
0.0
 44
0.0
 50
0.0
 51
0.0
 71
0
 72
100
 73
1
 74
1
 75
0
 76
0
 77
0
 78
0
  0
ENDTAB
  0
TABLE
  2
LTYPE
  5
5
100
AcDbSymbolTable
 70
6
  0
LTYPE
  5
14
100
AcDbSymbolTableRecord
100
AcDbLinetypeTableRecord
  2
BYBLOCK
 70
0
  3

 72
65
 73
0
 40
0.0
  0
LTYPE
  5
15
100
AcDbSymbolTableRecord
100
AcDbLinetypeTableRecord
  2
BYLAYER
 70
0
  3

 72
65
 73
0
 40
0.0
  0
LTYPE
  5
16
100
AcDbSymbolTableRecord
100
AcDbLinetypeTableRecord
  2
CONTINUOUS
 70
64
  3
Solid line
 72
65
 73
0
 40
0.0
  0
LTYPE
  5
1F5
100
AcDbSymbolTableRecord
100
AcDbLinetypeTableRecord
  2
CENTER
 70
64
  3
____ _ ____ _ ____ _ ____ _ ____ _ ____ _ ____
 72
65
 73
4
 40
0.6
 49
0.375
 74
0
 49
-0.075
 74
0
 49
0.075
 74
0
 49
-0.075
 74
0
  0
LTYPE
  5
1F6
100
AcDbSymbolTableRecord
100
AcDbLinetypeTableRecord
  2
HIDDEN
 70
64
  3
- - - - - - - - - - - - - - - - - - - -
 72
65
 73
2
 40
0.2
 49
0.1
 74
0
 49
-0.1
 74
0
  0
LTYPE
  5
1F7
100
AcDbSymbolTableRecord
100
AcDbLinetypeTableRecord
  2
PHANTOM
 70
64
  3
_____ _ _ _____ _ _ _____ _ _ _____
 72
65
 73
6
 40
0.8
 49
0.45
 74
0
 49
-0.05
 74
0
 49
0.1
 74
0
 49
-0.05
 74
0
 49
0.1
 74
0
 49
-0.05
 74
0
  0
LTYPE
  5
1F8
100
AcDbSymbolTableRecord
100
AcDbLinetypeTableRecord
  2
DOT
 70
64
  3
. . . . . . . . . . . . . . . . . . . .
 72
65
 73
2
 40
0.2
 49
0.1
 74
0
 49
-0.1
 74
0
  0
LTYPE
  5
1F9
100
AcDbSymbolTableRecord
100
AcDbLinetypeTableRecord
  2
DASHED
 70
64
  3
- - - - - - - - - - - - - - - - - - - -
 72
65
 73
2
 40
0.2
 49
0.1
 74
0
 49
-0.1
 74
0
  0
ENDTAB
  0
TABLE
  2
LAYER
  5
2
100
AcDbSymbolTable
 70
36
  0
LAYER
  5
10
100
AcDbSymbolTableRecord
100
AcDbLayerTableRecord
  2
0
 70
0
 62
7
  6
CONTINUOUS
370
-3
390
F
  0
LAYER
  5
1FA
100
AcDbSymbolTableRecord
100
AcDbLayerTableRecord
  2
DEFAULT_1
 70
0
 62
7
  6
CENTER
370
-3
390
F
  0
LAYER
  5
1FB
100
AcDbSymbolTableRecord
100
AcDbLayerTableRecord
  2
DEFAULT_2
 70
0
 62
7
  6
HIDDEN
370
-3
390
F
  0
LAYER
  5
1FC
100
AcDbSymbolTableRecord
100
AcDbLayerTableRecord
  2
DEFAULT_3
 70
0
 62
7
  6
PHANTOM
370
-3
390
F
  0
LAYER
  5
1FD
100
AcDbSymbolTableRecord
100
AcDbLayerTableRecord
  2
00_COMPONENTS
 70
0
 62
7
  6
CONTINUOUS
370
-3
390
F
  0
LAYER
  5
1FE
100
AcDbSymbolTableRecord
100
AcDbLayerTableRecord
  2
01_1_DEFAULT_DATUMS
 70
0
 62
7
  6
CONTINUOUS
370
-3
390
F
  0
LAYER
  5
1FF
100
AcDbSymbolTableRecord
100
AcDbLayerTableRecord
  2
01_PLANES
 70
0
 62
7
  6
CONTINUOUS
370
-3
390
F
  0
LAYER
  5
200
100
AcDbSymbolTableRecord
100
AcDbLayerTableRecord
  2
02_COORD_SYS
 70
0
 62
7
  6
CONTINUOUS
370
-3
390
F
  0
LAYER
  5
201
100
AcDbSymbolTableRecord
100
AcDbLayerTableRecord
  2
03_AXES
 70
0
 62
7
  6
CONTINUOUS
370
-3
390
F
  0
LAYER
  5
202
100
AcDbSymbolTableRecord
100
AcDbLayerTableRecord
  2
04_POINTS
 70
0
 62
7
  6
CONTINUOUS
370
-3
390
F
  0
LAYER
  5
203
100
AcDbSymbolTableRecord
100
AcDbLayerTableRecord
  2
05_CURVES
 70
0
 62
7
  6
CONTINUOUS
370
-3
390
F
  0
LAYER
  5
204
100
AcDbSymbolTableRecord
100
AcDbLayerTableRecord
  2
06_SURFS
 70
0
 62
7
  6
CONTINUOUS
370
-3
390
F
  0
LAYER
  5
205
100
AcDbSymbolTableRecord
100
AcDbLayerTableRecord
  2
07_COSMETICS
 70
0
 62
7
  6
CONTINUOUS
370
-3
390
F
  0
LAYER
  5
206
100
AcDbSymbolTableRecord
100
AcDbLayerTableRecord
  2
10_NOTES
 70
0
 62
7
  6
CONTINUOUS
370
-3
390
F
  0
LAYER
  5
207
100
AcDbSymbolTableRecord
100
AcDbLayerTableRecord
  2
11_NOTES_PUB
 70
0
 62
7
  6
CONTINUOUS
370
-3
390
F
  0
LAYER
  5
208
100
AcDbSymbolTableRecord
100
AcDbLayerTableRecord
  2
13_REF_GTOL
 70
0
 62
7
  6
CONTINUOUS
370
-3
390
F
  0
LAYER
  5
209
100
AcDbSymbolTableRecord
100
AcDbLayerTableRecord
  2
16_MISC
 70
0
 62
7
  6
CONTINUOUS
370
-3
390
F
  0
LAYER
  5
20A
100
AcDbSymbolTableRecord
100
AcDbLayerTableRecord
  2
17_NO_PRINT
 70
0
 62
7
  6
CONTINUOUS
370
-3
390
F
  0
LAYER
  5
20B
100
AcDbSymbolTableRecord
100
AcDbLayerTableRecord
  2
18_DATUM_CAMS_JOINTS
 70
0
 62
7
  6
CONTINUOUS
370
-3
390
F
  0
LAYER
  5
20C
100
AcDbSymbolTableRecord
100
AcDbLayerTableRecord
  2
19_DATUM_FUNCTIONAL
 70
0
 62
7
  6
CONTINUOUS
370
-3
390
F
  0
LAYER
  5
20D
100
AcDbSymbolTableRecord
100
AcDbLayerTableRecord
  2
20_DATUM_KINEMATIC_SCHEME
 70
0
 62
7
  6
CONTINUOUS
370
-3
390
F
  0
ENDTAB
  0
TABLE
  2
STYLE
  5
3
100
AcDbSymbolTable
 70
1
  0
STYLE
  5
11
100
AcDbSymbolTableRecord
100
AcDbTextStyleTableRecord
  2
STANDARD
 70
0
 40
0.0
 41
1.0
 50
0.0
 71
0
 42
0.2
  3
ARIAL.TTF
  4

  0
STYLE
  5
20E
100
AcDbSymbolTableRecord
100
AcDbTextStyleTableRecord
  2
TEXTSTYLE_1
 70
0
 40
0.0
 41
0.8
 50
0.0
 71
0
 42
0.2
  3
gdt
  4

  0
ENDTAB
  0
TABLE
  2
VIEW
  5
6
100
AcDbSymbolTable
 70
0
  0
ENDTAB
  0
TABLE
  2
UCS
  5
7
100
AcDbSymbolTable
 70
0
  0
ENDTAB
  0
TABLE
  2
APPID
  5
9
100
AcDbSymbolTable
 70
1
  0
APPID
  5
20F
100
AcDbSymbolTableRecord
100
AcDbRegAppTableRecord
  2
ACAD
 70
0
  0
ENDTAB
  0
TABLE
  2
BLOCK_RECORD
  5
1
100
AcDbSymbolTable
 70
0
  0
BLOCK_RECORD
  5
210
100
AcDbSymbolTableRecord
100
AcDbBlockTableRecord
  2
*Model_Space
  0
BLOCK_RECORD
  5
211
100
AcDbSymbolTableRecord
100
AcDbBlockTableRecord
  2
*Paper_Space
  0
BLOCK_RECORD
  5
212
100
AcDbSymbolTableRecord
100
AcDbBlockTableRecord
  2
_FILLED
  0
ENDTAB
  0
TABLE
  2
DIMSTYLE
  5
A
100
AcDbSymbolTable
 70
1
100
AcDbDimStyleTable
 71
0
  0
DIMSTYLE
105
213
100
AcDbSymbolTableRecord
100
AcDbDimStyleTableRecord
  2
STANDARD
 70
0
  3

  4

 40
1.0
 41
1.0633808181
 42
1.0
 43
0.38
 44
1.0
 45
0.0
 46
0.0
 47
0.01
 48
0.01
140
1.4887331453
141
0.09
142
0.0
143
25.4
144
1.0
145
0.0
146
1.0
147
0.625
 71
1
 72
0
 73
0
 74
0
 75
0
 76
0
 77
1
 78
8
 79
2
170
0
171
1
172
0
173
0
174
0
175
0
176
0
177
0
178
0
270
2
179
2
271
2
272
2
273
2
274
2
275
0
280
0
281
0
282
0
283
1
284
8
285
0
286
0
287
3
288
0
340
11
278
46
341
212
342
212
343
212
344
212
  0
ENDTAB
  0
ENDSEC
  0
SECTION
  2
BLOCKS
  0
BLOCK
  5
20
100
AcDbEntity
  8
0
100
AcDbBlockBegin
  2
*Model_Space
 70
0
 10
0.0
 20
0.0
 30
0.0
  3
*Model_Space
  1

  0
ENDBLK
  5
21
100
AcDbEntity
  8
0
100
AcDbBlockEnd
  0
BLOCK
  5
1C
100
AcDbEntity
  8
0
100
AcDbBlockBegin
  2
*Paper_Space
 70
0
 10
0.0
 20
0.0
 30
0.0
  3
*Paper_Space
  1

  0
ENDBLK
  5
1D
100
AcDbEntity
  8
0
100
AcDbBlockEnd
  0
BLOCK
  5
214
100
AcDbEntity
  8
0
100
AcDbBlockBegin
  2
_FILLED
 70
64
 10
0.0
 20
0.0
  3
_FILLED
  1

  0
SOLID
  5
215
100
AcDbEntity
  8
0
  6
BYBLOCK
 62
0
100
AcDbTrace
 10
0.0
 20
0.0
 11
-1.0
 21
0.25
 12
-1.0
 22
-0.25
 13
-1.0
 23
-0.25
  0
ENDBLK
  5
216
100
AcDbEntity
  8
0
  6
BYBLOCK
 62
0
100
AcDbBlockEnd
  0
ENDSEC
  0
SECTION
  2
ENTITIES
  0
LINE
  5
217
100
AcDbEntity
  8
0
100
AcDbLine
 62
7
  6
BYLAYER
 10
21.1197821127
 20
46.3151585456
 11
20.9099599597
 21
46.503061604
  0
LINE
  5
218
100
AcDbEntity
  8
0
100
AcDbLine
 62
7
  6
BYLAYER
 10
20.9099599597
 20
46.503061604
 11
10.8736259863
 21
59.852662446
  0
LINE
  5
219
100
AcDbEntity
  8
0
100
AcDbLine
 62
7
  6
BYLAYER
 10
21.119778362
 20
46.315152051
 11
31.5925480634
 21
40.2688324308
  0
LINE
  5
21A
100
AcDbEntity
  8
0
100
AcDbLine
 62
7
  6
BYLAYER
 10
31.3827296611
 20
40.4567419838
 11
20.9099599597
 21
46.503061604
  0
LINE
  5
21B
100
AcDbEntity
  8
0
100
AcDbLine
 62
7
  6
BYLAYER
 10
31.3827296611
 20
40.4567419838
 11
31.5923243879
 21
40.2689616247
  0
LINE
  5
21C
100
AcDbEntity
  8
0
100
AcDbLine
 62
7
  6
BYLAYER
 10
27.3331083694
 20
75.55220859
 11
28.8533816194
 21
76.4299335208
  0
LINE
  5
21D
100
AcDbEntity
  8
0
100
AcDbLine
 62
7
  6
BYLAYER
 10
32.1767696543
 20
78.348681044
 11
33.6970429043
 21
79.2264059749
  0
LINE
  5
21E
100
AcDbEntity
  8
0
100
AcDbLine
 62
7
  6
BYLAYER
 10
13.8981295744
 20
67.7955521577
 11
20.6156160279
 21
71.6738716195
  0
LINE
  5
21F
100
AcDbEntity
  8
0
100
AcDbLine
 62
7
  6
BYLAYER
 10
39.0003157955
 20
82.2882196202
 11
45.717802249
 21
86.1665390819
  0
LINE
  5
220
100
AcDbEntity
  8
0
100
AcDbLine
 62
7
  6
BYLAYER
 10
10.8736259863
 20
59.852662446
 11
30.3568201508
 21
48.6042895226
  0
LINE
  5
221
100
AcDbEntity
  8
0
100
AcDbLine
 62
7
  6
BYLAYER
 10
26.8937729571
 20
74.9398474582
 11
26.8937729571
 21
73.306842624
  0
LINE
  5
222
100
AcDbEntity
  8
0
100
AcDbLine
 62
7
  6
BYLAYER
 10
27.3331172013
 20
72.6944763932
 11
27.3331172013
 21
74.3274812274
  0
LINE
  5
223
100
AcDbEntity
  8
0
100
AcDbLine
 62
7
  6
BYLAYER
 10
28.3937759011
 20
70.4490929184
 11
28.3937759011
 21
72.0820977526
  0
LINE
  5
224
100
AcDbEntity
  8
0
100
AcDbLine
 62
7
  6
BYLAYER
 10
22.8399888509
 20
71.3251013675
 11
26.8937729571
 21
73.6655407419
  0
LINE
  5
225
100
AcDbEntity
  8
0
100
AcDbLine
 62
7
  6
BYLAYER
 10
30.2676377274
 20
75.6134308479
 11
32.1767757638
 21
76.7156656277
  0
LINE
  5
226
100
AcDbEntity
  8
0
100
AcDbLine
 62
7
  6
BYLAYER
 10
36.1719547682
 20
79.0222695328
 11
36.7759429725
 21
79.3709802036
  0
LINE
  5
227
100
AcDbEntity
  8
0
100
AcDbLine
 62
7
  6
BYLAYER
 10
34.0507567411
 20
49.9552722837
 11
32.2122632256
 21
51.016702997
  0
LINE
  5
228
100
AcDbEntity
  8
0
100
AcDbLine
 62
7
  6
BYLAYER
 10
31.3827296611
 20
40.4567419838
 11
30.3568201508
 21
48.6042895226
  0
LINE
  5
229
100
AcDbEntity
  8
0
100
AcDbLine
 62
7
  6
BYLAYER
 10
34.298111049
 20
75.4909468916
 11
32.3889669029
 21
74.3887085844
  0
LINE
  5
22A
100
AcDbEntity
  8
0
100
AcDbLine
 62
7
  6
BYLAYER
 10
35.4648142732
 20
74.5315344571
 11
33.8032107916
 21
73.5722129661
  0
LINE
  5
22B
100
AcDbEntity
  8
0
100
AcDbLine
 62
7
  6
BYLAYER
 10
29.808037897
 20
71.2656125885
 11
28.3937759011
 21
70.4490929184
  0
LINE
  5
22C
100
AcDbEntity
  8
0
100
AcDbLine
 62
7
  6
BYLAYER
 10
32.8744454852
 20
48.1330293334
 11
33.8350989673
 21
40.5037308081
  0
LINE
  5
22D
100
AcDbEntity
  8
0
100
AcDbLine
 62
7
  6
BYLAYER
 10
32.1767696543
 20
76.7156762098
 11
32.1767696543
 21
78.348681044
  0
LINE
  5
22E
100
AcDbEntity
  8
0
100
AcDbLine
 62
7
  6
BYLAYER
 10
34.0507567411
 20
56.1606906539
 11
13.8981295744
 21
67.7955521577
  0
LINE
  5
22F
100
AcDbEntity
  8
0
100
AcDbLine
 62
7
  6
BYLAYER
 10
35.4648142732
 20
74.8173657095
 11
35.4648142732
 21
74.5315344571
  0
LINE
  5
230
100
AcDbEntity
  8
0
100
AcDbLine
 62
7
  6
BYLAYER
 10
36.1720004917
 20
42.4922264309
 11
36.1720005415
 21
42.1492866614
  0
LINE
  5
231
100
AcDbEntity
  8
0
100
AcDbLine
 62
7
  6
BYLAYER
 10
37.4447610024
 20
56.1606024299
 11
41.1217951132
 21
54.0377138224
  0
LINE
  5
232
100
AcDbEntity
  8
0
100
AcDbLine
 62
7
  6
BYLAYER
 10
38.2932119583
 20
81.0378568915
 11
38.2932119583
 21
81.0634730491
  0
LINE
  5
233
100
AcDbEntity
  8
0
100
AcDbLine
 62
7
  6
BYLAYER
 10
39.9549766309
 20
73.8580327443
 11
39.9549766309
 21
72.22502791
  0
LINE
  5
234
100
AcDbEntity
  8
0
100
AcDbLine
 62
7
  6
BYLAYER
 10
34.8608541784
 20
64.3850085407
 11
38.2933301603
 21
66.3667376435
  0
LINE
  5
235
100
AcDbEntity
  8
0
100
AcDbLine
 62
7
  6
BYLAYER
 10
41.0714895901
 20
64.5296242016
 11
41.0714895901
 21
64.7628028347
  0
LINE
  5
236
100
AcDbEntity
  8
0
100
AcDbLine
 62
7
  6
BYLAYER
 10
41.4753470318
 20
59.6051356948
 11
41.4753470318
 21
59.6307518524
  0
LINE
  5
237
100
AcDbEntity
  8
0
100
AcDbLine
 62
7
  6
BYLAYER
 10
42.2214895901
 20
67.6681719823
 11
42.2214895901
 21
67.9997594744
  0
LINE
  5
238
100
AcDbEntity
  8
0
100
AcDbLine
 62
7
  6
BYLAYER
 10
42.253438974
 20
68.2855230644
 11
42.2214895901
 21
67.9997594744
  0
LINE
  5
239
100
AcDbEntity
  8
0
100
AcDbLine
 62
7
  6
BYLAYER
 10
43.2214895901
 20
72.5967331045
 11
42.253438974
 21
68.2855230644
  0
LINE
  5
23A
100
AcDbEntity
  8
0
100
AcDbLine
 62
7
  6
BYLAYER
 10
36.1061654051
 20
63.6751057909
 11
39.530793563
 21
65.6523039775
  0
LINE
  5
23B
100
AcDbEntity
  8
0
100
AcDbLine
 62
7
  6
BYLAYER
 10
72.0675854884
 20
47.0263034603
 11
68.3202827587
 21
48.5411717579
  0
LINE
  5
23C
100
AcDbEntity
  8
0
100
AcDbLine
 62
7
  6
BYLAYER
 10
68.3202827586
 20
50.1741765921
 11
72.0675854884
 21
48.6593082945
  0
LINE
  5
23D
100
AcDbEntity
  8
0
100
AcDbLine
 62
7
  6
BYLAYER
 10
34.8608541784
 20
64.3850085407
 11
34.9899407481
 21
64.3194084851
  0
LINE
  5
23E
100
AcDbEntity
  8
0
100
AcDbLine
 62
7
  6
BYLAYER
 10
20.6156160279
 20
71.6738716195
 11
40.7682431946
 21
60.0390101157
  0
LINE
  5
23F
100
AcDbEntity
  8
0
100
AcDbLine
 62
7
  6
BYLAYER
 10
41.2682347111
 20
60.0885380002
 11
21.1156075444
 21
71.723399504
  0
LINE
  5
240
100
AcDbEntity
  8
0
100
AcDbLine
 62
7
  6
BYLAYER
 10
34.8608541784
 20
64.3850085407
 11
22.8399888509
 21
71.3251013675
  0
LINE
  5
241
100
AcDbEntity
  8
0
100
AcDbLine
 62
7
  6
BYLAYER
 10
34.98999934
 20
64.3195099907
 11
43.1217611792
 21
59.6247413137
  0
LINE
  5
242
100
AcDbEntity
  8
0
100
AcDbLine
 62
7
  6
BYLAYER
 10
28.3937935649
 20
69.6326430275
 11
31.9293421906
 21
67.5914392549
  0
LINE
  5
243
100
AcDbEntity
  8
0
100
AcDbLine
 62
7
  6
BYLAYER
 10
43.2214895901
 20
72.4905227686
 11
43.2214895901
 21
75.7565324371
  0
LINE
  5
244
100
AcDbEntity
  8
0
100
AcDbLine
 62
7
  6
BYLAYER
 10
43.9502104621
 20
55.1399638668
 11
43.9502104621
 21
54.5275870539
  0
LINE
  5
245
100
AcDbEntity
  8
0
100
AcDbLine
 62
7
  6
BYLAYER
 10
44.0714895901
 20
75.7565324371
 11
44.0714895901
 21
78.6142908971
  0
LINE
  5
246
100
AcDbEntity
  8
0
100
AcDbLine
 62
7
  6
BYLAYER
 10
68.3202827587
 20
48.5411717579
 11
53.425469592
 21
57.1405016063
  0
LINE
  5
247
100
AcDbEntity
  8
0
100
AcDbLine
 62
7
  6
BYLAYER
 10
53.1426221692
 20
57.7936888532
 11
27.3331172013
 21
72.6944763932
  0
LINE
  5
248
100
AcDbEntity
  8
0
100
AcDbLine
 62
7
  6
BYLAYER
 10
53.425469592
 20
58.7735064406
 11
68.3202827586
 21
50.1741765921
  0
LINE
  5
249
100
AcDbEntity
  8
0
100
AcDbLine
 62
7
  6
BYLAYER
 10
47.4856619369
 20
48.6811931233
 11
47.4856656789
 21
56.0727113159
  0
LINE
  5
24A
100
AcDbEntity
  8
0
100
AcDbLine
 62
7
  6
BYLAYER
 10
48.0714895901
 20
75.7565324371
 11
48.0714895901
 21
78.6142908971
  0
LINE
  5
24B
100
AcDbEntity
  8
0
100
AcDbLine
 62
7
  6
BYLAYER
 10
48.1927687181
 20
49.4323770468
 11
48.192767691
 21
56.2023299462
  0
LINE
  5
24C
100
AcDbEntity
  8
0
100
AcDbLine
 62
7
  6
BYLAYER
 10
34.0507567411
 20
56.1606906539
 11
40.7682431946
 21
60.0390101157
  0
LINE
  5
24D
100
AcDbEntity
  8
0
100
AcDbLine
 62
7
  6
BYLAYER
 10
59.1529429622
 20
70.6533581163
 11
65.8704294157
 21
74.5316775781
  0
LINE
  5
24E
100
AcDbEntity
  8
0
100
AcDbLine
 62
7
  6
BYLAYER
 10
65.8704294157
 20
72.572071777
 11
58.7993910436
 21
68.4896302383
  0
LINE
  5
24F
100
AcDbEntity
  8
0
100
AcDbLine
 62
7
  6
BYLAYER
 10
41.1217951132
 20
58.2835263915
 11
34.0507567411
 21
54.2010848528
  0
LINE
  5
250
100
AcDbEntity
  8
0
100
AcDbLine
 62
7
  6
BYLAYER
 10
77.6819555947
 20
50.2919574371
 11
76.6889502022
 21
50.7610201444
  0
LINE
  5
251
100
AcDbEntity
  8
0
100
AcDbLine
 62
7
  6
BYLAYER
 10
53.1426221692
 20
59.4266936874
 11
27.3331172013
 21
74.3274812274
  0
LINE
  5
252
100
AcDbEntity
  8
0
100
AcDbLine
 62
7
  6
BYLAYER
 10
60.0015741384
 20
57.1813766762
 11
70.2546651531
 21
51.2618857357
  0
LINE
  5
253
100
AcDbEntity
  8
0
100
AcDbLine
 62
7
  6
BYLAYER
 10
36.631588596
 20
71.9392852211
 11
28.8533816194
 21
76.4299335208
  0
LINE
  5
254
100
AcDbEntity
  8
0
100
AcDbLine
 62
7
  6
BYLAYER
 10
48.9214895901
 20
72.4905227686
 11
48.9214895901
 21
75.7565324371
  0
LINE
  5
255
100
AcDbEntity
  8
0
100
AcDbLine
 62
7
  6
BYLAYER
 10
49.9214895901
 20
67.7404430485
 11
49.9214895901
 21
67.9997594744
  0
LINE
  5
256
100
AcDbEntity
  8
0
100
AcDbLine
 62
7
  6
BYLAYER
 10
43.9502104621
 20
54.5275870539
 11
36.1720034855
 21
42.4922264309
  0
LINE
  5
257
100
AcDbEntity
  8
0
100
AcDbLine
 62
7
  6
BYLAYER
 10
43.8085570846
 20
58.7324416164
 11
47.6625554022
 21
60.9575353005
  0
LINE
  5
258
100
AcDbEntity
  8
0
100
AcDbLine
 62
7
  6
BYLAYER
 10
46.8987436477
 20
58.0670437594
 11
45.0108662179
 21
56.9770837233
  0
LINE
  5
259
100
AcDbEntity
  8
0
100
AcDbLine
 62
7
  6
BYLAYER
 10
34.0507567411
 20
49.9552722837
 11
41.1217951132
 21
54.0377138224
  0
LINE
  5
25A
100
AcDbEntity
  8
0
100
AcDbLine
 62
7
  6
BYLAYER
 10
60.2844648234
 20
65.1012202977
 11
65.8704294157
 21
68.3262592079
  0
LINE
  5
25B
100
AcDbEntity
  8
0
100
AcDbLine
 62
7
  6
BYLAYER
 10
48.0937724449
 20
58.5096970153
 11
46.8987436477
 21
58.0670437594
  0
LINE
  5
25C
100
AcDbEntity
  8
0
100
AcDbLine
 62
7
  6
BYLAYER
 10
62.7592402432
 20
64.1623292717
 11
61.6278682157
 21
64.3256235339
  0
LINE
  5
25D
100
AcDbEntity
  8
0
100
AcDbLine
 62
7
  6
BYLAYER
 10
76.6889502022
 20
52.3940249786
 11
77.6819555947
 21
51.9249622714
  0
LINE
  5
25E
100
AcDbEntity
  8
0
100
AcDbLine
 62
7
  6
BYLAYER
 10
39.9549766309
 20
72.22502791
 11
32.1767696543
 21
76.7156762098
  0
LINE
  5
25F
100
AcDbEntity
  8
0
100
AcDbLine
 62
7
  6
BYLAYER
 10
53.425469592
 20
57.1405016063
 11
53.1426221692
 21
57.7936888532
  0
LINE
  5
260
100
AcDbEntity
  8
0
100
AcDbLine
 62
7
  6
BYLAYER
 10
53.1426221692
 20
59.4266936874
 11
53.425469592
 21
58.7735064406
  0
LINE
  5
261
100
AcDbEntity
  8
0
100
AcDbLine
 62
7
  6
BYLAYER
 10
48.9214895901
 20
72.5967331045
 11
49.8895402062
 21
68.2855230644
  0
LINE
  5
262
100
AcDbEntity
  8
0
100
AcDbLine
 62
7
  6
BYLAYER
 10
53.1426221692
 20
59.4266936874
 11
53.1426221692
 21
57.7936888532
  0
LINE
  5
263
100
AcDbEntity
  8
0
100
AcDbLine
 62
7
  6
BYLAYER
 10
53.425469592
 20
58.7735064406
 11
53.425469592
 21
57.1405016063
  0
LINE
  5
264
100
AcDbEntity
  8
0
100
AcDbLine
 62
7
  6
BYLAYER
 10
33.5925266195
 20
40.2688396419
 11
33.8350989673
 21
40.5037308081
  0
LINE
  5
265
100
AcDbEntity
  8
0
100
AcDbLine
 62
7
  6
BYLAYER
 10
67.0467406716
 20
67.8622953903
 11
61.2744355455
 21
64.5296733649
  0
LINE
  5
266
100
AcDbEntity
  8
0
100
AcDbLine
 62
7
  6
BYLAYER
 10
43.9502104621
 20
54.5275870539
 11
32.8744454852
 21
48.1330293334
  0
LINE
  5
267
100
AcDbEntity
  8
0
100
AcDbLine
 62
7
  6
BYLAYER
 10
74.3558311946
 20
53.6296809199
 11
65.5169840687
 21
58.7326762421
  0
LINE
  5
268
100
AcDbEntity
  8
0
100
AcDbLine
 62
7
  6
BYLAYER
 10
39.9549766309
 20
73.8580327443
 11
32.1767696543
 21
78.348681044
  0
LINE
  5
269
100
AcDbEntity
  8
0
100
AcDbLine
 62
7
  6
BYLAYER
 10
75.7700750833
 20
54.4461901359
 11
65.5169840687
 21
60.3656810764
  0
LINE
  5
26A
100
AcDbEntity
  8
0
100
AcDbLine
 62
7
  6
BYLAYER
 10
74.6197600944
 20
50.1594230803
 11
73.8091779368
 21
50.7313976106
  0
LINE
  5
26B
100
AcDbEntity
  8
0
100
AcDbLine
 62
7
  6
BYLAYER
 10
48.1927687181
 20
49.4323770468
 11
53.3247270283
 21
57.3731491489
  0
LINE
  5
26C
100
AcDbEntity
  8
0
100
AcDbLine
 62
7
  6
BYLAYER
 10
61.6278682157
 20
64.3256235339
 11
49.1627708011
 21
71.5221880737
  0
LINE
  5
26D
100
AcDbEntity
  8
0
100
AcDbLine
 62
7
  6
BYLAYER
 10
43.2214895901
 20
74.9523107804
 11
35.8183632479
 21
79.2264110739
  0
LINE
  5
26E
100
AcDbEntity
  8
0
100
AcDbLine
 62
7
  6
BYLAYER
 10
62.7592402432
 20
64.1623292717
 11
77.6540534099
 21
55.5629994232
  0
LINE
  5
26F
100
AcDbEntity
  8
0
100
AcDbLine
 62
7
  6
BYLAYER
 10
36.7759429725
 20
79.3709802036
 11
43.2214895901
 21
75.6497263149
  0
LINE
  5
270
100
AcDbEntity
  8
0
100
AcDbLine
 62
7
  6
BYLAYER
 10
58.445839125
 20
69.4029953877
 11
58.445839125
 21
69.4286115453
  0
LINE
  5
271
100
AcDbEntity
  8
0
100
AcDbLine
 62
7
  6
BYLAYER
 10
49.2115080008
 20
49.3812517111
 11
55.5281051503
 21
55.9265718635
  0
LINE
  5
272
100
AcDbEntity
  8
0
100
AcDbLine
 62
7
  6
BYLAYER
 10
63.2195825889
 20
63.8965565071
 11
67.0467406716
 21
67.8622953903
  0
LINE
  5
273
100
AcDbEntity
  8
0
100
AcDbLine
 62
7
  6
BYLAYER
 10
49.4080750665
 20
49.4895688652
 11
55.5872094537
 21
55.89244875
  0
LINE
  5
274
100
AcDbEntity
  8
0
100
AcDbLine
 62
7
  6
BYLAYER
 10
63.2786868923
 20
63.8624333935
 11
67.5013571816
 21
68.2380059189
  0
LINE
  5
275
100
AcDbEntity
  8
0
100
AcDbLine
 62
7
  6
BYLAYER
 10
49.2115080008
 20
49.3812517111
 11
48.968935653
 21
49.1463605449
  0
LINE
  5
276
100
AcDbEntity
  8
0
100
AcDbLine
 62
7
  6
BYLAYER
 10
65.5169840687
 20
60.3656810764
 11
60.0015741384
 21
57.1813766762
  0
LINE
  5
277
100
AcDbEntity
  8
0
100
AcDbLine
 62
7
  6
BYLAYER
 10
36.1720005415
 20
42.1492866614
 11
47.4856619369
 21
48.6811931233
  0
LINE
  5
278
100
AcDbEntity
  8
0
100
AcDbLine
 62
7
  6
BYLAYER
 10
49.2115080008
 20
49.3812517111
 11
33.8350989673
 21
40.5037308081
  0
LINE
  5
279
100
AcDbEntity
  8
0
100
AcDbLine
 62
7
  6
BYLAYER
 10
65.5169840687
 20
58.7326762421
 11
61.4158180272
 21
56.3648810579
  0
LINE
  5
27A
100
AcDbEntity
  8
0
100
AcDbLine
 62
7
  6
BYLAYER
 10
33.5925266195
 20
40.2688396419
 11
48.968935653
 21
49.1463605449
  0
LINE
  5
27B
100
AcDbEntity
  8
0
100
AcDbLine
 62
7
  6
BYLAYER
 10
49.4080750665
 20
49.4895688652
 11
49.2115080008
 21
49.3812517111
  0
LINE
  5
27C
100
AcDbEntity
  8
0
100
AcDbLine
 62
7
  6
BYLAYER
 10
58.445839125
 20
69.4029953877
 11
48.9214895901
 21
74.9017567569
  0
LINE
  5
27D
100
AcDbEntity
  8
0
100
AcDbLine
 62
7
  6
BYLAYER
 10
44.0714895901
 20
77.7018422161
 11
38.2932119583
 21
81.0378568915
  0
LINE
  5
27E
100
AcDbEntity
  8
0
100
AcDbLine
 62
7
  6
BYLAYER
 10
38.2932119583
 20
81.0634730491
 11
44.0714895901
 21
77.7274583737
  0
LINE
  5
27F
100
AcDbEntity
  8
0
100
AcDbLine
 62
7
  6
BYLAYER
 10
48.9214895901
 20
74.9273729145
 11
58.445839125
 21
69.4286115453
  0
LINE
  5
280
100
AcDbEntity
  8
0
100
AcDbLine
 62
7
  6
BYLAYER
 10
59.1529429622
 20
70.6533581163
 11
48.0714895901
 21
77.0510934676
  0
LINE
  5
281
100
AcDbEntity
  8
0
100
AcDbLine
 62
7
  6
BYLAYER
 10
44.3735551419
 20
79.1860486176
 11
39.0003157955
 21
82.2882196202
  0
LINE
  5
282
100
AcDbEntity
  8
0
100
AcDbLine
 62
7
  6
BYLAYER
 10
62.1933953049
 20
70.4491478154
 11
65.8704294157
 21
68.3262592079
  0
LINE
  5
283
100
AcDbEntity
  8
0
100
AcDbLine
 62
7
  6
BYLAYER
 10
80.2779509814
 20
53.3995367267
 11
77.6540534099
 21
55.5629994232
  0
LINE
  5
284
100
AcDbEntity
  8
0
100
AcDbLine
 62
7
  6
BYLAYER
 10
45.717802249
 20
86.1665390819
 11
65.8704294157
 21
74.5316775781
  0
LINE
  5
285
100
AcDbEntity
  8
0
100
AcDbLine
 62
7
  6
BYLAYER
 10
73.8091779368
 20
50.7313976106
 11
73.7169116396
 21
50.8789616023
  0
LINE
  5
286
100
AcDbEntity
  8
0
100
AcDbLine
 62
7
  6
BYLAYER
 10
74.7120263917
 20
50.0118590886
 11
74.6197600944
 21
50.1594230803
  0
LINE
  5
287
100
AcDbEntity
  8
0
100
AcDbLine
 62
7
  6
BYLAYER
 10
65.5169840687
 20
60.3656810764
 11
65.5169840687
 21
58.7326762421
  0
LINE
  5
288
100
AcDbEntity
  8
0
100
AcDbLine
 62
7
  6
BYLAYER
 10
68.3703869982
 20
74.7793170009
 11
48.2177598315
 21
86.4141785047
  0
LINE
  5
289
100
AcDbEntity
  8
0
100
AcDbLine
 62
7
  6
BYLAYER
 10
68.3202827586
 20
50.1741765921
 11
68.3202827586
 21
48.5411717579
  0
LINE
  5
28A
100
AcDbEntity
  8
0
100
AcDbLine
 62
7
  6
BYLAYER
 10
70.2546651531
 20
51.2618857357
 11
75.7700750833
 21
54.4461901359
  0
LINE
  5
28B
100
AcDbEntity
  8
0
100
AcDbLine
 62
7
  6
BYLAYER
 10
73.8340377453
 20
51.042257868
 11
76.1505169519
 21
52.3796697782
  0
LINE
  5
28C
100
AcDbEntity
  8
0
100
AcDbLine
 62
7
  6
BYLAYER
 10
72.0675854884
 20
48.6593082945
 11
72.0675854884
 21
47.0263034603
  0
LINE
  5
28D
100
AcDbEntity
  8
0
100
AcDbLine
 62
7
  6
BYLAYER
 10
72.5798585888
 20
47.0521800669
 11
72.5798585888
 21
48.6851849011
  0
LINE
  5
28E
100
AcDbEntity
  8
0
100
AcDbLine
 62
7
  6
BYLAYER
 10
72.5798585888
 20
48.6851849011
 11
74.5949002859
 21
49.8485628229
  0
LINE
  5
28F
100
AcDbEntity
  8
0
100
AcDbLine
 62
7
  6
BYLAYER
 10
78.2201905525
 20
51.9416126404
 11
80.233135009
 21
53.103779727
  0
LINE
  5
290
100
AcDbEntity
  8
0
100
AcDbLine
 62
7
  6
BYLAYER
 10
74.7120563959
 20
49.9161743121
 11
76.1505169519
 21
50.746664944
  0
LINE
  5
291
100
AcDbEntity
  8
0
100
AcDbLine
 62
7
  6
BYLAYER
 10
72.5798585888
 20
47.0521800669
 11
74.5949002859
 21
48.2155579887
  0
LINE
  5
292
100
AcDbEntity
  8
0
100
AcDbLine
 62
7
  6
BYLAYER
 10
78.2180933119
 20
50.3073969709
 11
80.233135009
 21
51.4707748928
  0
LINE
  5
293
100
AcDbEntity
  8
0
100
AcDbLine
 62
7
  6
BYLAYER
 10
80.3502339685
 20
53.2670759696
 11
80.2779509814
 21
53.3995367267
  0
LINE
  5
294
100
AcDbEntity
  8
0
100
AcDbLine
 62
7
  6
BYLAYER
 10
73.8340377453
 20
50.7138556783
 11
73.8340377453
 21
51.042257868
  0
LINE
  5
295
100
AcDbEntity
  8
0
100
AcDbLine
 62
7
  6
BYLAYER
 10
74.5949002859
 20
49.8485628229
 11
74.5949002859
 21
48.2155579887
  0
LINE
  5
296
100
AcDbEntity
  8
0
100
AcDbLine
 62
7
  6
BYLAYER
 10
74.7120563959
 20
50.0118591247
 11
74.7120563959
 21
48.3788542905
  0
LINE
  5
297
100
AcDbEntity
  8
0
100
AcDbLine
 62
7
  6
BYLAYER
 10
76.1505169519
 20
52.3796697782
 11
76.1505169519
 21
50.746664944
  0
LINE
  5
298
100
AcDbEntity
  8
0
100
AcDbLine
 62
7
  6
BYLAYER
 10
73.7169116396
 20
50.8789616023
 11
73.8340377453
 21
51.042257868
  0
LINE
  5
299
100
AcDbEntity
  8
0
100
AcDbLine
 62
7
  6
BYLAYER
 10
76.6866546692
 20
50.7621044778
 11
76.6866546692
 21
52.3951093121
  0
LINE
  5
29A
100
AcDbEntity
  8
0
100
AcDbLine
 62
7
  6
BYLAYER
 10
77.6819555947
 20
51.9249622714
 11
77.6819555947
 21
50.2919574371
  0
LINE
  5
29B
100
AcDbEntity
  8
0
100
AcDbLine
 62
7
  6
BYLAYER
 10
78.2180933119
 20
50.3073969709
 11
78.2180933119
 21
51.9404018052
  0
LINE
  5
29C
100
AcDbEntity
  8
0
100
AcDbLine
 62
7
  6
BYLAYER
 10
74.5949002859
 20
49.8485628229
 11
74.7120263917
 21
50.0118590886
  0
LINE
  5
29D
100
AcDbEntity
  8
0
100
AcDbLine
 62
7
  6
BYLAYER
 10
74.7120263917
 20
48.3788542543
 11
74.5949002859
 21
48.2155579887
  0
LINE
  5
29E
100
AcDbEntity
  8
0
100
AcDbLine
 62
7
  6
BYLAYER
 10
80.233135009
 20
53.103779727
 11
80.233135009
 21
51.4707748928
  0
LINE
  5
29F
100
AcDbEntity
  8
0
100
AcDbLine
 62
7
  6
BYLAYER
 10
80.3502911189
 20
53.2670760288
 11
80.3502911189
 21
51.6340711946
  0
ARC
  5
2A0
100
AcDbEntity
  8
0
100
AcDbCircle
 62
7
  6
BYLAYER
 10
46.7437116917
 20
74.5937636955
 40
2.6861161399
100
AcDbArc
 50
60.0008432223
 51
60.3181136605
  0
ARC
  5
2A1
100
AcDbEntity
  8
0
100
AcDbCircle
 62
7
  6
BYLAYER
 10
47.9689401299
 20
50.8784139372
 40
2.0
100
AcDbArc
 50
299.9998519061
 51
316.0187813605
  0
ARC
  5
2A2
100
AcDbEntity
  8
0
100
AcDbCircle
 62
7
  6
BYLAYER
 10
32.5925310964
 20
42.0008930342
 40
2.0
100
AcDbArc
 50
239.9931613533
 51
299.9998519061
  0
SPLINE
  5
2A3
100
AcDbEntity
  8
0
100
AcDbSpline
 62
7
  6
BYLAYER
 70
0
 71
3
 72
23
 73
19
 74
0
 42
0.0000001
 43
0.0000001
 44
0.0000000001
 40
0.0
 40
0.0
 40
0.0
 40
0.0
 40
0.0441746177
 40
0.090748136
 40
0.1402268348
 40
0.1929083396
 40
0.2489015841
 40
0.3081540847
 40
0.3704792173
 40
0.4355809659
 40
0.5030760552
 40
0.5725129915
 40
0.6433888569
 40
0.715164457
 40
0.7872784476
 40
0.8591617482
 40
0.9302503906
 40
1.0
 40
1.0
 40
1.0
 40
1.0
 10
50.9729119156
 20
58.2437288274
 30
0.0
 10
50.936272599
 20
58.1387923988
 30
0.0
 10
50.8415050266
 20
57.9296457086
 30
0.0
 10
50.6458591445
 20
57.6345265475
 30
0.0
 10
50.396319709
 20
57.3541239622
 30
0.0
 10
50.096073229
 20
57.0915892723
 30
0.0
 10
49.7486982624
 20
56.8497195704
 30
0.0
 10
49.358262404
 20
56.6311954516
 30
0.0
 10
48.9293089956
 20
56.4384731176
 30
0.0
 10
48.4668380612
 20
56.2737505448
 30
0.0
 10
47.9762509697
 20
56.1389279486
 30
0.0
 10
47.4632902416
 20
56.0355739527
 30
0.0
 10
46.9339716539
 20
55.9648986967
 30
0.0
 10
46.3945117109
 20
55.927734087
 30
0.0
 10
45.8512547957
 20
55.9245123558
 30
0.0
 10
45.3105805276
 20
55.9552734286
 30
0.0
 10
44.7788784633
 20
56.0196463433
 30
0.0
 10
44.4303179538
 20
56.0852693708
 30
0.0
 10
44.2590829135
 20
56.1237197064
 30
0.0
  0
SPLINE
  5
2A4
100
AcDbEntity
  8
0
100
AcDbSpline
 62
7
  6
BYLAYER
 70
0
 71
3
 72
14
 73
10
 74
0
 42
0.0000001
 43
0.0000001
 44
0.0000000001
 40
0.0
 40
0.0
 40
0.0
 40
0.0
 40
0.1080432387
 40
0.2181245527
 40
0.3321047681
 40
0.4514939919
 40
0.5774390885
 40
0.7107247732
 40
1.0
 40
1.0
 40
1.0
 40
1.0
 10
48.0714871365
 20
78.6142908973
 30
0.0
 10
48.071487257
 20
78.6521523618
 30
0.0
 10
48.0648996658
 20
78.7287413242
 30
0.0
 10
48.0355715484
 20
78.8418772669
 30
0.0
 10
47.9871030093
 20
78.952559709
 30
0.0
 10
47.9202038953
 20
79.0596998439
 30
0.0
 10
47.8355363127
 20
79.1623128236
 30
0.0
 10
47.6964402524
 20
79.295443773
 30
0.0
 10
47.573487082
 20
79.3800948768
 30
0.0
 10
47.4856972645
 20
79.4307792048
 30
0.0
  0
SPLINE
  5
2A5
100
AcDbEntity
  8
0
100
AcDbSpline
 62
7
  6
BYLAYER
 70
0
 71
3
 72
23
 73
19
 74
0
 42
0.0000001
 43
0.0000001
 44
0.0000000001
 40
0.0
 40
0.0
 40
0.0
 40
0.0
 40
0.0623837405
 40
0.128749833
 40
0.1983475093
 40
0.2703375095
 40
0.3437258725
 40
0.417468561
 40
0.4905054615
 40
0.561804668
 40
0.6304132735
 40
0.6955108801
 40
0.7564681814
 40
0.8129147999
 40
0.8648230778
 40
0.9126048662
 40
0.9571862583
 40
1.0
 40
1.0
 40
1.0
 40
1.0
 10
47.4856972645
 20
79.4307792048
 30
0.0
 10
47.4138520609
 20
79.4722581141
 30
0.0
 10
47.2598502754
 20
79.5481732605
 30
0.0
 10
47.0114538847
 20
79.6381970218
 30
0.0
 10
46.7429987419
 20
79.7063304684
 30
0.0
 10
46.4602811316
 20
79.7511699093
 30
0.0
 10
46.1692594517
 20
79.7717370033
 30
0.0
 10
45.8761555811
 20
79.7676076304
 30
0.0
 10
45.5872153458
 20
79.7388767139
 30
0.0
 10
45.3085965799
 20
79.6861478491
 30
0.0
 10
45.0462242242
 20
79.6105269378
 30
0.0
 10
44.8056431631
 20
79.5136010489
 30
0.0
 10
44.5919038786
 20
79.3973518723
 30
0.0
 10
44.4094818358
 20
79.2640603799
 30
0.0
 10
44.2622711756
 20
79.1162234035
 30
0.0
 10
44.1536597124
 20
78.9564628183
 30
0.0
 10
44.0867207308
 20
78.7879398479
 30
0.0
 10
44.071492225
 20
78.671225522
 30
0.0
 10
44.0714920437
 20
78.6142908969
 30
0.0
  0
SPLINE
  5
2A6
100
AcDbEntity
  8
0
100
AcDbSpline
 62
7
  6
BYLAYER
 70
0
 71
3
 72
14
 73
10
 74
0
 42
0.0000001
 43
0.0000001
 44
0.0000000001
 40
0.0
 40
0.0
 40
0.0
 40
0.0
 40
0.2892651055
 40
0.4225649967
 40
0.5485099838
 40
0.6678924565
 40
0.781871877
 40
0.8919559735
 40
1.0
 40
1.0
 40
1.0
 40
1.0
 10
44.9401234506
 20
77.9611002509
 30
0.0
 10
44.869894141
 20
78.0016462444
 30
0.0
 10
44.7715335526
 20
78.0693708491
 30
0.0
 10
44.6602516159
 20
78.1758717419
 30
0.0
 10
44.592517236
 20
78.2579642906
 30
0.0
 10
44.5389985351
 20
78.3436747652
 30
0.0
 10
44.5002330586
 20
78.4322221205
 30
0.0
 10
44.4767546006
 20
78.5227282286
 30
0.0
 10
44.4714980779
 20
78.5840015432
 30
0.0
 10
44.4714950191
 20
78.614290898
 30
0.0
  0
SPLINE
  5
2A7
100
AcDbEntity
  8
0
100
AcDbSpline
 62
7
  6
BYLAYER
 70
0
 71
3
 72
14
 73
10
 74
0
 42
0.0000001
 43
0.0000001
 44
0.0000000001
 40
0.0
 40
0.0
 40
0.0
 40
0.0
 40
0.2894584433
 40
0.4227785662
 40
0.5487541574
 40
0.6681306181
 40
0.782048879
 40
0.8920502845
 40
1.0
 40
1.0
 40
1.0
 40
1.0
 10
44.062963198
 20
76.9238842525
 30
0.0
 10
43.9369296884
 20
76.8516018054
 30
0.0
 10
43.7603878543
 20
76.7307800203
 30
0.0
 10
43.5605473103
 20
76.5405387943
 30
0.0
 10
43.4389230609
 20
76.3938167482
 30
0.0
 10
43.3427456362
 20
76.2405965835
 30
0.0
 10
43.2731351485
 20
76.0822226697
 30
0.0
 10
43.2309453855
 20
75.9203364838
 30
0.0
 10
43.2215026298
 20
75.8107164157
 30
0.0
 10
43.2214975656
 20
75.7565324058
 30
0.0
  0
SPLINE
  5
2A8
100
AcDbEntity
  8
0
100
AcDbSpline
 62
7
  6
BYLAYER
 70
0
 71
3
 72
15
 73
11
 74
0
 42
0.0000001
 43
0.0000001
 44
0.0000000001
 40
0.0
 40
0.0
 40
0.0
 40
0.0
 40
0.1080095118
 40
0.2180555469
 40
0.3319960674
 40
0.4513528943
 40
0.5772586155
 40
0.7104905185
 40
0.851457138
 40
1.0
 40
1.0
 40
1.0
 40
1.0
 10
48.9214816146
 20
75.7565324685
 30
0.0
 10
48.9214866573
 20
75.81048554
 30
0.0
 10
48.9121088262
 20
75.9196273825
 30
0.0
 10
48.8703001255
 20
76.0808405724
 30
0.0
 10
48.8012503459
 20
76.2385711785
 30
0.0
 10
48.7058972647
 20
76.3912407848
 30
0.0
 10
48.5852650902
 20
76.5374527618
 30
0.0
 10
48.4405938828
 20
76.6759432386
 30
0.0
 10
48.2733204554
 20
76.8053733623
 30
0.0
 10
48.1509952786
 20
76.8829287296
 30
0.0
 10
48.0867355262
 20
76.9200282757
 30
0.0
  0
SPLINE
  5
2A9
100
AcDbEntity
  8
0
100
AcDbSpline
 62
7
  6
BYLAYER
 70
0
 71
3
 72
15
 73
11
 74
0
 42
0.0000001
 43
0.0000001
 44
0.0000000001
 40
0.0
 40
0.0
 40
0.0
 40
0.0
 40
0.1485651188
 40
0.289509904
 40
0.4227292919
 40
0.5486402773
 40
0.6680022811
 40
0.7819383457
 40
0.8919859912
 40
1.0
 40
1.0
 40
1.0
 40
1.0
 10
42.535970404
 20
62.4884034323
 30
0.0
 10
42.4232169277
 20
62.5535002095
 30
0.0
 10
42.2086002116
 20
62.6895477335
 30
0.0
 10
41.9151646416
 20
62.9166351859
 30
0.0
 10
41.6613610402
 20
63.1595717972
 30
0.0
 10
41.4497479295
 20
63.4160977645
 30
0.0
 10
41.2824088241
 20
63.6839152376
 30
0.0
 10
41.1613158072
 20
63.9606585645
 30
0.0
 10
41.0879291722
 20
64.2434809679
 30
0.0
 10
41.0715049205
 20
64.4349656579
 30
0.0
 10
41.0714987022
 20
64.5296242589
 30
0.0
  0
SPLINE
  5
2AA
100
AcDbEntity
  8
0
100
AcDbSpline
 62
7
  6
BYLAYER
 70
0
 71
3
 72
9
 73
5
 74
0
 42
0.0000001
 43
0.0000001
 44
0.0000000001
 40
0.0
 40
0.0
 40
0.0
 40
0.0
 40
0.2489103204
 40
1.0
 40
1.0
 40
1.0
 40
1.0
 10
49.9214797252
 20
67.9997594744
 30
0.0
 10
49.9214796954
 20
68.0236444909
 30
0.0
 10
49.9188145255
 20
68.119587968
 30
0.0
 10
49.9053308465
 20
68.2152014434
 30
0.0
 10
49.8895360947
 20
68.2855227566
 30
0.0
  0
SPLINE
  5
2AB
100
AcDbEntity
  8
0
100
AcDbSpline
 62
7
  6
BYLAYER
 70
0
 71
3
 72
11
 73
7
 74
0
 42
0.0000001
 43
0.0000001
 44
0.0000000001
 40
0.0
 40
0.0
 40
0.0
 40
0.0
 40
0.2451114546
 40
0.5016323606
 40
0.757307886
 40
1.0
 40
1.0
 40
1.0
 40
1.0
 10
47.0704418213
 20
55.9766488127
 30
0.0
 10
46.9080814692
 20
55.9226101718
 30
0.0
 10
46.5647501953
 20
55.8437836417
 30
0.0
 10
46.0352211681
 20
55.8087661757
 30
0.0
 10
45.5082212814
 20
55.8547255336
 30
0.0
 10
45.1689225399
 20
55.9408556555
 30
0.0
 10
45.0095982795
 20
55.9984895139
 30
0.0
  0
SPLINE
  5
2AC
100
AcDbEntity
  8
0
100
AcDbSpline
 62
7
  6
BYLAYER
 70
0
 71
3
 72
21
 73
17
 74
0
 42
0.0000001
 43
0.0000001
 44
0.0000000001
 40
0.0
 40
0.0
 40
0.0
 40
0.0
 40
0.0428245136
 40
0.0874176553
 40
0.1352136023
 40
0.1871376578
 40
0.2435989015
 40
0.3045723817
 40
0.3696887567
 40
0.4383152106
 40
0.5825467358
 40
0.7295845364
 40
0.801594807
 40
0.8712113376
 40
0.9376033435
 40
1.0
 40
1.0
 40
1.0
 40
1.0
 10
47.6714841611
 20
78.6142908962
 30
0.0
 10
47.6714887606
 20
78.5687443232
 30
0.0
 10
47.6592947922
 20
78.4753758765
 30
0.0
 10
47.6057612573
 20
78.3405529447
 30
0.0
 10
47.5188658061
 20
78.212743646
 30
0.0
 10
47.4010881409
 20
78.0944825274
 30
0.0
 10
47.255156245
 20
77.9878421009
 30
0.0
 10
47.0841701227
 20
77.8948382648
 30
0.0
 10
46.8916958981
 20
77.8172991155
 30
0.0
 10
46.6072006343
 20
77.7353399817
 30
0.0
 10
46.2260267454
 20
77.6818708105
 30
0.0
 10
45.837871389
 20
77.6925414907
 30
0.0
 10
45.534298848
 20
77.7406484503
 30
0.0
 10
45.3195178979
 20
77.7951651781
 30
0.0
 10
45.1208031202
 20
77.8671907449
 30
0.0
 10
44.9975956311
 20
77.9279194226
 30
0.0
 10
44.9401234506
 20
77.9611002509
 30
0.0
  0
SPLINE
  5
2AD
100
AcDbEntity
  8
0
100
AcDbSpline
 62
7
  6
BYLAYER
 70
0
 71
3
 72
13
 73
9
 74
0
 42
0.0000001
 43
0.0000001
 44
0.0000000001
 40
0.0
 40
0.0
 40
0.0
 40
0.0
 40
0.2651110141
 40
0.5249185139
 40
0.6504991585
 40
0.7719975581
 40
0.88872527
 40
1.0
 40
1.0
 40
1.0
 40
1.0
 10
46.4395700221
 20
61.6507506269
 30
0.0
 10
46.082768823
 20
61.6355372811
 30
0.0
 10
45.3737489636
 20
61.6491113271
 30
0.0
 10
44.5039043724
 20
61.7745160802
 30
0.0
 10
43.840924983
 20
61.9399085912
 30
0.0
 10
43.3746373273
 20
62.0922488518
 30
0.0
 10
42.9392030072
 20
62.2724998097
 30
0.0
 10
42.66578472
 20
62.4134567975
 30
0.0
 10
42.535970404
 20
62.4884034323
 30
0.0
  0
SPLINE
  5
2AE
100
AcDbEntity
  8
0
100
AcDbSpline
 62
7
  6
BYLAYER
 70
0
 71
3
 72
23
 73
19
 74
0
 42
0.0000001
 43
0.0000001
 44
0.0000000001
 40
0.0
 40
0.0
 40
0.0
 40
0.0
 40
0.0428137231
 40
0.0873954293
 40
0.1351776668
 40
0.1870862969
 40
0.2435330243
 40
0.3044900857
 40
0.3695869987
 40
0.4381944571
 40
0.5094923755
 40
0.5825283139
 40
0.6562705558
 40
0.7296592289
 40
0.8016499202
 40
0.8712483896
 40
0.9376158434
 40
1.0
 40
1.0
 40
1.0
 40
1.0
 10
48.0714874772
 20
75.7565324381
 30
0.0
 10
48.0714862916
 20
75.6995978368
 30
0.0
 10
48.0562599024
 20
75.5828829882
 30
0.0
 10
47.9893187125
 20
75.4143594537
 30
0.0
 10
47.8807062425
 20
75.2545979755
 30
0.0
 10
47.7334944467
 20
75.1067603186
 30
0.0
 10
47.5510718077
 20
74.9734691483
 30
0.0
 10
47.3373331919
 20
74.8572210411
 30
0.0
 10
47.0967545663
 20
74.7602965504
 30
0.0
 10
46.8343862742
 20
74.6846766742
 30
0.0
 10
46.5557721328
 20
74.6319477032
 30
0.0
 10
46.2668355065
 20
74.6032166334
 30
0.0
 10
45.9737331225
 20
74.5990864725
 30
0.0
 10
45.6827106179
 20
74.6196522812
 30
0.0
 10
45.3999904087
 20
74.6644906655
 30
0.0
 10
45.1315313745
 20
74.7326243416
 30
0.0
 10
44.8831317702
 20
74.8226492628
 30
0.0
 10
44.7291275997
 20
74.8985649428
 30
0.0
 10
44.6572819157
 20
74.9400441294
 30
0.0
  0
SPLINE
  5
2AF
100
AcDbEntity
  8
0
100
AcDbSpline
 62
7
  6
BYLAYER
 70
0
 71
3
 72
14
 73
10
 74
0
 42
0.0000001
 43
0.0000001
 44
0.0000000001
 40
0.0
 40
0.0
 40
0.0
 40
0.0
 40
0.2892751335
 40
0.4225593204
 40
0.5485040591
 40
0.6678937157
 40
0.7818740203
 40
0.8919557718
 40
1.0
 40
1.0
 40
1.0
 40
1.0
 10
44.6572819157
 20
74.9400441294
 30
0.0
 10
44.5694921027
 20
74.9907284549
 30
0.0
 10
44.4465392286
 20
75.0753790643
 30
0.0
 10
44.3074435797
 20
75.2085095564
 30
0.0
 10
44.2227763704
 20
75.3111222054
 30
0.0
 10
44.1558764311
 20
75.4182619102
 30
0.0
 10
44.1074075033
 20
75.5289446681
 30
0.0
 10
44.0780795351
 20
75.6420811242
 30
0.0
 10
44.0714909146
 20
75.7186706146
 30
0.0
 10
44.071491703
 20
75.7565324362
 30
0.0
  0
SPLINE
  5
2B0
100
AcDbEntity
  8
0
100
AcDbSpline
 62
7
  6
BYLAYER
 70
0
 71
3
 72
15
 73
11
 74
0
 42
0.0000001
 43
0.0000001
 44
0.0000000001
 40
0.0
 40
0.0
 40
0.0
 40
0.0
 40
0.1485424806
 40
0.289507063
 40
0.4227371856
 40
0.5486421081
 40
0.6679989207
 40
0.7819403199
 40
0.8919888333
 40
1.0
 40
1.0
 40
1.0
 40
1.0
 10
44.056243654
 20
71.3270269301
 30
0.0
 10
43.9919840127
 20
71.364126412
 30
0.0
 10
43.8696594654
 20
71.4416807624
 30
0.0
 10
43.702387705
 20
71.5711098596
 30
0.0
 10
43.5577173152
 20
71.7095981238
 30
0.0
 10
43.4370856806
 20
71.8558089253
 30
0.0
 10
43.3417295643
 20
72.0084769285
 30
0.0
 10
43.2726797965
 20
72.1662095881
 30
0.0
 10
43.2308688177
 20
72.3274248281
 30
0.0
 10
43.2214901213
 20
72.436568825
 30
0.0
 10
43.2214949143
 20
72.4905227685
 30
0.0
  0
SPLINE
  5
2B1
100
AcDbEntity
  8
0
100
AcDbSpline
 62
7
  6
BYLAYER
 70
0
 71
3
 72
9
 73
5
 74
0
 42
0.0000001
 43
0.0000001
 44
0.0000000001
 40
0.0
 40
0.0
 40
0.0
 40
0.0
 40
0.5039673676
 40
1.0
 40
1.0
 40
1.0
 40
1.0
 10
49.8589326402
 20
67.600722675
 30
0.0
 10
49.8794421241
 20
67.6656118447
 30
0.0
 10
49.9108474891
 20
67.7975356704
 30
0.0
 10
49.9214798089
 20
67.9327777029
 30
0.0
 10
49.9214797252
 20
67.9997594744
 30
0.0
  0
SPLINE
  5
2B2
100
AcDbEntity
  8
0
100
AcDbSpline
 62
7
  6
BYLAYER
 70
0
 71
3
 72
24
 73
20
 74
0
 42
0.0000001
 43
0.0000001
 44
0.0000000001
 40
0.0
 40
0.0
 40
0.0
 40
0.0
 40
0.0213335065
 40
0.0428951692
 40
0.0874729334
 40
0.1352515866
 40
0.1871560752
 40
0.2435974164
 40
0.3045496045
 40
0.369642633
 40
0.4382454845
 40
0.5095374262
 40
0.5825673891
 40
0.6563048613
 40
0.7296876524
 40
0.8016710908
 40
0.8712638714
 40
0.9376185955
 40
1.0
 40
1.0
 40
1.0
 40
1.0
 10
48.9214842659
 20
72.4905227688
 30
0.0
 10
48.9214806742
 20
72.4500923687
 30
0.0
 10
48.9162550991
 20
72.368700339
 30
0.0
 10
48.8847973372
 20
72.2055640568
 30
0.0
 10
48.8044121008
 20
72.0028308853
 30
0.0
 10
48.6496255401
 20
71.7752932311
 30
0.0
 10
48.439844224
 20
71.5645946988
 30
0.0
 10
48.1798989409
 20
71.374655616
 30
0.0
 10
47.8753216563
 20
71.2089904727
 30
0.0
 10
47.532487559
 20
71.0708787466
 30
0.0
 10
47.158603903
 20
70.9631292697
 30
0.0
 10
46.7615762622
 20
70.887986427
 30
0.0
 10
46.3498378792
 20
70.8470379828
 30
0.0
 10
45.9321619264
 20
70.8411572364
 30
0.0
 10
45.5174536136
 20
70.8704724867
 30
0.0
 10
45.1145776906
 20
70.9343675791
 30
0.0
 10
44.7320392092
 20
71.0314594163
 30
0.0
 10
44.3780732682
 20
71.1597329447
 30
0.0
 10
44.1586281114
 20
71.2679165734
 30
0.0
 10
44.056243654
 20
71.3270269301
 30
0.0
  0
SPLINE
  5
2B3
100
AcDbEntity
  8
0
100
AcDbSpline
 62
7
  6
BYLAYER
 70
0
 71
3
 72
21
 73
17
 74
0
 42
0.0000001
 43
0.0000001
 44
0.0000000001
 40
0.0
 40
0.0
 40
0.0
 40
0.0
 40
0.0428245136
 40
0.0874176553
 40
0.1352136023
 40
0.1871376578
 40
0.2435989015
 40
0.3045723817
 40
0.3696887567
 40
0.4383152106
 40
0.5825467358
 40
0.7295845364
 40
0.801594807
 40
0.8712113376
 40
0.9376033435
 40
1.0
 40
1.0
 40
1.0
 40
1.0
 10
44.4714950191
 20
78.614290898
 30
0.0
 10
44.4714904196
 20
78.659837471
 30
0.0
 10
44.483684388
 20
78.7532059177
 30
0.0
 10
44.5372179229
 20
78.8880288495
 30
0.0
 10
44.6241133741
 20
79.0158381482
 30
0.0
 10
44.7418910393
 20
79.1340992668
 30
0.0
 10
44.8878229352
 20
79.2407396933
 30
0.0
 10
45.0588090575
 20
79.3337435294
 30
0.0
 10
45.2512832821
 20
79.4112826787
 30
0.0
 10
45.5357785459
 20
79.4932418125
 30
0.0
 10
45.9169524348
 20
79.5467109837
 30
0.0
 10
46.3051077912
 20
79.5360403035
 30
0.0
 10
46.6086803322
 20
79.4879333439
 30
0.0
 10
46.8234612823
 20
79.4334166161
 30
0.0
 10
47.02217606
 20
79.3613910493
 30
0.0
 10
47.1453835491
 20
79.3006623716
 30
0.0
 10
47.2028557296
 20
79.2674815433
 30
0.0
  0
SPLINE
  5
2B4
100
AcDbEntity
  8
0
100
AcDbSpline
 62
7
  6
BYLAYER
 70
0
 71
3
 72
23
 73
19
 74
0
 42
0.0000001
 43
0.0000001
 44
0.0000000001
 40
0.0
 40
0.0
 40
0.0
 40
0.0
 40
0.0623837405
 40
0.128749833
 40
0.1983475093
 40
0.2703375095
 40
0.3437258725
 40
0.417468561
 40
0.4905054615
 40
0.561804668
 40
0.6304132735
 40
0.6955108801
 40
0.7564681814
 40
0.8129147999
 40
0.8648230778
 40
0.9126048662
 40
0.9571862583
 40
1.0
 40
1.0
 40
1.0
 40
1.0
 10
44.6572819157
 20
77.7978025894
 30
0.0
 10
44.7291271193
 20
77.7563236801
 30
0.0
 10
44.8831289048
 20
77.6804085337
 30
0.0
 10
45.1315252955
 20
77.5903847724
 30
0.0
 10
45.3999804383
 20
77.5222513258
 30
0.0
 10
45.6826980486
 20
77.4774118849
 30
0.0
 10
45.9737197285
 20
77.4568447909
 30
0.0
 10
46.2668235991
 20
77.4609741638
 30
0.0
 10
46.5557638344
 20
77.4897050803
 30
0.0
 10
46.8343826003
 20
77.5424339451
 30
0.0
 10
47.096754956
 20
77.6180548564
 30
0.0
 10
47.3373360171
 20
77.7149807453
 30
0.0
 10
47.5510753016
 20
77.8312299219
 30
0.0
 10
47.7334973444
 20
77.9645214143
 30
0.0
 10
47.8807080046
 20
78.1123583908
 30
0.0
 10
47.9893194678
 20
78.2721189759
 30
0.0
 10
48.0562584494
 20
78.4406419464
 30
0.0
 10
48.0714869552
 20
78.5573562722
 30
0.0
 10
48.0714871365
 20
78.6142908973
 30
0.0
  0
SPLINE
  5
2B5
100
AcDbEntity
  8
0
100
AcDbSpline
 62
7
  6
BYLAYER
 70
0
 71
3
 72
14
 73
10
 74
0
 42
0.0000001
 43
0.0000001
 44
0.0000000001
 40
0.0
 40
0.0
 40
0.0
 40
0.0
 40
0.2892651055
 40
0.4225649967
 40
0.5485099838
 40
0.6678924565
 40
0.781871877
 40
0.8919559735
 40
1.0
 40
1.0
 40
1.0
 40
1.0
 10
47.2028557296
 20
79.2674815433
 30
0.0
 10
47.2730850392
 20
79.2269355498
 30
0.0
 10
47.3714456276
 20
79.1592109451
 30
0.0
 10
47.4827275643
 20
79.0527100523
 30
0.0
 10
47.5504619442
 20
78.9706175036
 30
0.0
 10
47.6039806451
 20
78.884907029
 30
0.0
 10
47.6427461216
 20
78.7963596737
 30
0.0
 10
47.6662245796
 20
78.7058535656
 30
0.0
 10
47.6714811023
 20
78.644580251
 30
0.0
 10
47.6714841611
 20
78.6142908962
 30
0.0
  0
SPLINE
  5
2B6
100
AcDbEntity
  8
0
100
AcDbSpline
 62
7
  6
BYLAYER
 70
0
 71
3
 72
14
 73
10
 74
0
 42
0.0000001
 43
0.0000001
 44
0.0000000001
 40
0.0
 40
0.0
 40
0.0
 40
0.0
 40
0.1080432387
 40
0.2181245527
 40
0.3321047681
 40
0.4514939919
 40
0.5774390885
 40
0.7107247732
 40
1.0
 40
1.0
 40
1.0
 40
1.0
 10
44.0714920437
 20
78.6142908969
 30
0.0
 10
44.0714919232
 20
78.5764294324
 30
0.0
 10
44.0780795144
 20
78.49984047
 30
0.0
 10
44.1074076318
 20
78.3867045273
 30
0.0
 10
44.1558761709
 20
78.2760220852
 30
0.0
 10
44.2227752849
 20
78.1688819503
 30
0.0
 10
44.3074428675
 20
78.0662689706
 30
0.0
 10
44.4465389278
 20
77.9331380212
 30
0.0
 10
44.5694920982
 20
77.8484869175
 30
0.0
 10
44.6572819157
 20
77.7978025894
 30
0.0
  0
SPLINE
  5
2B7
100
AcDbEntity
  8
0
100
AcDbSpline
 62
7
  6
BYLAYER
 70
0
 71
3
 72
15
 73
11
 74
0
 42
0.0000001
 43
0.0000001
 44
0.0000000001
 40
0.0
 40
0.0
 40
0.0
 40
0.0
 40
0.1080095118
 40
0.2180555469
 40
0.3319960674
 40
0.4513528943
 40
0.5772586155
 40
0.7104905185
 40
0.851457138
 40
1.0
 40
1.0
 40
1.0
 40
1.0
 10
43.2214975656
 20
75.7565324058
 30
0.0
 10
43.2214925229
 20
75.7025793343
 30
0.0
 10
43.230870354
 20
75.5934374918
 30
0.0
 10
43.2726790547
 20
75.4322243019
 30
0.0
 10
43.3417288343
 20
75.2744936958
 30
0.0
 10
43.4370819155
 20
75.1218240895
 30
0.0
 10
43.55771409
 20
74.9756121125
 30
0.0
 10
43.7023852974
 20
74.8371216357
 30
0.0
 10
43.8696587248
 20
74.707691512
 30
0.0
 10
43.9919839016
 20
74.6301361447
 30
0.0
 10
44.056243654
 20
74.5930365986
 30
0.0
  0
SPLINE
  5
2B8
100
AcDbEntity
  8
0
100
AcDbSpline
 62
7
  6
BYLAYER
 70
0
 71
3
 72
24
 73
20
 74
0
 42
0.0000001
 43
0.0000001
 44
0.0000000001
 40
0.0
 40
0.0
 40
0.0
 40
0.0
 40
0.0623812861
 40
0.1287359625
 40
0.198329039
 40
0.2703121066
 40
0.3436937416
 40
0.4174316861
 40
0.4904625895
 40
0.5617552401
 40
0.6303585057
 40
0.6954515579
 40
0.7564035257
 40
0.8128445536
 40
0.8647487279
 40
0.9125271433
 40
0.9571048169
 40
0.97866651
 40
1.0
 40
1.0
 40
1.0
 40
1.0
 10
44.056243654
 20
74.5930365986
 30
0.0
 10
44.1586278313
 20
74.5339264036
 30
0.0
 10
44.378072484
 20
74.4257429338
 30
0.0
 10
44.7320384222
 20
74.2974695388
 30
0.0
 10
45.1145764974
 20
74.2003784346
 30
0.0
 10
45.5174497008
 20
74.1364833493
 30
0.0
 10
45.9321556778
 20
74.1071683592
 30
0.0
 10
46.3498317671
 20
74.113048815
 30
0.0
 10
46.7615738337
 20
74.1539976024
 30
0.0
 10
47.1586049002
 20
74.229141596
 30
0.0
 10
47.5324902386
 20
74.3368919531
 30
0.0
 10
47.8753241045
 20
74.4750045608
 30
0.0
 10
48.1798999218
 20
74.6406697412
 30
0.0
 10
48.4398434362
 20
74.830608028
 30
0.0
 10
48.6496232057
 20
75.0413054553
 30
0.0
 10
48.8044087483
 20
75.2688419171
 30
0.0
 10
48.8847945711
 20
75.4715741097
 30
0.0
 10
48.9162518228
 20
75.6347101992
 30
0.0
 10
48.9214778359
 20
75.7161021336
 30
0.0
 10
48.9214816146
 20
75.7565324685
 30
0.0
  0
SPLINE
  5
2B9
100
AcDbEntity
  8
0
100
AcDbSpline
 62
7
  6
BYLAYER
 70
0
 71
3
 72
9
 73
5
 74
0
 42
0.0000001
 43
0.0000001
 44
0.0000000001
 40
0.0
 40
0.0
 40
0.0
 40
0.0
 40
0.4932011216
 40
1.0
 40
1.0
 40
1.0
 40
1.0
 10
42.221499455
 20
67.9997594744
 30
0.0
 10
42.2214995657
 20
67.9110863281
 30
0.0
 10
42.2403731614
 20
67.7308249207
 30
0.0
 10
42.295232336
 20
67.5582748804
 30
0.0
 10
42.3306121084
 20
67.4743061741
 30
0.0
  0
SPLINE
  5
2BA
100
AcDbEntity
  8
0
100
AcDbSpline
 62
7
  6
BYLAYER
 70
0
 71
3
 72
14
 73
10
 74
0
 42
0.0000001
 43
0.0000001
 44
0.0000000001
 40
0.0
 40
0.0
 40
0.0
 40
0.0
 40
0.1080439357
 40
0.2181284372
 40
0.3321077086
 40
0.4514901729
 40
0.5774361716
 40
0.7107375535
 40
1.0
 40
1.0
 40
1.0
 40
1.0
 10
50.1714732379
 20
68.4080106835
 30
0.0
 10
50.1714654982
 20
68.3303953115
 30
0.0
 10
50.1579996742
 20
68.1733838064
 30
0.0
 10
50.0978322974
 20
67.9414660366
 30
0.0
 10
49.9985025092
 20
67.7145641893
 30
0.0
 10
49.8613619172
 20
67.494933469
 30
0.0
 10
49.6877955711
 20
67.2845713913
 30
0.0
 10
49.4026405913
 20
67.0116653091
 30
0.0
 10
49.1505972671
 20
66.8381216558
 30
0.0
 10
48.9706394632
 20
66.7342235895
 30
0.0
  0
SPLINE
  5
2BB
100
AcDbEntity
  8
0
100
AcDbSpline
 62
7
  6
BYLAYER
 70
0
 71
3
 72
11
 73
7
 74
0
 42
0.0000001
 43
0.0000001
 44
0.0000000001
 40
0.0
 40
0.0
 40
0.0
 40
0.0
 40
0.2897048043
 40
0.5490913404
 40
0.7822177947
 40
1.0
 40
1.0
 40
1.0
 40
1.0
 10
27.3331083694
 20
75.55220859
 30
0.0
 10
27.2672904508
 20
75.5142088238
 30
0.0
 10
27.147880155
 20
75.4319626963
 30
0.0
 10
27.0051682147
 20
75.2819789496
 30
0.0
 10
26.91489332
 20
75.1160605876
 30
0.0
 10
26.8937804313
 20
74.9969794755
 30
0.0
 10
26.8937804419
 20
74.9398474582
 30
0.0
  0
SPLINE
  5
2BC
100
AcDbEntity
  8
0
100
AcDbSpline
 62
7
  6
BYLAYER
 70
0
 71
3
 72
15
 73
11
 74
0
 42
0.0000001
 43
0.0000001
 44
0.0000000001
 40
0.0
 40
0.0
 40
0.0
 40
0.0
 40
0.1141464977
 40
0.2373352781
 40
0.3669759338
 40
0.4999994786
 40
0.633023096
 40
0.7626639634
 40
0.8858530776
 40
1.0
 40
1.0
 40
1.0
 40
1.0
 10
39.9549904676
 20
71.9392932096
 30
0.0
 10
39.8412423014
 20
71.8736210672
 30
0.0
 10
39.592478749
 20
71.7577977002
 30
0.0
 10
39.1874124796
 20
71.6346557112
 30
0.0
 10
38.748843071
 20
71.5589027467
 30
0.0
 10
38.2932923341
 20
71.5333126134
 30
0.0
 10
37.8377412331
 20
71.5589005846
 30
0.0
 10
37.3991707486
 20
71.6346514667
 30
0.0
 10
36.9941027354
 20
71.7577915301
 30
0.0
 10
36.745337659
 20
71.8736136547
 30
0.0
 10
36.631588596
 20
71.9392852211
 30
0.0
  0
SPLINE
  5
2BD
100
AcDbEntity
  8
0
100
AcDbSpline
 62
7
  6
BYLAYER
 70
0
 71
3
 72
15
 73
11
 74
0
 42
0.0000001
 43
0.0000001
 44
0.0000000001
 40
0.0
 40
0.0
 40
0.0
 40
0.0
 40
0.1141236058
 40
0.2373475862
 40
0.3669728832
 40
0.5000004526
 40
0.6330279586
 40
0.7626530685
 40
0.8858767805
 40
1.0
 40
1.0
 40
1.0
 40
1.0
 10
35.8183632479
 20
79.2264110739
 30
0.0
 10
35.7457724633
 20
79.2683204348
 30
0.0
 10
35.5869700339
 20
79.3422317231
 30
0.0
 10
35.3284294133
 20
79.4208617802
 30
0.0
 10
35.048471434
 20
79.4692019947
 30
0.0
 10
34.7577014335
 20
79.4855499452
 30
0.0
 10
34.466931646
 20
79.4692006479
 30
0.0
 10
34.1869742744
 20
79.4208591243
 30
0.0
 10
33.9284346784
 20
79.3422278072
 30
0.0
 10
33.7696331409
 20
79.2683157173
 30
0.0
 10
33.6970429043
 20
79.2264059749
 30
0.0
  0
SPLINE
  5
2BE
100
AcDbEntity
  8
0
100
AcDbSpline
 62
7
  6
BYLAYER
 70
0
 71
3
 72
23
 73
19
 74
0
 42
0.0000001
 43
0.0000001
 44
0.0000000001
 40
0.0
 40
0.0
 40
0.0
 40
0.0
 40
0.0623787808
 40
0.1287508374
 40
0.1983472105
 40
0.2703367968
 40
0.3437259636
 40
0.4174681352
 40
0.4905058163
 40
0.5618044816
 40
0.6304129746
 40
0.6955118801
 40
0.756468595
 40
0.8129139144
 40
0.8648231254
 40
0.9126056571
 40
0.9571866904
 40
1.0
 40
1.0
 40
1.0
 40
1.0
 10
48.9706394632
 20
66.7342235895
 30
0.0
 10
48.8233687567
 20
66.649197315
 30
0.0
 10
48.5076572871
 20
66.4935795885
 30
0.0
 10
47.9984523818
 20
66.3090104126
 30
0.0
 10
47.4481075665
 20
66.1693257573
 30
0.0
 10
46.8685347336
 20
66.0774231274
 30
0.0
 10
46.2719402685
 20
66.0352537353
 30
0.0
 10
45.6710728359
 20
66.0437068622
 30
0.0
 10
45.0787431654
 20
66.1025988359
 30
0.0
 10
44.5075775431
 20
66.2107178027
 30
0.0
 10
43.969709818
 20
66.3657314415
 30
0.0
 10
43.4765053743
 20
66.5644064442
 30
0.0
 10
43.0383469139
 20
66.8027331348
 30
0.0
 10
42.6643979583
 20
67.0759976411
 30
0.0
 10
42.3625948566
 20
67.3790414464
 30
0.0
 10
42.1399210775
 20
67.7065492859
 30
0.0
 10
42.0027404881
 20
68.0520360276
 30
0.0
 10
41.9714943036
 20
68.2912955931
 30
0.0
 10
41.9715059423
 20
68.4080106824
 30
0.0
  0
SPLINE
  5
2BF
100
AcDbEntity
  8
0
100
AcDbSpline
 62
7
  6
BYLAYER
 70
0
 71
3
 72
11
 73
7
 74
0
 42
0.0000001
 43
0.0000001
 44
0.0000000001
 40
0.0
 40
0.0
 40
0.0
 40
0.0
 40
0.2327126917
 40
0.4901144803
 40
0.7527957796
 40
1.0
 40
1.0
 40
1.0
 40
1.0
 10
72.5798585888
 20
47.0521800669
 30
0.0
 10
72.5444237081
 20
47.0317218511
 30
0.0
 10
72.4629079826
 20
47.0004003173
 30
0.0
 10
72.3311681912
 20
46.9808984473
 30
0.0
 10
72.1956039065
 20
46.9874397073
 30
0.0
 10
72.1078819352
 20
47.010013394
 30
0.0
 10
72.0675854884
 20
47.0263034603
 30
0.0
  0
SPLINE
  5
2C0
100
AcDbEntity
  8
0
100
AcDbSpline
 62
7
  6
BYLAYER
 70
0
 71
3
 72
11
 73
7
 74
0
 42
0.0000001
 43
0.0000001
 44
0.0000000001
 40
0.0
 40
0.0
 40
0.0
 40
0.0
 40
0.2427377605
 40
0.5055169994
 40
0.7653287406
 40
1.0
 40
1.0
 40
1.0
 40
1.0
 10
76.6889502022
 20
50.7610201444
 30
0.0
 10
76.6482847617
 20
50.7802291454
 30
0.0
 10
76.5577209185
 20
50.8082587487
 30
0.0
 10
76.4153226212
 20
50.8190242314
 30
0.0
 10
76.2752587048
 20
50.8009635835
 30
0.0
 10
76.1881713483
 20
50.7684045901
 30
0.0
 10
76.1505169519
 20
50.746664944
 30
0.0
  0
SPLINE
  5
2C1
100
AcDbEntity
  8
0
100
AcDbSpline
 62
7
  6
BYLAYER
 70
0
 71
3
 72
11
 73
7
 74
0
 42
0.0000001
 43
0.0000001
 44
0.0000000001
 40
0.0
 40
0.0
 40
0.0
 40
0.0
 40
0.2340404476
 40
0.4936040641
 40
0.7566166755
 40
1.0
 40
1.0
 40
1.0
 40
1.0
 10
78.2201905525
 20
50.3086078061
 30
0.0
 10
78.1826453669
 20
50.2869312125
 30
0.0
 10
78.0960957522
 20
50.2536395463
 30
0.0
 10
77.956147134
 20
50.2351200461
 30
0.0
 10
77.8137144465
 20
50.245405659
 30
0.0
 10
77.7227205065
 20
50.2727014491
 30
0.0
 10
77.6819555947
 20
50.2919574371
 30
0.0
  0
SPLINE
  5
2C2
100
AcDbEntity
  8
0
100
AcDbSpline
 62
7
  6
BYLAYER
 70
0
 71
3
 72
11
 73
7
 74
0
 42
0.0000001
 43
0.0000001
 44
0.0000000001
 40
0.0
 40
0.0
 40
0.0
 40
0.0
 40
0.2176508936
 40
0.4508380426
 40
0.7105823259
 40
1.0
 40
1.0
 40
1.0
 40
1.0
 10
80.3502809753
 20
51.6340711394
 30
0.0
 10
80.3502849491
 20
51.6188456679
 30
0.0
 10
80.3446544012
 20
51.5870989511
 30
0.0
 10
80.3205953185
 20
51.542821378
 30
0.0
 10
80.2824889327
 20
51.5028618214
 30
0.0
 10
80.2506684292
 20
51.4808977572
 30
0.0
 10
80.233135009
 20
51.4707748928
 30
0.0
  0
SPLINE
  5
2C3
100
AcDbEntity
  8
0
100
AcDbSpline
 62
7
  6
BYLAYER
 70
0
 71
3
 72
11
 73
7
 74
0
 42
0.0000001
 43
0.0000001
 44
0.0000000001
 40
0.0
 40
0.0
 40
0.0
 40
0.0
 40
0.2897052857
 40
0.5490919933
 40
0.7822182543
 40
1.0
 40
1.0
 40
1.0
 40
1.0
 10
27.3331172013
 20
72.6944763932
 30
0.0
 10
27.2672980515
 20
72.7324762374
 30
0.0
 10
27.1478854894
 20
72.8147226786
 30
0.0
 10
27.0051706497
 20
72.9647075368
 30
0.0
 10
26.9148938106
 20
73.1306275062
 30
0.0
 10
26.8937804259
 20
73.2497099914
 30
0.0
 10
26.8937804419
 20
73.306842624
 30
0.0
  0
SPLINE
  5
2C4
100
AcDbEntity
  8
0
100
AcDbSpline
 62
7
  6
BYLAYER
 70
0
 71
3
 72
12
 73
8
 74
0
 42
0.0000001
 43
0.0000001
 44
0.0000000001
 40
0.0
 40
0.0
 40
0.0
 40
0.0
 40
0.1081603296
 40
0.2183666174
 40
0.4513448629
 40
0.7104422948
 40
1.0
 40
1.0
 40
1.0
 40
1.0
 10
40.6432653391
 20
72.8986589827
 30
0.0
 10
40.6432653397
 20
72.8541718203
 30
0.0
 10
40.6355509727
 20
72.7641665531
 30
0.0
 10
40.5887527205
 20
72.5837549325
 30
0.0
 10
40.4687887016
 20
72.3624828966
 30
0.0
 10
40.2452249264
 20
72.1277224915
 30
0.0
 10
40.0581318882
 20
71.9988415811
 30
0.0
 10
39.9549904676
 20
71.9392932096
 30
0.0
  0
SPLINE
  5
2C5
100
AcDbEntity
  8
0
100
AcDbSpline
 62
7
  6
BYLAYER
 70
0
 71
3
 72
9
 73
5
 74
0
 42
0.0000001
 43
0.0000001
 44
0.0000000001
 40
0.0
 40
0.0
 40
0.0
 40
0.0
 40
0.2435631126
 40
1.0
 40
1.0
 40
1.0
 40
1.0
 10
40.163486169
 20
72.0871591635
 30
0.0
 10
40.14731271
 20
72.099430565
 30
0.0
 10
40.0800566706
 20
72.1486847877
 30
0.0
 10
40.0095815092
 20
72.1935024821
 30
0.0
 10
39.9549766309
 20
72.22502791
 30
0.0
  0
SPLINE
  5
2C6
100
AcDbEntity
  8
0
100
AcDbSpline
 62
7
  6
BYLAYER
 70
0
 71
3
 72
11
 73
7
 74
0
 42
0.0000001
 43
0.0000001
 44
0.0000000001
 40
0.0
 40
0.0
 40
0.0
 40
0.0
 40
0.2177817009
 40
0.4509079353
 40
0.7102947134
 40
1.0
 40
1.0
 40
1.0
 40
1.0
 10
26.8937804419
 20
74.9398474582
 30
0.0
 10
26.8937804525
 20
74.8827148376
 30
0.0
 10
26.9148937854
 20
74.7636323717
 30
0.0
 10
27.0051706312
 20
74.5977123946
 30
0.0
 10
27.1478854883
 20
74.4477275434
 30
0.0
 10
27.2672980515
 20
74.3654810716
 30
0.0
 10
27.3331172013
 20
74.3274812274
 30
0.0
  0
SPLINE
  5
2C7
100
AcDbEntity
  8
0
100
AcDbSpline
 62
7
  6
BYLAYER
 70
0
 71
3
 72
11
 73
7
 74
0
 42
0.0000001
 43
0.0000001
 44
0.0000000001
 40
0.0
 40
0.0
 40
0.0
 40
0.0
 40
0.2704858619
 40
0.5241967673
 40
0.7654395973
 40
1.0
 40
1.0
 40
1.0
 40
1.0
 10
49.6979182637
 20
69.51236916
 30
0.0
 10
49.7726200306
 20
69.4306119723
 30
0.0
 10
49.9064835481
 20
69.2615567733
 30
0.0
 10
50.0581392425
 20
68.9854265983
 30
0.0
 10
50.1506078328
 20
68.6994347661
 30
0.0
 10
50.1714828145
 20
68.5040472609
 30
0.0
 10
50.1714732379
 20
68.4080106835
 30
0.0
  0
SPLINE
  5
2C8
100
AcDbEntity
  8
0
100
AcDbSpline
 62
7
  6
BYLAYER
 70
0
 71
3
 72
11
 73
7
 74
0
 42
0.0000001
 43
0.0000001
 44
0.0000000001
 40
0.0
 40
0.0
 40
0.0
 40
0.0
 40
0.2346712594
 40
0.4944830006
 40
0.7572622395
 40
1.0
 40
1.0
 40
1.0
 40
1.0
 10
76.1505169519
 20
52.3796697782
 30
0.0
 10
76.1881713483
 20
52.4014094243
 30
0.0
 10
76.2752587048
 20
52.4339684178
 30
0.0
 10
76.4153226212
 20
52.4520290656
 30
0.0
 10
76.5577209185
 20
52.4412635829
 30
0.0
 10
76.6482847617
 20
52.4132339796
 30
0.0
 10
76.6889502022
 20
52.3940249786
 30
0.0
  0
SPLINE
  5
2C9
100
AcDbEntity
  8
0
100
AcDbSpline
 62
7
  6
BYLAYER
 70
0
 71
3
 72
11
 73
7
 74
0
 42
0.0000001
 43
0.0000001
 44
0.0000000001
 40
0.0
 40
0.0
 40
0.0
 40
0.0
 40
0.2330907678
 40
0.4735738097
 40
0.7276904459
 40
1.0
 40
1.0
 40
1.0
 40
1.0
 10
41.9715059423
 20
68.4080106824
 30
0.0
 10
41.9715160608
 20
68.5094813984
 30
0.0
 10
41.9948213113
 20
68.716328785
 30
0.0
 10
42.0982912571
 20
69.0180631586
 30
0.0
 10
42.267268947
 20
69.3081740216
 30
0.0
 10
42.4158184995
 20
69.4841784226
 30
0.0
 10
42.4985666185
 20
69.5690628216
 30
0.0
  0
SPLINE
  5
2CA
100
AcDbEntity
  8
0
100
AcDbSpline
 62
7
  6
BYLAYER
 70
0
 71
3
 72
12
 73
8
 74
0
 42
0.0000001
 43
0.0000001
 44
0.0000000001
 40
0.0
 40
0.0
 40
0.0
 40
0.0
 40
0.2895581804
 40
0.5486557816
 40
0.7816338325
 40
0.891839914
 40
1.0
 40
1.0
 40
1.0
 40
1.0
 10
39.9549766309
 20
73.8580327443
 30
0.0
 10
40.0581199803
 20
73.7984842509
 30
0.0
 10
40.2452165691
 20
73.6696028463
 30
0.0
 10
40.4687848855
 20
73.4348407084
 30
0.0
 10
40.5887515347
 20
73.213566446
 30
0.0
 10
40.6355508046
 20
73.0331528645
 30
0.0
 10
40.6432653386
 20
72.9431466186
 30
0.0
 10
40.6432653391
 20
72.8986589827
 30
0.0
  0
SPLINE
  5
2CB
100
AcDbEntity
  8
0
100
AcDbSpline
 62
7
  6
BYLAYER
 70
0
 71
3
 72
11
 73
7
 74
0
 42
0.0000001
 43
0.0000001
 44
0.0000000001
 40
0.0
 40
0.0
 40
0.0
 40
0.0
 40
0.2472042204
 40
0.5098855197
 40
0.7672873083
 40
1.0
 40
1.0
 40
1.0
 40
1.0
 10
72.0675854884
 20
48.6593082945
 30
0.0
 10
72.1078819352
 20
48.6430182283
 30
0.0
 10
72.1956039065
 20
48.6204445415
 30
0.0
 10
72.3311681912
 20
48.6139032816
 30
0.0
 10
72.4629079826
 20
48.6334051515
 30
0.0
 10
72.5444237081
 20
48.6647266853
 30
0.0
 10
72.5798585888
 20
48.6851849011
 30
0.0
  0
SPLINE
  5
2CC
100
AcDbEntity
  8
0
100
AcDbSpline
 62
7
  6
BYLAYER
 70
0
 71
3
 72
11
 73
7
 74
0
 42
0.0000001
 43
0.0000001
 44
0.0000000001
 40
0.0
 40
0.0
 40
0.0
 40
0.0
 40
0.2894176741
 40
0.5491619574
 40
0.7823491064
 40
1.0
 40
1.0
 40
1.0
 40
1.0
 10
80.233135009
 20
53.103779727
 30
0.0
 10
80.2506684292
 20
53.1139025914
 30
0.0
 10
80.2824889327
 20
53.1358666556
 30
0.0
 10
80.3205953185
 20
53.1758262122
 30
0.0
 10
80.3446544012
 20
53.2201037853
 30
0.0
 10
80.3502849491
 20
53.2518505022
 30
0.0
 10
80.3502809753
 20
53.2670759737
 30
0.0
  0
SPLINE
  5
2CD
100
AcDbEntity
  8
0
100
AcDbSpline
 62
7
  6
BYLAYER
 70
0
 71
3
 72
11
 73
7
 74
0
 42
0.0000001
 43
0.0000001
 44
0.0000000001
 40
0.0
 40
0.0
 40
0.0
 40
0.0
 40
0.2433833245
 40
0.5063959359
 40
0.7659595524
 40
1.0
 40
1.0
 40
1.0
 40
1.0
 10
77.6819555947
 20
51.9249622714
 30
0.0
 10
77.7227205065
 20
51.9057062834
 30
0.0
 10
77.8137144465
 20
51.8784104933
 30
0.0
 10
77.956147134
 20
51.8681248804
 30
0.0
 10
78.0960957522
 20
51.8866443806
 30
0.0
 10
78.1826453669
 20
51.9199360468
 30
0.0
 10
78.2201905525
 20
51.9416126404
 30
0.0
  0
SPLINE
  5
2CE
100
AcDbEntity
  8
0
100
AcDbSpline
 62
7
  6
BYLAYER
 70
0
 71
3
 72
13
 73
9
 74
0
 42
0.0000001
 43
0.0000001
 44
0.0000000001
 40
0.0
 40
0.0
 40
0.0
 40
0.0
 40
0.1108594201
 40
0.2282221043
 40
0.35100385
 40
0.478067027
 40
0.7392306542
 40
1.0
 40
1.0
 40
1.0
 40
1.0
 10
49.9605930784
 20
57.385285549
 30
0.0
 10
49.7836492106
 20
57.2831275691
 30
0.0
 10
49.406770804
 20
57.0941821221
 30
0.0
 10
48.8014675477
 20
56.8633903282
 30
0.0
 10
48.1489350288
 20
56.6805092087
 30
0.0
 10
47.2230332118
 20
56.5032335958
 30
0.0
 10
46.0249665475
 20
56.4191706317
 30
0.0
 10
45.0617378527
 20
56.4962737055
 30
0.0
 10
44.5873050871
 20
56.5730499814
 30
0.0
  0
SPLINE
  5
2CF
100
AcDbEntity
  8
0
100
AcDbSpline
 62
7
  6
BYLAYER
 70
0
 71
3
 72
12
 73
8
 74
0
 42
0.0000001
 43
0.0000001
 44
0.0000000001
 40
0.0
 40
0.0
 40
0.0
 40
0.0
 40
0.1081605139
 40
0.2183669701
 40
0.4513454431
 40
0.7104428158
 40
1.0
 40
1.0
 40
1.0
 40
1.0
 10
32.7507883541
 20
49.8265163354
 30
0.0
 10
32.708160827
 20
49.8511267952
 30
0.0
 10
32.6261855631
 20
49.9083099534
 30
0.0
 10
32.4792046072
 20
50.0529564217
 30
0.0
 10
32.3335473052
 20
50.2903143431
 30
0.0
 10
32.2322781325
 20
50.634402809
 30
0.0
 10
32.2122867643
 20
50.884971912
 30
0.0
 10
32.2122867643
 20
51.0167437682
 30
0.0
  0
SPLINE
  5
2D0
100
AcDbEntity
  8
0
100
AcDbSpline
 62
7
  6
BYLAYER
 70
0
 71
3
 72
15
 73
11
 74
0
 42
0.0000001
 43
0.0000001
 44
0.0000000001
 40
0.0
 40
0.0
 40
0.0
 40
0.0
 40
0.1141238069
 40
0.2373489684
 40
0.3669740017
 40
0.5000015655
 40
0.6330288437
 40
0.7626536107
 40
0.8858770099
 40
1.0
 40
1.0
 40
1.0
 40
1.0
 10
43.9502104621
 20
55.1399638668
 30
0.0
 10
43.9502058056
 20
55.2237842674
 30
0.0
 10
43.965600494
 20
55.3982685941
 30
0.0
 10
44.0267746087
 20
55.6614871392
 30
0.0
 10
44.1248865327
 20
55.9281103874
 30
0.0
 10
44.2561129154
 20
56.1880990824
 30
0.0
 10
44.4156556196
 20
56.4317391128
 30
0.0
 10
44.5974987861
 20
56.650018655
 30
0.0
 10
44.7948652642
 20
56.8346044941
 30
0.0
 10
44.9382760327
 20
56.9351740104
 30
0.0
 10
45.0108662179
 20
56.9770837233
 30
0.0
  0
SPLINE
  5
2D1
100
AcDbEntity
  8
0
100
AcDbSpline
 62
7
  6
BYLAYER
 70
0
 71
3
 72
11
 73
7
 74
0
 42
0.0000001
 43
0.0000001
 44
0.0000000001
 40
0.0
 40
0.0
 40
0.0
 40
0.0
 40
0.2897042895
 40
0.5490907647
 40
0.7822174449
 40
1.0
 40
1.0
 40
1.0
 40
1.0
 10
41.4753470318
 20
59.6307518524
 30
0.0
 10
41.4753470318
 20
59.6814202255
 30
0.0
 10
41.4676650036
 20
59.777780631
 30
0.0
 10
41.4286402927
 20
59.9101746426
 30
0.0
 10
41.3629356026
 20
60.0176045814
 30
0.0
 10
41.3012188733
 20
60.069489271
 30
0.0
 10
41.2682322162
 20
60.0885336788
 30
0.0
  0
SPLINE
  5
2D2
100
AcDbEntity
  8
0
100
AcDbSpline
 62
7
  6
BYLAYER
 70
0
 71
3
 72
11
 73
7
 74
0
 42
0.0000001
 43
0.0000001
 44
0.0000000001
 40
0.0
 40
0.0
 40
0.0
 40
0.0
 40
0.2692199353
 40
0.5227730702
 40
0.7645048228
 40
1.0
 40
1.0
 40
1.0
 40
1.0
 10
43.8085570846
 20
58.7324416164
 30
0.0
 10
43.7752634715
 20
58.8300810843
 30
0.0
 10
43.697240583
 20
59.0155646549
 30
0.0
 10
43.540420078
 20
59.2647136263
 30
0.0
 10
43.3493072435
 20
59.4716396667
 30
0.0
 10
43.1998981334
 20
59.5796043317
 30
0.0
 10
43.1217503149
 20
59.624722489
 30
0.0
  0
SPLINE
  5
2D3
100
AcDbEntity
  8
0
100
AcDbSpline
 62
7
  6
BYLAYER
 70
0
 71
3
 72
14
 73
10
 74
0
 42
0.0000001
 43
0.0000001
 44
0.0000000001
 40
0.0
 40
0.0
 40
0.0
 40
0.0
 40
0.2892739853
 40
0.4225573976
 40
0.5485010804
 40
0.6678897775
 40
0.7818700675
 40
0.8919538208
 40
1.0
 40
1.0
 40
1.0
 40
1.0
 10
69.4059486018
 20
72.4903862618
 30
0.0
 10
69.4059486018
 20
72.7438170528
 30
0.0
 10
69.3763606671
 20
73.1158377511
 30
0.0
 10
69.2619857889
 20
73.5834085336
 30
0.0
 10
69.1456506318
 20
73.8949874032
 30
0.0
 10
68.9973073044
 20
74.173758729
 30
0.0
 10
68.8182505597
 20
74.4170548897
 30
0.0
 10
68.6099513027
 20
74.6219750564
 30
0.0
 10
68.452359822
 20
74.7319811855
 30
0.0
 10
68.3703827302
 20
74.7793096084
 30
0.0
  0
SPLINE
  5
2D4
100
AcDbEntity
  8
0
100
AcDbSpline
 62
7
  6
BYLAYER
 70
0
 71
3
 72
9
 73
5
 74
0
 42
0.0000001
 43
0.0000001
 44
0.0000000001
 40
0.0
 40
0.0
 40
0.0
 40
0.0
 40
0.518579061
 40
1.0
 40
1.0
 40
1.0
 40
1.0
 10
69.1534422263
 20
70.8294515802
 30
0.0
 10
69.2341332977
 20
71.1091570628
 30
0.0
 10
69.3581264076
 20
71.6583325979
 30
0.0
 10
69.4059486018
 20
72.2201335063
 30
0.0
 10
69.4059486018
 20
72.4903862618
 30
0.0
  0
SPLINE
  5
2D5
100
AcDbEntity
  8
0
100
AcDbSpline
 62
7
  6
BYLAYER
 70
0
 71
3
 72
12
 73
8
 74
0
 42
0.0000001
 43
0.0000001
 44
0.0000000001
 40
0.0
 40
0.0
 40
0.0
 40
0.0
 40
0.2895557227
 40
0.5486525747
 40
0.7816316463
 40
0.8918387372
 40
1.0
 40
1.0
 40
1.0
 40
1.0
 10
41.1217951132
 20
58.2835263915
 30
0.0
 10
41.235907957
 20
58.3494090793
 30
0.0
 10
41.4628932378
 20
58.4573754241
 30
0.0
 10
41.811502693
 20
58.5417143776
 30
0.0
 10
42.0898784444
 20
58.5342519062
 30
0.0
 10
42.2886300059
 20
58.4792901298
 30
0.0
 10
42.3791373685
 20
58.4368919939
 30
0.0
 10
42.4217635002
 20
58.4122823397
 30
0.0
  0
SPLINE
  5
2D6
100
AcDbEntity
  8
0
100
AcDbSpline
 62
7
  6
BYLAYER
 70
0
 71
3
 72
15
 73
11
 74
0
 42
0.0000001
 43
0.0000001
 44
0.0000000001
 40
0.0
 40
0.0
 40
0.0
 40
0.0
 40
0.1141475829
 40
0.2373370756
 40
0.3669780685
 40
0.5000016033
 40
0.6330249151
 40
0.7626652568
 40
0.8858537231
 40
1.0
 40
1.0
 40
1.0
 40
1.0
 10
32.2122867643
 20
51.0167437682
 30
0.0
 10
32.2122867643
 20
51.1620630617
 30
0.0
 10
32.2389230149
 20
51.4644925386
 30
0.0
 10
32.3450122323
 20
51.9207338125
 30
0.0
 10
32.5150414774
 20
52.3828597805
 30
0.0
 10
32.7425287738
 20
52.8335054406
 30
0.0
 10
33.0190531927
 20
53.2558387146
 30
0.0
 10
33.3342482921
 20
53.6341508068
 30
0.0
 10
33.6763166547
 20
53.9541456884
 30
0.0
 10
33.9249077933
 20
54.1284263626
 30
0.0
 10
34.0507567411
 20
54.2010848528
 30
0.0
  0
SPLINE
  5
2D7
100
AcDbEntity
  8
0
100
AcDbSpline
 62
7
  6
BYLAYER
 70
0
 71
3
 72
12
 73
8
 74
0
 42
0.0000001
 43
0.0000001
 44
0.0000000001
 40
0.0
 40
0.0
 40
0.0
 40
0.0
 40
0.2895557227
 40
0.5486525747
 40
0.7816316463
 40
0.8918387372
 40
1.0
 40
1.0
 40
1.0
 40
1.0
 10
65.8704294157
 20
72.572071777
 30
0.0
 10
65.9845422594
 20
72.6379544648
 30
0.0
 10
66.2115275403
 20
72.7459208096
 30
0.0
 10
66.5601369955
 20
72.8302597631
 30
0.0
 10
66.8385127469
 20
72.8227972917
 30
0.0
 10
67.0372643084
 20
72.7678355153
 30
0.0
 10
67.127771671
 20
72.7254373794
 30
0.0
 10
67.1703978027
 20
72.7008277252
 30
0.0
  0
SPLINE
  5
2D8
100
AcDbEntity
  8
0
100
AcDbSpline
 62
7
  6
BYLAYER
 70
0
 71
3
 72
11
 73
7
 74
0
 42
0.0000001
 43
0.0000001
 44
0.0000000001
 40
0.0
 40
0.0
 40
0.0
 40
0.0
 40
0.2641534023
 40
0.5245385382
 40
0.7722811334
 40
1.0
 40
1.0
 40
1.0
 40
1.0
 10
57.3339042377
 20
66.8024601833
 30
0.0
 10
57.4195644682
 20
66.9825257149
 30
0.0
 10
57.6139474975
 20
67.329050927
 30
0.0
 10
57.9646521144
 20
67.7969181944
 30
0.0
 10
58.358000229
 20
68.1917594808
 30
0.0
 10
58.6505220637
 20
68.4036812057
 30
0.0
 10
58.7993910436
 20
68.4896302383
 30
0.0
  0
SPLINE
  5
2D9
100
AcDbEntity
  8
0
100
AcDbSpline
 62
7
  6
BYLAYER
 70
0
 71
3
 72
13
 73
9
 74
0
 42
0.0000001
 43
0.0000001
 44
0.0000000001
 40
0.0
 40
0.0
 40
0.0
 40
0.0
 40
0.1142260229
 40
0.2375602528
 40
0.5000015383
 40
0.7624419778
 40
0.8857752456
 40
1.0
 40
1.0
 40
1.0
 40
1.0
 10
38.2932119583
 20
81.0634730491
 30
0.0
 10
38.2932119583
 20
81.1193535378
 30
0.0
 10
38.3034639303
 20
81.235686031
 30
0.0
 10
38.3590351962
 20
81.4744972067
 30
0.0
 10
38.4881876823
 20
81.7674021052
 30
0.0
 10
38.6772728988
 20
82.025704569
 30
0.0
 10
38.8563023
 20
82.1932357199
 30
0.0
 10
38.951922338
 20
82.2602798112
 30
0.0
 10
39.0003157955
 20
82.2882196202
 30
0.0
  0
SPLINE
  5
2DA
100
AcDbEntity
  8
0
100
AcDbSpline
 62
7
  6
BYLAYER
 70
0
 71
3
 72
11
 73
7
 74
0
 42
0.0000001
 43
0.0000001
 44
0.0000000001
 40
0.0
 40
0.0
 40
0.0
 40
0.0
 40
0.2616144477
 40
0.5178542194
 40
0.7650442616
 40
1.0
 40
1.0
 40
1.0
 40
1.0
 10
36.7759429725
 20
79.3709802036
 30
0.0
 10
36.8809099619
 20
79.5384769204
 30
0.0
 10
37.1030466643
 20
79.861285921
 30
0.0
 10
37.471835958
 20
80.3074127835
 30
0.0
 10
37.8665290927
 20
80.7028812916
 30
0.0
 10
38.1493359839
 20
80.9338594437
 30
0.0
 10
38.2932119583
 20
81.0378568915
 30
0.0
  0
SPLINE
  5
2DB
100
AcDbEntity
  8
0
100
AcDbSpline
 62
7
  6
BYLAYER
 70
0
 71
3
 72
11
 73
7
 74
0
 42
0.0000001
 43
0.0000001
 44
0.0000000001
 40
0.0
 40
0.0
 40
0.0
 40
0.0
 40
0.2707853492
 40
0.52532136
 40
0.7670219058
 40
1.0
 40
1.0
 40
1.0
 40
1.0
 10
21.7341426439
 20
71.381397291
 30
0.0
 10
21.8327368782
 20
71.4063522423
 30
0.0
 10
22.027420972
 20
71.4426974738
 30
0.0
 10
22.3165182757
 20
71.4528897186
 30
0.0
 10
22.5893234051
 20
71.4163821043
 30
0.0
 10
22.7599256028
 20
71.3604104489
 30
0.0
 10
22.8399888509
 20
71.3251013675
 30
0.0
  0
SPLINE
  5
2DC
100
AcDbEntity
  8
0
100
AcDbSpline
 62
7
  6
BYLAYER
 70
0
 71
3
 72
11
 73
7
 74
0
 42
0.0000001
 43
0.0000001
 44
0.0000000001
 40
0.0
 40
0.0
 40
0.0
 40
0.0
 40
0.289702809
 40
0.549088757
 40
0.7822160314
 40
1.0
 40
1.0
 40
1.0
 40
1.0
 10
20.6156160279
 20
71.6738716195
 30
0.0
 10
20.6594942293
 20
71.6992045596
 30
0.0
 10
20.7467821087
 20
71.7407299387
 30
0.0
 10
20.880945461
 20
71.7731291737
 30
0.0
 10
21.0068300773
 20
71.769942874
 30
0.0
 10
21.0826194939
 20
71.7424389751
 30
0.0
 10
21.1156050495
 20
71.7233951827
 30
0.0
  0
SPLINE
  5
2DD
100
AcDbEntity
  8
0
100
AcDbSpline
 62
7
  6
BYLAYER
 70
0
 71
3
 72
15
 73
11
 74
0
 42
0.0000001
 43
0.0000001
 44
0.0000000001
 40
0.0
 40
0.0
 40
0.0
 40
0.0
 40
0.114155658
 40
0.2373279333
 40
0.3669777387
 40
0.5000016213
 40
0.633025278
 40
0.7626744253
 40
0.8858456604
 40
1.0
 40
1.0
 40
1.0
 40
1.0
 10
10.3626103883
 20
61.6718193027
 30
0.0
 10
10.3626103883
 20
61.9512997705
 30
0.0
 10
10.4138007949
 20
62.5328782453
 30
0.0
 10
10.6178701876
 20
63.4102529485
 30
0.0
 10
10.9447775776
 20
64.2989637742
 30
0.0
 10
11.3823057883
 20
65.165592341
 30
0.0
 10
11.9140591976
 20
65.9778184237
 30
0.0
 10
12.5202456684
 20
66.7052828421
 30
0.0
 10
13.1780328517
 20
67.3206961145
 30
0.0
 10
13.6560948235
 20
67.6558141633
 30
0.0
 10
13.8981295744
 20
67.7955521577
 30
0.0
  0
SPLINE
  5
2DE
100
AcDbEntity
  8
0
100
AcDbSpline
 62
7
  6
BYLAYER
 70
0
 71
3
 72
11
 73
7
 74
0
 42
0.0000001
 43
0.0000001
 44
0.0000000001
 40
0.0
 40
0.0
 40
0.0
 40
0.0
 40
0.2225497827
 40
0.4619631099
 40
0.7208725575
 40
1.0
 40
1.0
 40
1.0
 40
1.0
 10
10.8736259863
 20
59.852662446
 30
0.0
 10
10.7880374988
 20
59.9665060216
 30
0.0
 10
10.6360401613
 20
60.2228116193
 30
0.0
 10
10.4771681342
 20
60.6581793585
 30
0.0
 10
10.3821276726
 20
61.1483602604
 30
0.0
 10
10.3626103883
 20
61.4931825217
 30
0.0
 10
10.3626103883
 20
61.6718193027
 30
0.0
  0
SPLINE
  5
2DF
100
AcDbEntity
  8
0
100
AcDbSpline
 62
7
  6
BYLAYER
 70
0
 71
3
 72
11
 73
7
 74
0
 42
0.0000001
 43
0.0000001
 44
0.0000000001
 40
0.0
 40
0.0
 40
0.0
 40
0.0
 40
0.2229755016
 40
0.462583856
 40
0.7214445816
 40
1.0
 40
1.0
 40
1.0
 40
1.0
 10
51.3986722363
 20
58.8409324831
 30
0.0
 10
51.3359121607
 20
58.6998518242
 30
0.0
 10
51.1742952595
 20
58.420501482
 30
0.0
 10
50.8490286783
 20
58.0384374971
 30
0.0
 10
50.4400284852
 20
57.6860110867
 30
0.0
 10
50.1276491866
 20
57.4817348623
 30
0.0
 10
49.9605930784
 20
57.385285549
 30
0.0
  0
SPLINE
  5
2E0
100
AcDbEntity
  8
0
100
AcDbSpline
 62
7
  6
BYLAYER
 70
0
 71
3
 72
14
 73
10
 74
0
 42
0.0000001
 43
0.0000001
 44
0.0000000001
 40
0.0
 40
0.0
 40
0.0
 40
0.0
 40
0.2892725412
 40
0.4225555544
 40
0.5484991078
 40
0.6678879603
 40
0.7818686775
 40
0.8919530679
 40
1.0
 40
1.0
 40
1.0
 40
1.0
 10
45.717802249
 20
86.1665390819
 30
0.0
 10
45.9372702714
 20
86.2932482474
 30
0.0
 10
46.2742290706
 20
86.4536268676
 30
0.0
 10
46.7363247241
 20
86.5883546431
 30
0.0
 10
47.0643140856
 20
86.6433930068
 30
0.0
 10
47.3798965899
 20
86.6543102653
 30
0.0
 10
47.6801149356
 20
86.6208939523
 30
0.0
 10
47.9617218166
 20
86.5429674944
 30
0.0
 10
48.1357811504
 20
86.4614979787
 30
0.0
 10
48.2177555635
 20
86.4141711123
 30
0.0
  0
SPLINE
  5
2E1
100
AcDbEntity
  8
0
100
AcDbSpline
 62
7
  6
BYLAYER
 70
0
 71
3
 72
13
 73
9
 74
0
 42
0.0000001
 43
0.0000001
 44
0.0000000001
 40
0.0
 40
0.0
 40
0.0
 40
0.0
 40
0.1213651435
 40
0.2452718743
 40
0.3705139592
 40
0.4963677644
 40
0.7485106736
 40
1.0
 40
1.0
 40
1.0
 40
1.0
 10
67.501398818
 20
68.2379113294
 30
0.0
 10
67.5879592415
 20
68.3277724922
 30
0.0
 10
67.7543328628
 20
68.5176630565
 30
0.0
 10
67.986777897
 20
68.8196366949
 30
0.0
 10
68.20612835
 20
69.136838559
 30
0.0
 10
68.4845945618
 20
69.5729628192
 30
0.0
 10
68.8065746311
 20
70.134771548
 30
0.0
 10
69.0413047618
 20
70.5964894121
 30
0.0
 10
69.1534422263
 20
70.8294515802
 30
0.0
  0
SPLINE
  5
2E2
100
AcDbEntity
  8
0
100
AcDbSpline
 62
7
  6
BYLAYER
 70
0
 71
3
 72
13
 73
9
 74
0
 42
0.0000001
 43
0.0000001
 44
0.0000000001
 40
0.0
 40
0.0
 40
0.0
 40
0.0
 40
0.2893796193
 40
0.5483174434
 40
0.6677453536
 40
0.7817684919
 40
0.8919066128
 40
1.0
 40
1.0
 40
1.0
 40
1.0
 10
28.3937935649
 20
69.6326430275
 30
0.0
 10
28.2621212039
 20
69.7086623807
 30
0.0
 10
28.0233407143
 20
69.8729852796
 30
0.0
 10
27.7791442671
 20
70.1298738576
 30
0.0
 10
27.6416718528
 20
70.3499626232
 30
0.0
 10
27.5690368738
 20
70.5160072892
 30
0.0
 10
27.5249605133
 20
70.6856877781
 30
0.0
 10
27.5151271296
 20
70.8005827624
 30
0.0
 10
27.5151271289
 20
70.8573754891
 30
0.0
  0
SPLINE
  5
2E3
100
AcDbEntity
  8
0
100
AcDbSpline
 62
7
  6
BYLAYER
 70
0
 71
3
 72
15
 73
11
 74
0
 42
0.0000001
 43
0.0000001
 44
0.0000000001
 40
0.0
 40
0.0
 40
0.0
 40
0.0
 40
0.1141464977
 40
0.2373352781
 40
0.3669759338
 40
0.4999994786
 40
0.633023096
 40
0.7626639634
 40
0.8858530776
 40
1.0
 40
1.0
 40
1.0
 40
1.0
 10
36.1719828777
 20
67.5914494529
 30
0.0
 10
36.0267724528
 20
67.5076126754
 30
0.0
 10
35.7092019604
 20
67.359753058
 30
0.0
 10
35.1920960846
 20
67.2025505189
 30
0.0
 10
34.6322202438
 20
67.1058446067
 30
0.0
 10
34.0506661116
 20
67.0731763515
 30
0.0
 10
33.4691115146
 20
67.1058418465
 30
0.0
 10
32.9092343003
 20
67.2025451003
 30
0.0
 10
32.3921261983
 20
67.3597451813
 30
0.0
 10
32.0745537604
 20
67.5076032126
 30
0.0
 10
31.9293421906
 20
67.5914392549
 30
0.0
  0
SPLINE
  5
2E4
100
AcDbEntity
  8
0
100
AcDbSpline
 62
7
  6
BYLAYER
 70
0
 71
3
 72
9
 73
5
 74
0
 42
0.0000001
 43
0.0000001
 44
0.0000000001
 40
0.0
 40
0.0
 40
0.0
 40
0.0
 40
0.2553900825
 40
1.0
 40
1.0
 40
1.0
 40
1.0
 10
35.7286420389
 20
74.6668669464
 30
0.0
 10
35.7056633931
 20
74.6564064849
 30
0.0
 10
35.6161564355
 20
74.6144327405
 30
0.0
 10
35.5285635887
 20
74.5683399218
 30
0.0
 10
35.4648142732
 20
74.5315344571
 30
0.0
  0
SPLINE
  5
2E5
100
AcDbEntity
  8
0
100
AcDbSpline
 62
7
  6
BYLAYER
 70
0
 71
3
 72
9
 73
5
 74
0
 42
0.0000001
 43
0.0000001
 44
0.0000000001
 40
0.0
 40
0.0
 40
0.0
 40
0.0
 40
0.2650270015
 40
1.0
 40
1.0
 40
1.0
 40
1.0
 10
28.3937759011
 20
70.4490929184
 30
0.0
 10
28.3438727246
 20
70.420281478
 30
0.0
 10
28.159065697
 20
70.3058583235
 30
0.0
 10
27.9881984396
 20
70.1673030418
 30
0.0
 10
27.8787207744
 20
70.0508949445
 30
0.0
  0
SPLINE
  5
2E6
100
AcDbEntity
  8
0
100
AcDbSpline
 62
7
  6
BYLAYER
 70
0
 71
3
 72
15
 73
11
 74
0
 42
0.0000001
 43
0.0000001
 44
0.0000000001
 40
0.0
 40
0.0
 40
0.0
 40
0.0
 40
0.1246810453
 40
0.2499639961
 40
0.3755141088
 40
0.5011692389
 40
0.6266575143
 40
0.7517245095
 40
0.8762572064
 40
1.0
 40
1.0
 40
1.0
 40
1.0
 10
33.8350989673
 20
40.5037308081
 30
0.0
 10
33.748815588
 20
40.436964122
 30
0.0
 10
33.5645867416
 20
40.3169956549
 30
0.0
 10
33.2629278163
 20
40.1833976513
 30
0.0
 10
32.9429812316
 20
40.0991785501
 30
0.0
 10
32.6135926988
 20
40.0665440673
 30
0.0
 10
32.2836101354
 20
40.0864764712
 30
0.0
 10
31.9619047814
 20
40.1583549068
 30
0.0
 10
31.6573810218
 20
40.2803295336
 30
0.0
 10
31.4704588331
 20
40.3932775143
 30
0.0
 10
31.3827296611
 20
40.4567419838
 30
0.0
  0
SPLINE
  5
2E7
100
AcDbEntity
  8
0
100
AcDbSpline
 62
7
  6
BYLAYER
 70
0
 71
3
 72
9
 73
5
 74
0
 42
0.0000001
 43
0.0000001
 44
0.0000000001
 40
0.0
 40
0.0
 40
0.0
 40
0.0
 40
0.2496238474
 40
1.0
 40
1.0
 40
1.0
 40
1.0
 10
50.5471247833
 20
59.2976734545
 30
0.0
 10
50.4979342803
 20
59.2407883481
 30
0.0
 10
50.3014569242
 20
59.0124020172
 30
0.0
 10
50.1067218014
 20
58.7825260608
 30
0.0
 10
49.9605930784
 20
58.6100391747
 30
0.0
  0
SPLINE
  5
2E8
100
AcDbEntity
  8
0
100
AcDbSpline
 62
7
  6
BYLAYER
 70
0
 71
3
 72
9
 73
5
 74
0
 42
0.0000001
 43
0.0000001
 44
0.0000000001
 40
0.0
 40
0.0
 40
0.0
 40
0.0
 40
0.526899791
 40
1.0
 40
1.0
 40
1.0
 40
1.0
 10
30.515237555
 20
50.0369577989
 30
0.0
 10
30.515237555
 20
49.7911393364
 30
0.0
 10
30.5511937343
 20
49.3233905648
 30
0.0
 10
30.6801119736
 20
48.8701677526
 30
0.0
 10
30.7677439305
 20
48.6675906246
 30
0.0
  0
SPLINE
  5
2E9
100
AcDbEntity
  8
0
100
AcDbSpline
 62
7
  6
BYLAYER
 70
0
 71
3
 72
15
 73
11
 74
0
 42
0.0000001
 43
0.0000001
 44
0.0000000001
 40
0.0
 40
0.0
 40
0.0
 40
0.0
 40
0.1141543519
 40
0.237325601
 40
0.366974755
 40
0.4999984147
 40
0.6330222943
 40
0.7626720931
 40
0.8858443543
 40
1.0
 40
1.0
 40
1.0
 40
1.0
 10
34.0507567411
 20
56.1606906539
 30
0.0
 10
33.8087219641
 20
56.0209526444
 30
0.0
 10
33.3306599452
 20
55.685834549
 30
0.0
 10
32.6728727106
 20
55.0704212128
 30
0.0
 10
32.0666862266
 20
54.3429567291
 30
0.0
 10
31.5349328294
 20
53.5307306195
 30
0.0
 10
31.0974046479
 20
52.6641020557
 30
0.0
 10
30.7704973078
 20
51.7753912741
 30
0.0
 10
30.5664279448
 20
50.8980166473
 30
0.0
 10
30.515237555
 20
50.3164382366
 30
0.0
 10
30.515237555
 20
50.0369577989
 30
0.0
  0
SPLINE
  5
2EA
100
AcDbEntity
  8
0
100
AcDbSpline
 62
7
  6
BYLAYER
 70
0
 71
3
 72
12
 73
8
 74
0
 42
0.0000001
 43
0.0000001
 44
0.0000000001
 40
0.0
 40
0.0
 40
0.0
 40
0.0
 40
0.1081605139
 40
0.2183669701
 40
0.4513454431
 40
0.7104428158
 40
1.0
 40
1.0
 40
1.0
 40
1.0
 10
42.4217635002
 20
58.4122823397
 30
0.0
 10
42.4643910273
 20
58.38767188
 30
0.0
 10
42.5463662913
 20
58.3304887218
 30
0.0
 10
42.6933472471
 20
58.1858422535
 30
0.0
 10
42.8390045491
 20
57.9484843321
 30
0.0
 10
42.9402737219
 20
57.6043958662
 30
0.0
 10
42.96026509
 20
57.3538267632
 30
0.0
 10
42.96026509
 20
57.222054907
 30
0.0
  0
SPLINE
  5
2EB
100
AcDbEntity
  8
0
100
AcDbSpline
 62
7
  6
BYLAYER
 70
0
 71
3
 72
11
 73
7
 74
0
 42
0.0000001
 43
0.0000001
 44
0.0000000001
 40
0.0
 40
0.0
 40
0.0
 40
0.0
 40
0.2340938586
 40
0.482333297
 40
0.7395737577
 40
1.0
 40
1.0
 40
1.0
 40
1.0
 10
58.445839125
 20
69.4029953877
 30
0.0
 10
58.2643192423
 20
69.2717879043
 30
0.0
 10
57.9100619795
 20
68.9734781443
 30
0.0
 10
57.4282541457
 20
68.4531710338
 30
0.0
 10
56.9931984148
 20
67.8617077443
 30
0.0
 10
56.7437744893
 20
67.432504997
 30
0.0
 10
56.6303929899
 20
67.2106266782
 30
0.0
  0
SPLINE
  5
2EC
100
AcDbEntity
  8
0
100
AcDbSpline
 62
7
  6
BYLAYER
 70
0
 71
3
 72
13
 73
9
 74
0
 42
0.0000001
 43
0.0000001
 44
0.0000000001
 40
0.0
 40
0.0
 40
0.0
 40
0.0
 40
0.1142247162
 40
0.2375579183
 40
0.4999983243
 40
0.7624396433
 40
0.8857739388
 40
1.0
 40
1.0
 40
1.0
 40
1.0
 10
59.1529429622
 20
70.6533581163
 30
0.0
 10
59.1045495209
 20
70.6254183167
 30
0.0
 10
59.0089295148
 20
70.5583742691
 30
0.0
 10
58.8299001636
 20
70.3908431623
 30
0.0
 10
58.640814936
 20
70.1325407521
 30
0.0
 10
58.511662398
 20
69.8396358364
 30
0.0
 10
58.4560911188
 20
69.6008245954
 30
0.0
 10
58.445839125
 20
69.4844920527
 30
0.0
 10
58.445839125
 20
69.4286115453
 30
0.0
  0
SPLINE
  5
2ED
100
AcDbEntity
  8
0
100
AcDbSpline
 62
7
  6
BYLAYER
 70
0
 71
3
 72
14
 73
10
 74
0
 42
0.0000001
 43
0.0000001
 44
0.0000000001
 40
0.0
 40
0.0
 40
0.0
 40
0.0
 40
0.1080469381
 40
0.2181313328
 40
0.3321120527
 40
0.4515009102
 40
0.577444464
 40
0.7107274675
 40
1.0
 40
1.0
 40
1.0
 40
1.0
 10
68.3703827302
 20
74.7793096084
 30
0.0
 10
68.2884083169
 20
74.826636485
 30
0.0
 10
68.1143489682
 20
74.9081059936
 30
0.0
 10
67.8327420783
 20
74.986032458
 30
0.0
 10
67.5325237206
 20
75.0194487703
 30
0.0
 10
67.2169412094
 20
75.0085314974
 30
0.0
 10
66.8889518525
 20
74.953493131
 30
0.0
 10
66.4268562135
 20
74.8187653594
 30
0.0
 10
66.0898974317
 20
74.6583867398
 30
0.0
 10
65.8704294157
 20
74.5316775781
 30
0.0
  0
SPLINE
  5
2EE
100
AcDbEntity
  8
0
100
AcDbSpline
 62
7
  6
BYLAYER
 70
0
 71
3
 72
9
 73
5
 74
0
 42
0.0000001
 43
0.0000001
 44
0.0000000001
 40
0.0
 40
0.0
 40
0.0
 40
0.0
 40
0.4821463491
 40
1.0
 40
1.0
 40
1.0
 40
1.0
 10
67.0467406716
 20
67.8622953903
 30
0.0
 10
67.1290110095
 20
67.9097939085
 30
0.0
 10
67.2881573022
 20
68.0280091387
 30
0.0
 10
67.4306129093
 20
68.1644261984
 30
0.0
 10
67.501398818
 20
68.2379113294
 30
0.0
  0
SPLINE
  5
2EF
100
AcDbEntity
  8
0
100
AcDbSpline
 62
7
  6
BYLAYER
 70
0
 71
3
 72
12
 73
8
 74
0
 42
0.0000001
 43
0.0000001
 44
0.0000000001
 40
0.0
 40
0.0
 40
0.0
 40
0.0
 40
0.1081605139
 40
0.2183669701
 40
0.4513454431
 40
0.7104428158
 40
1.0
 40
1.0
 40
1.0
 40
1.0
 10
67.1703978027
 20
72.7008277252
 30
0.0
 10
67.2130253298
 20
72.6762172655
 30
0.0
 10
67.2950005937
 20
72.6190341073
 30
0.0
 10
67.4419815496
 20
72.474387639
 30
0.0
 10
67.5876388516
 20
72.2370297176
 30
0.0
 10
67.6889080244
 20
71.8929412517
 30
0.0
 10
67.7088993925
 20
71.6423721487
 30
0.0
 10
67.7088993925
 20
71.5106002925
 30
0.0
  0
SPLINE
  5
2F0
100
AcDbEntity
  8
0
100
AcDbSpline
 62
7
  6
BYLAYER
 70
0
 71
3
 72
15
 73
11
 74
0
 42
0.0000001
 43
0.0000001
 44
0.0000000001
 40
0.0
 40
0.0
 40
0.0
 40
0.0
 40
0.1141475829
 40
0.2373370756
 40
0.3669780685
 40
0.5000016033
 40
0.6330249151
 40
0.7626652568
 40
0.8858537231
 40
1.0
 40
1.0
 40
1.0
 40
1.0
 10
42.96026509
 20
57.222054907
 30
0.0
 10
42.96026509
 20
57.0767356135
 30
0.0
 10
42.9336288394
 20
56.7743061365
 30
0.0
 10
42.827539622
 20
56.3180648627
 30
0.0
 10
42.6575103769
 20
55.8559388947
 30
0.0
 10
42.4300230805
 20
55.4052932345
 30
0.0
 10
42.1534986616
 20
54.9829599605
 30
0.0
 10
41.8383035622
 20
54.6046478684
 30
0.0
 10
41.4962351996
 20
54.2846529868
 30
0.0
 10
41.247644061
 20
54.1103723126
 30
0.0
 10
41.1217951132
 20
54.0377138224
 30
0.0
  0
SPLINE
  5
2F1
100
AcDbEntity
  8
0
100
AcDbSpline
 62
7
  6
BYLAYER
 70
0
 71
3
 72
12
 73
8
 74
0
 42
0.0000001
 43
0.0000001
 44
0.0000000001
 40
0.0
 40
0.0
 40
0.0
 40
0.0
 40
0.2895557227
 40
0.5486525747
 40
0.7816316463
 40
0.8918387372
 40
1.0
 40
1.0
 40
1.0
 40
1.0
 10
34.0507567411
 20
49.9552722837
 30
0.0
 10
33.9366438974
 20
49.8893895959
 30
0.0
 10
33.7096586165
 20
49.7814232511
 30
0.0
 10
33.3610491613
 20
49.6970842976
 30
0.0
 10
33.0826734099
 20
49.704546769
 30
0.0
 10
32.8839218485
 20
49.7595085454
 30
0.0
 10
32.7934144858
 20
49.8019066813
 30
0.0
 10
32.7507883541
 20
49.8265163354
 30
0.0
  0
SPLINE
  5
2F2
100
AcDbEntity
  8
0
100
AcDbSpline
 62
7
  6
BYLAYER
 70
0
 71
3
 72
15
 73
11
 74
0
 42
0.0000001
 43
0.0000001
 44
0.0000000001
 40
0.0
 40
0.0
 40
0.0
 40
0.0
 40
0.1141475829
 40
0.2373370756
 40
0.3669780685
 40
0.5000016033
 40
0.6330249151
 40
0.7626652568
 40
0.8858537231
 40
1.0
 40
1.0
 40
1.0
 40
1.0
 10
67.7088993925
 20
71.5106002925
 30
0.0
 10
67.7088993925
 20
71.365280999
 30
0.0
 10
67.6822631419
 20
71.062851522
 30
0.0
 10
67.5761739245
 20
70.6066102482
 30
0.0
 10
67.4061446794
 20
70.1444842802
 30
0.0
 10
67.178657383
 20
69.6938386201
 30
0.0
 10
66.9021329641
 20
69.2715053461
 30
0.0
 10
66.5869378647
 20
68.8931932539
 30
0.0
 10
66.2448695021
 20
68.5731983723
 30
0.0
 10
65.9962783635
 20
68.3989176981
 30
0.0
 10
65.8704294157
 20
68.3262592079
 30
0.0
  0
SPLINE
  5
2F3
100
AcDbEntity
  8
0
100
AcDbSpline
 62
7
  6
BYLAYER
 70
0
 71
3
 72
10
 73
6
 74
0
 42
0.0000001
 43
0.0000001
 44
0.0000000001
 40
0.0
 40
0.0
 40
0.0
 40
0.0
 40
0.4890042758
 40
0.7400083086
 40
1.0
 40
1.0
 40
1.0
 40
1.0
 10
49.9605930784
 20
58.6100391747
 30
0.0
 10
49.6554703282
 20
58.6178755468
 30
0.0
 10
49.1932430061
 20
58.6294263077
 30
0.0
 10
48.5697300265
 20
58.5915112716
 30
0.0
 10
48.2535659752
 20
58.5450032217
 30
0.0
 10
48.0945177128
 20
58.5127790299
 30
0.0
  0
SPLINE
  5
2F4
100
AcDbEntity
  8
0
100
AcDbSpline
 62
7
  6
BYLAYER
 70
0
 71
3
 72
11
 73
7
 74
0
 42
0.0000001
 43
0.0000001
 44
0.0000000001
 40
0.0
 40
0.0
 40
0.0
 40
0.0
 40
0.2663127687
 40
0.5252988686
 40
0.7713866131
 40
1.0
 40
1.0
 40
1.0
 40
1.0
 10
46.2685392884
 20
57.6820249567
 30
0.0
 10
46.6096036264
 20
57.689095257
 30
0.0
 10
47.2821944587
 20
57.7390518235
 30
0.0
 10
48.2555615704
 20
57.9211123929
 30
0.0
 10
49.1543671572
 20
58.2035461554
 30
0.0
 10
49.7069806366
 20
58.4636168371
 30
0.0
 10
49.9605930784
 20
58.6100391747
 30
0.0
  0
SPLINE
  5
2F5
100
AcDbEntity
  8
0
100
AcDbSpline
 62
7
  6
BYLAYER
 70
0
 71
3
 72
9
 73
5
 74
0
 42
0.0000001
 43
0.0000001
 44
0.0000000001
 40
0.0
 40
0.0
 40
0.0
 40
0.0
 40
0.2619517606
 40
1.0
 40
1.0
 40
1.0
 40
1.0
 10
49.9605930784
 20
58.6100391747
 30
0.0
 10
50.0350868849
 20
58.6530479372
 30
0.0
 10
50.3152397442
 20
58.8242847967
 30
0.0
 10
50.5782374673
 20
59.0248127265
 30
0.0
 10
50.7550205063
 20
59.1905950906
 30
0.0
  0
SPLINE
  5
2F6
100
AcDbEntity
  8
0
100
AcDbSpline
 62
7
  6
BYLAYER
 70
0
 71
3
 72
13
 73
9
 74
0
 42
0.0000001
 43
0.0000001
 44
0.0000000001
 40
0.0
 40
0.0
 40
0.0
 40
0.0
 40
0.1080936316
 40
0.2182319596
 40
0.3322552351
 40
0.451683196
 40
0.7106208532
 40
1.0
 40
1.0
 40
1.0
 40
1.0
 10
27.5151271289
 20
70.8573754891
 30
0.0
 10
27.5151271282
 20
70.9141676113
 30
0.0
 10
27.5249602985
 20
71.0290613463
 30
0.0
 10
27.5690357173
 20
71.1987400479
 30
0.0
 10
27.6416691477
 20
71.3647830529
 30
0.0
 10
27.7791386422
 20
71.5848696942
 30
0.0
 10
28.0233300404
 20
71.841756281
 30
0.0
 10
28.2621060025
 20
72.006078555
 30
0.0
 10
28.3937759011
 20
72.0820977526
 30
0.0
  0
SPLINE
  5
2F7
100
AcDbEntity
  8
0
100
AcDbSpline
 62
7
  6
BYLAYER
 70
0
 71
3
 72
12
 73
8
 74
0
 42
0.0000001
 43
0.0000001
 44
0.0000000001
 40
0.0
 40
0.0
 40
0.0
 40
0.0
 40
0.1118810521
 40
0.2252636206
 40
0.4614513519
 40
0.718045626
 40
1.0
 40
1.0
 40
1.0
 40
1.0
 10
43.1217503149
 20
59.624722489
 30
0.0
 10
43.0666662294
 20
59.6565249433
 30
0.0
 10
42.95098164
 20
59.7126747953
 30
0.0
 10
42.7004536813
 20
59.7929404338
 30
0.0
 10
42.3534325934
 20
59.8286038409
 30
0.0
 10
41.9138758096
 20
59.768693667
 30
0.0
 10
41.6225040958
 20
59.6686879133
 30
0.0
 10
41.4753470318
 20
59.6051356948
 30
0.0
  0
SPLINE
  5
2F8
100
AcDbEntity
  8
0
100
AcDbSpline
 62
7
  6
BYLAYER
 70
0
 71
3
 72
9
 73
5
 74
0
 42
0.0000001
 43
0.0000001
 44
0.0000000001
 40
0.0
 40
0.0
 40
0.0
 40
0.0
 40
0.27098879
 40
1.0
 40
1.0
 40
1.0
 40
1.0
 10
30.7677683323
 20
48.6675684116
 30
0.0
 10
30.731412597
 20
48.6579654376
 30
0.0
 10
30.5964230673
 20
48.6259552006
 30
0.0
 10
30.4579400501
 20
48.6070709221
 30
0.0
 10
30.3568201313
 20
48.6042896777
 30
0.0
  0
SPLINE
  5
2F9
100
AcDbEntity
  8
0
100
AcDbSpline
 62
7
  6
BYLAYER
 70
0
 71
3
 72
14
 73
10
 74
0
 42
0.0000001
 43
0.0000001
 44
0.0000000001
 40
0.0
 40
0.0
 40
0.0
 40
0.0
 40
0.0792749255
 40
0.1524314128
 40
0.2856642658
 40
0.4097307518
 40
0.5293354582
 40
0.7639827809
 40
1.0
 40
1.0
 40
1.0
 40
1.0
 10
32.8744454852
 20
48.1330293334
 30
0.0
 10
32.8213295429
 20
48.1023630129
 30
0.0
 10
32.7143013274
 20
48.0514085817
 30
0.0
 10
32.5019741929
 20
47.9876626405
 30
0.0
 10
32.2446632272
 20
47.9643978993
 30
0.0
 10
31.9534951126
 20
47.9985682883
 30
0.0
 10
31.5972197558
 20
48.1033932407
 30
0.0
 10
31.1885113534
 20
48.3162098568
 30
0.0
 10
30.9019393822
 20
48.5437582953
 30
0.0
 10
30.7677439305
 20
48.6675906246
 30
0.0
  0
SPLINE
  5
2FA
100
AcDbEntity
  8
0
100
AcDbSpline
 62
7
  6
BYLAYER
 70
0
 71
3
 72
11
 73
7
 74
0
 42
0.0000001
 43
0.0000001
 44
0.0000000001
 40
0.0
 40
0.0
 40
0.0
 40
0.0
 40
0.2177839237
 40
0.4509111717
 40
0.7102971901
 40
1.0
 40
1.0
 40
1.0
 40
1.0
 10
41.2682322162
 20
60.0885336788
 30
0.0
 10
41.2352466586
 20
60.1075774519
 30
0.0
 10
41.1594572704
 20
60.1350813743
 30
0.0
 10
41.0335726474
 20
60.1382676728
 30
0.0
 10
40.8994092933
 20
60.1058684254
 30
0.0
 10
40.812121396
 20
60.0643430558
 30
0.0
 10
40.7682431946
 20
60.0390101157
 30
0.0
  0
ELLIPSE
  5
2FB
100
AcDbEntity
  8
0
100
AcDbEllipse
 62
7
  6
BYLAYER
 10
47.8392167995
 20
49.2282549698
 30
0.0
 11
0.4845543806
 21
0.5745667263
 31
0.0
 40
0.2146258591
 41
-2.6054038173
 42
-1.0346074905
  0
ELLIPSE
  5
2FC
100
AcDbEntity
  8
0
100
AcDbEllipse
 62
7
  6
BYLAYER
 10
36.5255554041
 20
42.6963485079
 30
0.0
 11
0.4845543806
 21
0.5745667263
 31
0.0
 40
0.2146258591
 41
2.1069851631
 42
3.6777814899
  0
ENDSEC
  0
SECTION
  2
OBJECTS
  0
DICTIONARY
  5
C
100
AcDbDictionary
280
0
281
1
  3
ACAD_GROUP
350
D
  3
ACAD_MLINESTYLE
350
17
  3
ACAD_LAYOUT
350
1A
  3
ACAD_PLOTSETTINGS
350
19
  3
ACAD_PLOTSTYLENAME
350
E
  0
DICTIONARY
  5
D
102
{ACAD_REACTORS
330
C
102
}
100
AcDbDictionary
280
0
281
1
  0
ACDBDICTIONARYWDFLT
  5
E
102
{ACAD_REACTORS
330
C
102
}
100
AcDbDictionary
281
1
  3
Normal
350
F
100
AcDbDictionaryWithDefault
340
F
  0
DICTIONARY
  5
17
102
{ACAD_REACTORS
330
C
102
}
100
AcDbDictionary
280
0
281
1
  3
Standard
350
18
  0
DICTIONARY
  5
19
102
{ACAD_REACTORS
330
C
102
}
100
AcDbDictionary
281
1
  0
DICTIONARY
  5
1A
102
{ACAD_REACTORS
330
C
102
}
100
AcDbDictionary
281
1
  3
Model
350
2FD
  3
Layout1
350
2FE
  0
ACDBPLACEHOLDER
  5
F
102
{ACAD_REACTORS
330
E
102
}
  0
MLINESTYLE
  5
18
102
{ACAD_REACTORS
330
17
102
}
100
AcDbMlineStyle
  2
STANDARD
 70
0
  3

 62
256
 51
90.0
 52
90.0
 71
2
 49
0.5
 62
256
  6
BYLAYER
 49
-0.5
 62
256
  6
BYLAYER
  0
LAYOUT
  5
2FD
102
{ACAD_REACTORS
330
1A
102
}
100
AcDbPlotSettings
  1

  2
none_device
  4

  6

 40
0.0
 41
0.0
 42
0.0
 43
0.0
 44
210.0
 45
297.0
 46
0.0
 47
0.0
 48
0.0
 49
0.0
140
0.0
141
0.0
142
1.0
143
1.0
 70
1024
 72
1
 73
0
 74
0
  7

 75
0
147
1.0
148
0.0
149
0.0
100
AcDbLayout
  1
Model
 70
0
 71
0
 10
0.0
 20
0.0
 11
210.0
 21
297.0
 12
0.0
 22
0.0
 32
0.0
 14
0.0
 24
0.0
 34
0.0
 15
0.0
 25
0.0
 35
0.0
146
0.0
 13
0.0
 23
0.0
 33
0.0
 16
1.0
 26
0.0
 36
0.0
 17
0.0
 27
1.0
 37
0.0
 76
0
330
210
345
0
346
0
  0
LAYOUT
  5
2FE
102
{ACAD_REACTORS
330
1A
102
}
100
AcDbPlotSettings
  1

  2
none_device
  4

  6

 40
0.0
 41
0.0
 42
0.0
 43
0.0
 44
210.0
 45
297.0
 46
0.0
 47
0.0
 48
0.0
 49
0.0
140
0.0
141
0.0
142
1.0
143
1.0
 70
0
 72
1
 73
0
 74
0
  7

 75
0
147
1.0
148
0.0
149
0.0
100
AcDbLayout
  1
Layout1
 70
0
 71
1
 10
0.0
 20
0.0
 11
210.0
 21
297.0
 12
0.0
 22
0.0
 32
0.0
 14
0.0
 24
0.0
 34
0.0
 15
0.0
 25
0.0
 35
0.0
146
0.0
 13
0.0
 23
0.0
 33
0.0
 16
1.0
 26
0.0
 36
0.0
 17
0.0
 27
1.0
 37
0.0
 76
0
330
211
345
0
346
0
  0
ENDSEC
  0
EOF
