999
DXF file: C:\Users\sesa63760\Dev\_Creo\CAD\MCADID0003695_3D-CAD\drw0001_1.dxf
999
Pro/ENGINEER 2019471 by Parametric Technology Corporation
  0
SECTION
  2
HEADER
  9
$ACADVER
  1
AC1024
  9
$DWGCODEPAGE
  3
ANSI_1252
  9
$EXTMAX
 10
153.4228193044
 20
216.9837015877
 30
0.0
  9
$EXTMIN
 10
-0.0
 20
0.0
 30
0.0
  9
$LIMMIN
 10
-0.0
 20
0.0
  9
$LIMMAX
 10
153.4228193044
 20
216.9837015877
  9
$VIEWCTR
 10
76.7114096522
 20
108.4918507938
  9
$VIEWSIZE
 40
216.9837015877
  9
$CLAYER
  8
0
  9
$LTSCALE
 40
14.1441227702
  9
$CELTYPE
  6
BYLAYER
  9
$DIMSCALE
 40
1.0
  9
$DIMASZ
 40
1.8264621346
  9
$DIMEXO
 40
1.0
  9
$DIMDLI
 40
9.7723030048
  9
$DIMEXE
 40
1.0
  9
$DIMCEN
 40
2.3144928169
  9
$DIMLFAC
 40
1.0
  9
$DIMBLK
  1
_FILLED
  9
$DIMALT
 70
0
  9
$DIMALTF
 40
0.0393700787
  9
$DIMTXT
 40
2.5570469884
  9
$DIMTOL
 70
1
  9
$DIMLIM
 70
0
  9
$DIMTFAC
 40
1.0
  9
$DIMTP
 40
0.01
  9
$DIMTM
 40
0.01
  9
$DIMGAP
 40
0.625
  9
$DIMDSEP
 70
46
  9
$AUNITS
 70
0
  9
$PDMODE
 70
3
  9
$PDSIZE
 40
0.3125
  9
$HANDSEED
  5
352
  9
$TILEMODE
 70
1
  9
$MEASUREMENT
 70
1
  9
$INSUNITS
 70
4
  0
ENDSEC
  0
SECTION
  2
CLASSES
  0
CLASS
  1
ACDBDICTIONARYWDFLT
  2
AcDbDictionaryWithDefault
  3
AutoCAD 2000
 90
0
 91
1
280
0
281
0
  0
CLASS
  1
ACDBPLACEHOLDER
  2
AcDbPlaceHolder
  3
AutoCAD 2000
 90
0
 91
1
280
0
281
0
  0
CLASS
  1
LAYOUT
  2
AcDbLayout
  3
AutoCAD 2000
 90
0
 91
0
280
0
281
0
  0
ENDSEC
  0
SECTION
  2
TABLES
  0
TABLE
  2
VPORT
  5
8
100
AcDbSymbolTable
 70
2
  0
VPORT
  5
1F4
100
AcDbSymbolTableRecord
100
AcDbViewportTableRecord
  2
*ACTIVE
 70
0
 10
0.0
 20
0.0
 11
1.0
 21
1.0
 12
76.7114096522
 22
108.4918507938
 13
0.0
 23
0.0
 14
1.0
 24
1.0
 15
0.0
 25
0.0
 16
0.0
 26
0.0
 36
1.0
 17
0.0
 27
0.0
 37
0.0
 40
216.9837015877
 41
0.7070707071
 42
50.0
 43
0.0
 44
0.0
 50
0.0
 51
0.0
 71
0
 72
100
 73
1
 74
1
 75
0
 76
0
 77
0
 78
0
  0
ENDTAB
  0
TABLE
  2
LTYPE
  5
5
100
AcDbSymbolTable
 70
6
  0
LTYPE
  5
14
100
AcDbSymbolTableRecord
100
AcDbLinetypeTableRecord
  2
BYBLOCK
 70
0
  3

 72
65
 73
0
 40
0.0
  0
LTYPE
  5
15
100
AcDbSymbolTableRecord
100
AcDbLinetypeTableRecord
  2
BYLAYER
 70
0
  3

 72
65
 73
0
 40
0.0
  0
LTYPE
  5
16
100
AcDbSymbolTableRecord
100
AcDbLinetypeTableRecord
  2
CONTINUOUS
 70
64
  3
Solid line
 72
65
 73
0
 40
0.0
  0
LTYPE
  5
1F5
100
AcDbSymbolTableRecord
100
AcDbLinetypeTableRecord
  2
CENTER
 70
64
  3
____ _ ____ _ ____ _ ____ _ ____ _ ____ _ ____
 72
65
 73
4
 40
0.6
 49
0.375
 74
0
 49
-0.075
 74
0
 49
0.075
 74
0
 49
-0.075
 74
0
  0
LTYPE
  5
1F6
100
AcDbSymbolTableRecord
100
AcDbLinetypeTableRecord
  2
HIDDEN
 70
64
  3
- - - - - - - - - - - - - - - - - - - -
 72
65
 73
2
 40
0.2
 49
0.1
 74
0
 49
-0.1
 74
0
  0
LTYPE
  5
1F7
100
AcDbSymbolTableRecord
100
AcDbLinetypeTableRecord
  2
PHANTOM
 70
64
  3
_____ _ _ _____ _ _ _____ _ _ _____
 72
65
 73
6
 40
0.8
 49
0.45
 74
0
 49
-0.05
 74
0
 49
0.1
 74
0
 49
-0.05
 74
0
 49
0.1
 74
0
 49
-0.05
 74
0
  0
LTYPE
  5
1F8
100
AcDbSymbolTableRecord
100
AcDbLinetypeTableRecord
  2
DOT
 70
64
  3
. . . . . . . . . . . . . . . . . . . .
 72
65
 73
2
 40
0.2
 49
0.1
 74
0
 49
-0.1
 74
0
  0
LTYPE
  5
1F9
100
AcDbSymbolTableRecord
100
AcDbLinetypeTableRecord
  2
DASHED
 70
64
  3
- - - - - - - - - - - - - - - - - - - -
 72
65
 73
2
 40
0.2
 49
0.1
 74
0
 49
-0.1
 74
0
  0
ENDTAB
  0
TABLE
  2
LAYER
  5
2
100
AcDbSymbolTable
 70
36
  0
LAYER
  5
10
100
AcDbSymbolTableRecord
100
AcDbLayerTableRecord
  2
0
 70
0
 62
7
  6
CONTINUOUS
370
-3
390
F
  0
LAYER
  5
1FA
100
AcDbSymbolTableRecord
100
AcDbLayerTableRecord
  2
DEFAULT_1
 70
0
 62
7
  6
CENTER
370
-3
390
F
  0
LAYER
  5
1FB
100
AcDbSymbolTableRecord
100
AcDbLayerTableRecord
  2
DEFAULT_2
 70
0
 62
7
  6
HIDDEN
370
-3
390
F
  0
LAYER
  5
1FC
100
AcDbSymbolTableRecord
100
AcDbLayerTableRecord
  2
DEFAULT_3
 70
0
 62
7
  6
PHANTOM
370
-3
390
F
  0
LAYER
  5
1FD
100
AcDbSymbolTableRecord
100
AcDbLayerTableRecord
  2
00_COMPONENTS
 70
0
 62
7
  6
CONTINUOUS
370
-3
390
F
  0
LAYER
  5
1FE
100
AcDbSymbolTableRecord
100
AcDbLayerTableRecord
  2
01_1_DEFAULT_DATUMS
 70
0
 62
7
  6
CONTINUOUS
370
-3
390
F
  0
LAYER
  5
1FF
100
AcDbSymbolTableRecord
100
AcDbLayerTableRecord
  2
01_PLANES
 70
0
 62
7
  6
CONTINUOUS
370
-3
390
F
  0
LAYER
  5
200
100
AcDbSymbolTableRecord
100
AcDbLayerTableRecord
  2
02_COORD_SYS
 70
0
 62
7
  6
CONTINUOUS
370
-3
390
F
  0
LAYER
  5
201
100
AcDbSymbolTableRecord
100
AcDbLayerTableRecord
  2
03_AXES
 70
0
 62
7
  6
CONTINUOUS
370
-3
390
F
  0
LAYER
  5
202
100
AcDbSymbolTableRecord
100
AcDbLayerTableRecord
  2
04_POINTS
 70
0
 62
7
  6
CONTINUOUS
370
-3
390
F
  0
LAYER
  5
203
100
AcDbSymbolTableRecord
100
AcDbLayerTableRecord
  2
05_CURVES
 70
0
 62
7
  6
CONTINUOUS
370
-3
390
F
  0
LAYER
  5
204
100
AcDbSymbolTableRecord
100
AcDbLayerTableRecord
  2
06_SURFS
 70
0
 62
7
  6
CONTINUOUS
370
-3
390
F
  0
LAYER
  5
205
100
AcDbSymbolTableRecord
100
AcDbLayerTableRecord
  2
07_COSMETICS
 70
0
 62
7
  6
CONTINUOUS
370
-3
390
F
  0
LAYER
  5
206
100
AcDbSymbolTableRecord
100
AcDbLayerTableRecord
  2
10_NOTES
 70
0
 62
7
  6
CONTINUOUS
370
-3
390
F
  0
LAYER
  5
207
100
AcDbSymbolTableRecord
100
AcDbLayerTableRecord
  2
11_NOTES_PUB
 70
0
 62
7
  6
CONTINUOUS
370
-3
390
F
  0
LAYER
  5
208
100
AcDbSymbolTableRecord
100
AcDbLayerTableRecord
  2
13_REF_GTOL
 70
0
 62
7
  6
CONTINUOUS
370
-3
390
F
  0
LAYER
  5
209
100
AcDbSymbolTableRecord
100
AcDbLayerTableRecord
  2
16_MISC
 70
0
 62
7
  6
CONTINUOUS
370
-3
390
F
  0
LAYER
  5
20A
100
AcDbSymbolTableRecord
100
AcDbLayerTableRecord
  2
17_NO_PRINT
 70
0
 62
7
  6
CONTINUOUS
370
-3
390
F
  0
LAYER
  5
20B
100
AcDbSymbolTableRecord
100
AcDbLayerTableRecord
  2
18_DATUM_CAMS_JOINTS
 70
0
 62
7
  6
CONTINUOUS
370
-3
390
F
  0
LAYER
  5
20C
100
AcDbSymbolTableRecord
100
AcDbLayerTableRecord
  2
19_DATUM_FUNCTIONAL
 70
0
 62
7
  6
CONTINUOUS
370
-3
390
F
  0
LAYER
  5
20D
100
AcDbSymbolTableRecord
100
AcDbLayerTableRecord
  2
20_DATUM_KINEMATIC_SCHEME
 70
0
 62
7
  6
CONTINUOUS
370
-3
390
F
  0
ENDTAB
  0
TABLE
  2
STYLE
  5
3
100
AcDbSymbolTable
 70
1
  0
STYLE
  5
11
100
AcDbSymbolTableRecord
100
AcDbTextStyleTableRecord
  2
STANDARD
 70
0
 40
0.0
 41
1.0
 50
0.0
 71
0
 42
0.2
  3
ARIAL.TTF
  4

  0
STYLE
  5
20E
100
AcDbSymbolTableRecord
100
AcDbTextStyleTableRecord
  2
TEXTSTYLE_1
 70
0
 40
0.0
 41
0.8
 50
0.0
 71
0
 42
0.2
  3
gdt
  4

  0
ENDTAB
  0
TABLE
  2
VIEW
  5
6
100
AcDbSymbolTable
 70
0
  0
ENDTAB
  0
TABLE
  2
UCS
  5
7
100
AcDbSymbolTable
 70
0
  0
ENDTAB
  0
TABLE
  2
APPID
  5
9
100
AcDbSymbolTable
 70
1
  0
APPID
  5
20F
100
AcDbSymbolTableRecord
100
AcDbRegAppTableRecord
  2
ACAD
 70
0
  0
ENDTAB
  0
TABLE
  2
BLOCK_RECORD
  5
1
100
AcDbSymbolTable
 70
0
  0
BLOCK_RECORD
  5
210
100
AcDbSymbolTableRecord
100
AcDbBlockTableRecord
  2
*Model_Space
  0
BLOCK_RECORD
  5
211
100
AcDbSymbolTableRecord
100
AcDbBlockTableRecord
  2
*Paper_Space
  0
BLOCK_RECORD
  5
212
100
AcDbSymbolTableRecord
100
AcDbBlockTableRecord
  2
_FILLED
  0
ENDTAB
  0
TABLE
  2
DIMSTYLE
  5
A
100
AcDbSymbolTable
 70
1
100
AcDbDimStyleTable
 71
0
  0
DIMSTYLE
105
213
100
AcDbSymbolTableRecord
100
AcDbDimStyleTableRecord
  2
STANDARD
 70
0
  3

  4

 40
1.0
 41
1.8264621346
 42
1.0
 43
0.38
 44
1.0
 45
0.0
 46
0.0
 47
0.01
 48
0.01
140
2.5570469884
141
0.09
142
0.0
143
25.4
144
1.0
145
0.0
146
1.0
147
0.625
 71
1
 72
0
 73
0
 74
0
 75
0
 76
0
 77
1
 78
8
 79
2
170
0
171
1
172
0
173
0
174
0
175
0
176
0
177
0
178
0
270
2
179
2
271
2
272
2
273
2
274
2
275
0
280
0
281
0
282
0
283
1
284
8
285
0
286
0
287
3
288
0
340
11
278
46
341
212
342
212
343
212
344
212
  0
ENDTAB
  0
ENDSEC
  0
SECTION
  2
BLOCKS
  0
BLOCK
  5
20
100
AcDbEntity
  8
0
100
AcDbBlockBegin
  2
*Model_Space
 70
0
 10
0.0
 20
0.0
 30
0.0
  3
*Model_Space
  1

  0
ENDBLK
  5
21
100
AcDbEntity
  8
0
100
AcDbBlockEnd
  0
BLOCK
  5
1C
100
AcDbEntity
  8
0
100
AcDbBlockBegin
  2
*Paper_Space
 70
0
 10
0.0
 20
0.0
 30
0.0
  3
*Paper_Space
  1

  0
ENDBLK
  5
1D
100
AcDbEntity
  8
0
100
AcDbBlockEnd
  0
BLOCK
  5
214
100
AcDbEntity
  8
0
100
AcDbBlockBegin
  2
_FILLED
 70
64
 10
0.0
 20
0.0
  3
_FILLED
  1

  0
SOLID
  5
215
100
AcDbEntity
  8
0
  6
BYBLOCK
 62
0
100
AcDbTrace
 10
0.0
 20
0.0
 11
-1.0
 21
0.25
 12
-1.0
 22
-0.25
 13
-1.0
 23
-0.25
  0
ENDBLK
  5
216
100
AcDbEntity
  8
0
  6
BYBLOCK
 62
0
100
AcDbBlockEnd
  0
ENDSEC
  0
SECTION
  2
ENTITIES
  0
LINE
  5
217
100
AcDbEntity
  8
0
100
AcDbLine
 62
7
  6
BYLAYER
 10
43.1980468108
 20
168.835572898
 11
25.5770191874
 21
158.6621285835
  0
LINE
  5
218
100
AcDbEntity
  8
0
100
AcDbLine
 62
7
  6
BYLAYER
 10
48.5579238075
 20
167.7823202497
 11
50.3822517075
 21
168.8355901667
  0
LINE
  5
219
100
AcDbEntity
  8
0
100
AcDbLine
 62
7
  6
BYLAYER
 10
54.5685179184
 20
46.3118246023
 11
17.7988122108
 21
67.5403438374
  0
LINE
  5
21A
100
AcDbEntity
  8
0
100
AcDbLine
 62
7
  6
BYLAYER
 10
20.9808047963
 20
68.2752395543
 11
21.617203549
 21
67.9078228752
  0
LINE
  5
21B
100
AcDbEntity
  8
0
100
AcDbLine
 62
7
  6
BYLAYER
 10
51.0329681151
 20
50.9250074871
 11
51.6693668677
 21
50.5575908081
  0
LINE
  5
21C
100
AcDbEntity
  8
0
100
AcDbLine
 62
7
  6
BYLAYER
 10
21.5464878661
 20
68.6018348774
 11
21.617203549
 21
68.5610080824
  0
LINE
  5
21D
100
AcDbEntity
  8
0
100
AcDbLine
 62
7
  6
BYLAYER
 10
51.5986511849
 20
51.2516028102
 11
51.6693668677
 21
51.2107760153
  0
LINE
  5
21E
100
AcDbEntity
  8
0
100
AcDbLine
 62
7
  6
BYLAYER
 10
17.7988122108
 20
67.5403438374
 11
17.7988122108
 21
118.4482699779
  0
LINE
  5
21F
100
AcDbEntity
  8
0
100
AcDbLine
 62
7
  6
BYLAYER
 10
19.3190981198
 20
70.3777122131
 11
19.3190981198
 21
70.2144117297
  0
LINE
  5
220
100
AcDbEntity
  8
0
100
AcDbLine
 62
7
  6
BYLAYER
 10
19.4605188873
 20
70.2960605605
 11
20.9808047963
 21
69.4183429382
  0
LINE
  5
221
100
AcDbEntity
  8
0
100
AcDbLine
 62
7
  6
BYLAYER
 10
21.617203549
 20
69.0509262592
 11
22.9960668799
 21
68.2548571534
  0
LINE
  5
222
100
AcDbEntity
  8
0
100
AcDbLine
 62
7
  6
BYLAYER
 10
49.512682206
 20
52.9458284933
 11
51.0329681151
 21
52.0681108711
  0
LINE
  5
223
100
AcDbEntity
  8
0
100
AcDbLine
 62
7
  6
BYLAYER
 10
51.6693668677
 20
51.7006941921
 11
53.0520021718
 21
50.9024473858
  0
LINE
  5
224
100
AcDbEntity
  8
0
100
AcDbLine
 62
7
  6
BYLAYER
 10
53.0213712407
 20
51.0834322455
 11
51.6693668677
 21
51.8639946755
  0
LINE
  5
225
100
AcDbEntity
  8
0
100
AcDbLine
 62
7
  6
BYLAYER
 10
51.0329681151
 20
52.2314113546
 11
49.512682206
 21
53.1091289768
  0
LINE
  5
226
100
AcDbEntity
  8
0
100
AcDbLine
 62
7
  6
BYLAYER
 10
22.969207922
 20
68.4336643126
 11
21.617203549
 21
69.2142267426
  0
LINE
  5
227
100
AcDbEntity
  8
0
100
AcDbLine
 62
7
  6
BYLAYER
 10
20.9808047963
 20
69.5816434217
 11
19.4605188873
 21
70.4593610439
  0
LINE
  5
228
100
AcDbEntity
  8
0
100
AcDbLine
 62
7
  6
BYLAYER
 10
21.0515115586
 20
69.6224657462
 11
21.1929359475
 21
69.5408161844
  0
LINE
  5
229
100
AcDbEntity
  8
0
100
AcDbLine
 62
7
  6
BYLAYER
 10
51.1036748774
 20
52.2722336791
 11
51.2450992663
 21
52.1905841173
  0
LINE
  5
22A
100
AcDbEntity
  8
0
100
AcDbLine
 62
7
  6
BYLAYER
 10
51.6693668677
 20
53.0070980595
 11
51.0329681151
 21
53.3745147385
  0
LINE
  5
22B
100
AcDbEntity
  8
0
100
AcDbLine
 62
7
  6
BYLAYER
 10
21.617203549
 20
70.3573301266
 11
20.9808047963
 21
70.7247468056
  0
LINE
  5
22C
100
AcDbEntity
  8
0
100
AcDbLine
 62
7
  6
BYLAYER
 10
20.9808047963
 20
70.7247468056
 11
20.9808047963
 21
69.5816434217
  0
LINE
  5
22D
100
AcDbEntity
  8
0
100
AcDbLine
 62
7
  6
BYLAYER
 10
20.9808047963
 20
69.4183429382
 11
20.9808047963
 21
68.2752395543
  0
LINE
  5
22E
100
AcDbEntity
  8
0
100
AcDbLine
 62
7
  6
BYLAYER
 10
21.1929359475
 20
69.7041166678
 11
21.1929359475
 21
69.5408161844
  0
LINE
  5
22F
100
AcDbEntity
  8
0
100
AcDbLine
 62
7
  6
BYLAYER
 10
21.5464878661
 20
70.3981569215
 11
21.5464878661
 21
68.6018348774
  0
LINE
  5
230
100
AcDbEntity
  8
0
100
AcDbLine
 62
7
  6
BYLAYER
 10
21.6171729317
 20
139.1475677243
 11
21.6171729317
 21
120.6946130972
  0
LINE
  5
231
100
AcDbEntity
  8
0
100
AcDbLine
 62
7
  6
BYLAYER
 10
21.617203549
 20
67.9078228752
 11
21.617203549
 21
69.0509262592
  0
LINE
  5
232
100
AcDbEntity
  8
0
100
AcDbLine
 62
7
  6
BYLAYER
 10
21.617203549
 20
69.2142267426
 11
21.617203549
 21
70.3573301266
  0
LINE
  5
233
100
AcDbEntity
  8
0
100
AcDbLine
 62
7
  6
BYLAYER
 10
22.9960686906
 20
68.0915598062
 11
22.9960686906
 21
68.2548602896
  0
LINE
  5
234
100
AcDbEntity
  8
0
100
AcDbLine
 62
7
  6
BYLAYER
 10
23.8799240522
 20
133.2279586531
 11
23.8799240522
 21
126.695939316
  0
LINE
  5
235
100
AcDbEntity
  8
0
100
AcDbLine
 62
7
  6
BYLAYER
 10
25.5770191874
 20
129.8804183797
 11
25.5770191874
 21
132.370750752
  0
LINE
  5
236
100
AcDbEntity
  8
0
100
AcDbLine
 62
7
  6
BYLAYER
 10
25.5770191874
 20
132.5340512354
 11
25.5770191874
 21
158.6621285835
  0
LINE
  5
237
100
AcDbEntity
  8
0
100
AcDbLine
 62
7
  6
BYLAYER
 10
75.6099087281
 20
170.9207681976
 11
61.1903422883
 21
162.5956773262
  0
LINE
  5
238
100
AcDbEntity
  8
0
100
AcDbLine
 62
7
  6
BYLAYER
 10
25.5770191874
 20
141.4337723792
 11
21.6171729317
 21
139.1475677243
  0
LINE
  5
239
100
AcDbEntity
  8
0
100
AcDbLine
 62
7
  6
BYLAYER
 10
64.4113086545
 20
160.736093597
 11
62.5869807545
 21
159.6828236801
  0
LINE
  5
23A
100
AcDbEntity
  8
0
100
AcDbLine
 62
7
  6
BYLAYER
 10
27.6276055955
 20
124.5322633171
 11
27.6276055955
 21
128.696538548
  0
LINE
  5
23B
100
AcDbEntity
  8
0
100
AcDbLine
 62
7
  6
BYLAYER
 10
31.0394100193
 20
126.7267769074
 11
31.0394100193
 21
123.8076678626
  0
LINE
  5
23C
100
AcDbEntity
  8
0
100
AcDbLine
 62
7
  6
BYLAYER
 10
31.8349402549
 20
133.3302336104
 11
31.8349402549
 21
130.0642239419
  0
LINE
  5
23D
100
AcDbEntity
  8
0
100
AcDbLine
 62
7
  6
BYLAYER
 10
31.9056506387
 20
133.2894098749
 11
31.9056506387
 21
130.1050483573
  0
LINE
  5
23E
100
AcDbEntity
  8
0
100
AcDbLine
 62
7
  6
BYLAYER
 10
32.1757153923
 20
118.1945433802
 11
32.1757153923
 21
126.029920415
  0
LINE
  5
23F
100
AcDbEntity
  8
0
100
AcDbLine
 62
7
  6
BYLAYER
 10
23.8799240522
 20
133.2279586531
 11
25.5770191874
 21
134.2077711375
  0
LINE
  5
240
100
AcDbEntity
  8
0
100
AcDbLine
 62
7
  6
BYLAYER
 10
64.4113385652
 20
156.5883502624
 11
46.7903109418
 21
146.4149059479
  0
LINE
  5
241
100
AcDbEntity
  8
0
100
AcDbLine
 62
7
  6
BYLAYER
 10
64.4113385652
 20
154.0571927693
 11
68.0034260582
 21
156.131073071
  0
LINE
  5
242
100
AcDbEntity
  8
0
100
AcDbLine
 62
7
  6
BYLAYER
 10
81.6098818668
 20
160.5284478439
 11
68.0034260582
 21
152.672803812
  0
LINE
  5
243
100
AcDbEntity
  8
0
100
AcDbLine
 62
7
  6
BYLAYER
 10
27.4863437473
 20
128.778094269
 11
23.8799240522
 21
126.695939316
  0
LINE
  5
244
100
AcDbEntity
  8
0
100
AcDbLine
 62
7
  6
BYLAYER
 10
31.9056506387
 20
130.1050483573
 11
31.8349402549
 21
130.0642239419
  0
LINE
  5
245
100
AcDbEntity
  8
0
100
AcDbLine
 62
7
  6
BYLAYER
 10
40.1916147369
 20
121.4020434672
 11
40.1916147369
 21
113.5666664324
  0
LINE
  5
246
100
AcDbEntity
  8
0
100
AcDbLine
 62
7
  6
BYLAYER
 10
40.5323898742
 20
125.0428626613
 11
40.5323898742
 21
128.3088723298
  0
LINE
  5
247
100
AcDbEntity
  8
0
100
AcDbLine
 62
7
  6
BYLAYER
 10
21.546462548
 20
120.6119639934
 11
17.7988122108
 21
118.4482699779
  0
LINE
  5
248
100
AcDbEntity
  8
0
100
AcDbLine
 62
7
  6
BYLAYER
 10
21.6640211429
 20
120.6675658818
 11
21.6110566262
 21
120.6369869863
  0
LINE
  5
249
100
AcDbEntity
  8
0
100
AcDbLine
 62
7
  6
BYLAYER
 10
32.1757153923
 20
126.029920415
 11
32.2110714895
 21
126.0503331454
  0
LINE
  5
24A
100
AcDbEntity
  8
0
100
AcDbLine
 62
7
  6
BYLAYER
 10
32.1757153923
 20
124.4637101596
 11
31.0394100193
 21
123.8076678626
  0
LINE
  5
24B
100
AcDbEntity
  8
0
100
AcDbLine
 62
7
  6
BYLAYER
 10
23.8958623264
 20
119.2935419535
 11
27.7142230473
 21
121.4980603844
  0
LINE
  5
24C
100
AcDbEntity
  8
0
100
AcDbLine
 62
7
  6
BYLAYER
 10
109.581337764
 20
50.8841094928
 11
109.0156546943
 21
51.2107161034
  0
LINE
  5
24D
100
AcDbEntity
  8
0
100
AcDbLine
 62
7
  6
BYLAYER
 10
44.0099754578
 20
119.2383868699
 11
44.0099754578
 21
115.7711848633
  0
LINE
  5
24E
100
AcDbEntity
  8
0
100
AcDbLine
 62
7
  6
BYLAYER
 10
46.5958239725
 20
115.1223835858
 11
46.5958239725
 21
114.8263712632
  0
LINE
  5
24F
100
AcDbEntity
  8
0
100
AcDbLine
 62
7
  6
BYLAYER
 10
46.7903109418
 20
146.4149059479
 11
46.7903109418
 21
120.2868285998
  0
LINE
  5
250
100
AcDbEntity
  8
0
100
AcDbLine
 62
7
  6
BYLAYER
 10
46.7903109418
 20
120.1235281164
 11
46.7903109418
 21
117.6331957441
  0
LINE
  5
251
100
AcDbEntity
  8
0
100
AcDbLine
 62
7
  6
BYLAYER
 10
48.9646415518
 20
113.4587647355
 11
48.9646415518
 21
117.5004517003
  0
LINE
  5
252
100
AcDbEntity
  8
0
100
AcDbLine
 62
7
  6
BYLAYER
 10
49.3712614386
 20
53.027480146
 11
49.3712614386
 21
52.8641796626
  0
LINE
  5
253
100
AcDbEntity
  8
0
100
AcDbLine
 62
7
  6
BYLAYER
 10
30.5184906582
 20
117.2377168776
 11
32.1757297109
 21
118.1945185795
  0
LINE
  5
254
100
AcDbEntity
  8
0
100
AcDbLine
 62
7
  6
BYLAYER
 10
37.4336714013
 20
120.0215737125
 11
34.833659444
 21
118.5204160118
  0
LINE
  5
255
100
AcDbEntity
  8
0
100
AcDbLine
 62
7
  6
BYLAYER
 10
40.1916147369
 20
121.4020434672
 11
40.2269708341
 21
121.4224561976
  0
LINE
  5
256
100
AcDbEntity
  8
0
100
AcDbLine
 62
7
  6
BYLAYER
 10
37.5336735457
 20
119.8483698699
 11
34.9336598604
 21
118.3472111715
  0
LINE
  5
257
100
AcDbEntity
  8
0
100
AcDbLine
 62
7
  6
BYLAYER
 10
21.6640211429
 20
120.6675658818
 11
21.6872746524
 21
120.6748458603
  0
LINE
  5
258
100
AcDbEntity
  8
0
100
AcDbLine
 62
7
  6
BYLAYER
 10
34.9284866028
 20
118.3561714667
 11
34.8395097311
 21
118.5102830736
  0
LINE
  5
259
100
AcDbEntity
  8
0
100
AcDbLine
 62
7
  6
BYLAYER
 10
35.1872113626
 20
118.7245380888
 11
35.287211779
 21
118.5513332484
  0
LINE
  5
25A
100
AcDbEntity
  8
0
100
AcDbLine
 62
7
  6
BYLAYER
 10
37.4388435264
 20
120.0126155853
 11
37.527820398
 21
119.8585039784
  0
LINE
  5
25B
100
AcDbEntity
  8
0
100
AcDbLine
 62
7
  6
BYLAYER
 10
50.6086716628
 20
119.837714175
 11
50.6086716628
 21
122.409696789
  0
LINE
  5
25C
100
AcDbEntity
  8
0
100
AcDbLine
 62
7
  6
BYLAYER
 10
51.0329681151
 20
53.3745147385
 11
51.0329681151
 21
52.2314113546
  0
LINE
  5
25D
100
AcDbEntity
  8
0
100
AcDbLine
 62
7
  6
BYLAYER
 10
51.0329681151
 20
52.0681108711
 11
51.0329681151
 21
50.9250074871
  0
LINE
  5
25E
100
AcDbEntity
  8
0
100
AcDbLine
 62
7
  6
BYLAYER
 10
51.2450992663
 20
52.3538846007
 11
51.2450992663
 21
52.1905841173
  0
LINE
  5
25F
100
AcDbEntity
  8
0
100
AcDbLine
 62
7
  6
BYLAYER
 10
51.5986511849
 20
53.0479248544
 11
51.5986511849
 21
51.2516028102
  0
LINE
  5
260
100
AcDbEntity
  8
0
100
AcDbLine
 62
7
  6
BYLAYER
 10
51.6693668677
 20
50.5575908081
 11
51.6693668677
 21
51.7006941921
  0
LINE
  5
261
100
AcDbEntity
  8
0
100
AcDbLine
 62
7
  6
BYLAYER
 10
51.6693668677
 20
51.8639946755
 11
51.6693668677
 21
53.0070980595
  0
LINE
  5
262
100
AcDbEntity
  8
0
100
AcDbLine
 62
7
  6
BYLAYER
 10
52.3764459756
 20
116.7758562459
 11
52.3764459756
 21
110.2438369089
  0
LINE
  5
263
100
AcDbEntity
  8
0
100
AcDbLine
 62
7
  6
BYLAYER
 10
53.0482320093
 20
50.7413277391
 11
53.0482320093
 21
50.9046282225
  0
LINE
  5
264
100
AcDbEntity
  8
0
100
AcDbLine
 62
7
  6
BYLAYER
 10
54.5685179184
 20
97.2197507429
 11
54.5685179184
 21
46.3118246023
  0
LINE
  5
265
100
AcDbEntity
  8
0
100
AcDbLine
 62
7
  6
BYLAYER
 10
50.6086716628
 20
122.409696789
 11
68.0034260582
 21
132.4525029742
  0
LINE
  5
266
100
AcDbEntity
  8
0
100
AcDbLine
 62
7
  6
BYLAYER
 10
50.6086716628
 20
119.837714175
 11
46.7903109418
 21
117.6331957441
  0
LINE
  5
267
100
AcDbEntity
  8
0
100
AcDbLine
 62
7
  6
BYLAYER
 10
44.0099754578
 20
115.7711848633
 11
40.1916147369
 21
113.5666664324
  0
LINE
  5
268
100
AcDbEntity
  8
0
100
AcDbLine
 62
7
  6
BYLAYER
 10
21.6872746524
 20
120.6748458603
 11
21.7015721941
 21
120.6793039295
  0
LINE
  5
269
100
AcDbEntity
  8
0
100
AcDbLine
 62
7
  6
BYLAYER
 10
56.1241275189
 20
108.0801609099
 11
56.1241275189
 21
114.6121802469
  0
LINE
  5
26A
100
AcDbEntity
  8
0
100
AcDbLine
 62
7
  6
BYLAYER
 10
58.3161682556
 20
99.3834447584
 11
58.3161682556
 21
48.4755186179
  0
LINE
  5
26B
100
AcDbEntity
  8
0
100
AcDbLine
 62
7
  6
BYLAYER
 10
58.3868786394
 20
99.4660938621
 11
58.3868786394
 21
117.9190484893
  0
LINE
  5
26C
100
AcDbEntity
  8
0
100
AcDbLine
 62
7
  6
BYLAYER
 10
58.4575890231
 20
48.5571674486
 11
58.4575890231
 21
99.5069182775
  0
LINE
  5
26D
100
AcDbEntity
  8
0
100
AcDbLine
 62
7
  6
BYLAYER
 10
46.5958239725
 20
115.1223835858
 11
48.9646415518
 21
116.4900128891
  0
LINE
  5
26E
100
AcDbEntity
  8
0
100
AcDbLine
 62
7
  6
BYLAYER
 10
48.9646415518
 20
116.1940005666
 11
46.5958239725
 21
114.8263712632
  0
LINE
  5
26F
100
AcDbEntity
  8
0
100
AcDbLine
 62
7
  6
BYLAYER
 10
52.3764459756
 20
116.7758562459
 11
54.2312810031
 21
117.846739356
  0
LINE
  5
270
100
AcDbEntity
  8
0
100
AcDbLine
 62
7
  6
BYLAYER
 10
41.848839471
 20
110.6962849275
 11
45.6672001919
 21
112.9008033584
  0
LINE
  5
271
100
AcDbEntity
  8
0
100
AcDbLine
 62
7
  6
BYLAYER
 10
75.7816330348
 20
127.9618546745
 11
58.3868786394
 21
117.9190484893
  0
LINE
  5
272
100
AcDbEntity
  8
0
100
AcDbLine
 62
7
  6
BYLAYER
 10
58.3868786394
 20
99.4660938621
 11
58.3400304282
 21
99.4931410776
  0
LINE
  5
273
100
AcDbEntity
  8
0
100
AcDbLine
 62
7
  6
BYLAYER
 10
21.6640211429
 20
120.6675658818
 11
21.6171729317
 21
120.6946130972
  0
LINE
  5
274
100
AcDbEntity
  8
0
100
AcDbLine
 62
7
  6
BYLAYER
 10
62.5869807545
 20
158.2904632277
 11
62.5869807545
 21
159.6828236801
  0
LINE
  5
275
100
AcDbEntity
  8
0
100
AcDbLine
 62
7
  6
BYLAYER
 10
64.4113086545
 20
158.903366821
 11
64.4113086545
 21
160.736093597
  0
LINE
  5
276
100
AcDbEntity
  8
0
100
AcDbLine
 62
7
  6
BYLAYER
 10
64.4113385652
 20
156.5883502624
 11
64.4113385652
 21
154.0571927693
  0
LINE
  5
277
100
AcDbEntity
  8
0
100
AcDbLine
 62
7
  6
BYLAYER
 10
66.3547550673
 20
156.1310643006
 11
66.3547550673
 21
157.7640691349
  0
LINE
  5
278
100
AcDbEntity
  8
0
100
AcDbLine
 62
7
  6
BYLAYER
 10
56.1241275189
 20
112.4075489411
 11
52.3764459756
 21
110.2438369089
  0
LINE
  5
279
100
AcDbEntity
  8
0
100
AcDbLine
 62
7
  6
BYLAYER
 10
48.4714678028
 20
105.1051305009
 11
52.2898285238
 21
107.3096489318
  0
LINE
  5
27A
100
AcDbEntity
  8
0
100
AcDbLine
 62
7
  6
BYLAYER
 10
68.0034260582
 20
132.4525029742
 11
68.0034260582
 21
156.131073071
  0
LINE
  5
27B
100
AcDbEntity
  8
0
100
AcDbLine
 62
7
  6
BYLAYER
 10
32.1757153923
 20
126.029920415
 11
40.1916147369
 21
121.4020434672
  0
LINE
  5
27C
100
AcDbEntity
  8
0
100
AcDbLine
 62
7
  6
BYLAYER
 10
46.7903109418
 20
117.6331957441
 11
25.5770191874
 21
129.8804183797
  0
LINE
  5
27D
100
AcDbEntity
  8
0
100
AcDbLine
 62
7
  6
BYLAYER
 10
25.5770191874
 20
132.370750752
 11
46.7903109418
 21
120.1235281164
  0
LINE
  5
27E
100
AcDbEntity
  8
0
100
AcDbLine
 62
7
  6
BYLAYER
 10
46.7903109418
 20
120.2868285998
 11
25.5770191874
 21
132.5340512354
  0
LINE
  5
27F
100
AcDbEntity
  8
0
100
AcDbLine
 62
7
  6
BYLAYER
 10
75.7816330348
 20
58.5591492185
 11
75.7816330348
 21
127.9618546745
  0
LINE
  5
280
100
AcDbEntity
  8
0
100
AcDbLine
 62
7
  6
BYLAYER
 10
58.2870659115
 20
99.4625621821
 11
58.3400304282
 21
99.4931410776
  0
LINE
  5
281
100
AcDbEntity
  8
0
100
AcDbLine
 62
7
  6
BYLAYER
 10
58.4575890231
 20
99.5069182775
 11
58.3868786394
 21
99.4660938621
  0
LINE
  5
282
100
AcDbEntity
  8
0
100
AcDbLine
 62
7
  6
BYLAYER
 10
54.5685179184
 20
97.2197507429
 11
58.3161682556
 21
99.3834447584
  0
LINE
  5
283
100
AcDbEntity
  8
0
100
AcDbLine
 62
7
  6
BYLAYER
 10
31.8349402549
 20
130.0642239419
 11
40.5323898742
 21
125.0428626613
  0
LINE
  5
284
100
AcDbEntity
  8
0
100
AcDbLine
 62
7
  6
BYLAYER
 10
31.9056506387
 20
130.1050483573
 11
40.5323898742
 21
125.1245108122
  0
LINE
  5
285
100
AcDbEntity
  8
0
100
AcDbLine
 62
7
  6
BYLAYER
 10
58.3868786394
 20
117.9190484893
 11
50.6086716628
 21
122.409696789
  0
LINE
  5
286
100
AcDbEntity
  8
0
100
AcDbLine
 62
7
  6
BYLAYER
 10
25.5770191874
 20
136.8614011427
 11
21.6171729317
 21
139.1475677243
  0
LINE
  5
287
100
AcDbEntity
  8
0
100
AcDbLine
 62
7
  6
BYLAYER
 10
40.5323898742
 20
128.3088723298
 11
31.8349402549
 21
133.3302336104
  0
LINE
  5
288
100
AcDbEntity
  8
0
100
AcDbLine
 62
7
  6
BYLAYER
 10
19.4605188873
 20
70.4593610439
 11
19.3190981198
 21
70.3777122131
  0
LINE
  5
289
100
AcDbEntity
  8
0
100
AcDbLine
 62
7
  6
BYLAYER
 10
19.6019432762
 20
70.3777114821
 11
19.3190981198
 21
70.2144117297
  0
LINE
  5
28A
100
AcDbEntity
  8
0
100
AcDbLine
 62
7
  6
BYLAYER
 10
20.9808047963
 20
69.5816434217
 11
21.1929359475
 21
69.7041166678
  0
LINE
  5
28B
100
AcDbEntity
  8
0
100
AcDbLine
 62
7
  6
BYLAYER
 10
21.1929359475
 20
69.5408161844
 11
20.9808047963
 21
69.4183429382
  0
LINE
  5
28C
100
AcDbEntity
  8
0
100
AcDbLine
 62
7
  6
BYLAYER
 10
21.617203549
 20
69.0509262592
 11
21.7586279379
 21
69.1325771808
  0
LINE
  5
28D
100
AcDbEntity
  8
0
100
AcDbLine
 62
7
  6
BYLAYER
 10
21.5464878661
 20
68.6018348774
 11
20.9808047963
 21
68.2752395543
  0
LINE
  5
28E
100
AcDbEntity
  8
0
100
AcDbLine
 62
7
  6
BYLAYER
 10
75.7816330348
 20
127.9618546745
 11
68.0034260582
 21
132.4525029742
  0
LINE
  5
28F
100
AcDbEntity
  8
0
100
AcDbLine
 62
7
  6
BYLAYER
 10
25.5770191874
 20
158.6621285835
 11
46.7903109418
 21
146.4149059479
  0
LINE
  5
290
100
AcDbEntity
  8
0
100
AcDbLine
 62
7
  6
BYLAYER
 10
103.0052220307
 20
61.6209752707
 11
103.0052173204
 21
62.2741577581
  0
LINE
  5
291
100
AcDbEntity
  8
0
100
AcDbLine
 62
7
  6
BYLAYER
 10
21.6640211429
 20
120.6675658818
 11
21.7025466597
 21
120.6772792561
  0
LINE
  5
292
100
AcDbEntity
  8
0
100
AcDbLine
 62
7
  6
BYLAYER
 10
49.512682206
 20
53.1091289768
 11
49.3712614386
 21
53.027480146
  0
LINE
  5
293
100
AcDbEntity
  8
0
100
AcDbLine
 62
7
  6
BYLAYER
 10
49.6541065949
 20
53.0274794149
 11
49.3712614386
 21
52.8641796626
  0
LINE
  5
294
100
AcDbEntity
  8
0
100
AcDbLine
 62
7
  6
BYLAYER
 10
43.1980468108
 20
168.835572898
 11
45.0223899016
 21
167.7823117514
  0
LINE
  5
295
100
AcDbEntity
  8
0
100
AcDbLine
 62
7
  6
BYLAYER
 10
62.5869954743
 20
157.6416114091
 11
64.4113385652
 21
156.5883502624
  0
LINE
  5
296
100
AcDbEntity
  8
0
100
AcDbLine
 62
7
  6
BYLAYER
 10
51.0329681151
 20
52.2314113546
 11
51.2450992663
 21
52.3538846007
  0
LINE
  5
297
100
AcDbEntity
  8
0
100
AcDbLine
 62
7
  6
BYLAYER
 10
51.2450992663
 20
52.1905841173
 11
51.0329681151
 21
52.0681108711
  0
LINE
  5
298
100
AcDbEntity
  8
0
100
AcDbLine
 62
7
  6
BYLAYER
 10
51.6693668677
 20
51.7006941921
 11
51.8107912566
 21
51.7823451137
  0
LINE
  5
299
100
AcDbEntity
  8
0
100
AcDbLine
 62
7
  6
BYLAYER
 10
51.5986511849
 20
51.2516028102
 11
51.0329681151
 21
50.9250074871
  0
LINE
  5
29A
100
AcDbEntity
  8
0
100
AcDbLine
 62
7
  6
BYLAYER
 10
68.0034260582
 20
156.131073071
 11
66.3547550673
 21
157.0829121779
  0
LINE
  5
29B
100
AcDbEntity
  8
0
100
AcDbLine
 62
7
  6
BYLAYER
 10
64.4113086545
 20
160.736093597
 11
50.3822517075
 21
168.8355901667
  0
LINE
  5
29C
100
AcDbEntity
  8
0
100
AcDbLine
 62
7
  6
BYLAYER
 10
75.7816330348
 20
58.5591492185
 11
58.4575890231
 21
48.5571674486
  0
LINE
  5
29D
100
AcDbEntity
  8
0
100
AcDbLine
 62
7
  6
BYLAYER
 10
58.3161682556
 20
48.4755186179
 11
54.5685179184
 21
46.3118246023
  0
LINE
  5
29E
100
AcDbEntity
  8
0
100
AcDbLine
 62
7
  6
BYLAYER
 10
107.6775418057
 20
72.3895160222
 11
122.314591236
 21
80.8401700073
  0
LINE
  5
29F
100
AcDbEntity
  8
0
100
AcDbLine
 62
7
  6
BYLAYER
 10
104.9313585815
 20
66.5316302463
 11
107.9011946978
 21
68.2462556925
  0
LINE
  5
2A0
100
AcDbEntity
  8
0
100
AcDbLine
 62
7
  6
BYLAYER
 10
73.6601684369
 20
167.7659134465
 11
73.660131681
 21
167.7659340309
  0
LINE
  5
2A1
100
AcDbEntity
  8
0
100
AcDbLine
 62
7
  6
BYLAYER
 10
114.2186545372
 20
50.4162628834
 11
117.2011530629
 21
52.1381591443
  0
LINE
  5
2A2
100
AcDbEntity
  8
0
100
AcDbLine
 62
7
  6
BYLAYER
 10
114.2176795141
 20
50.4179578355
 11
114.2313169466
 21
50.423533698
  0
LINE
  5
2A3
100
AcDbEntity
  8
0
100
AcDbLine
 62
7
  6
BYLAYER
 10
120.6774836062
 20
49.8728219224
 11
135.3145330365
 21
58.3234759076
  0
ARC
  5
2A4
100
AcDbEntity
  8
0
100
AcDbCircle
 62
7
  6
BYLAYER
 10
125.5444716466
 20
64.2737165391
 40
12.4625169548
100
AcDbArc
 50
0.004489912
 51
1.0496567912
  0
ARC
  5
2A5
100
AcDbEntity
  8
0
100
AcDbCircle
 62
7
  6
BYLAYER
 10
122.6074254483
 20
69.4457279654
 40
12.4138839354
100
AcDbArc
 50
58.9024908171
 51
59.99770769
  0
ARC
  5
2A6
100
AcDbEntity
  8
0
100
AcDbCircle
 62
7
  6
BYLAYER
 10
115.765266069
 20
64.0501617519
 40
6.7850092545
100
AcDbArc
 50
179.5097978996
 51
180.0006056772
  0
ARC
  5
2A7
100
AcDbEntity
  8
0
100
AcDbCircle
 62
7
  6
BYLAYER
 10
107.9106719281
 20
55.351377452
 40
6.5143512515
100
AcDbArc
 50
356.9977448619
 51
359.4436935216
  0
ARC
  5
2A8
100
AcDbEntity
  8
0
100
AcDbCircle
 62
7
  6
BYLAYER
 10
115.450534802
 20
64.0547080054
 40
6.4702508762
100
AcDbArc
 50
177.296537002
 51
179.5262101782
  0
ARC
  5
2A9
100
AcDbEntity
  8
0
100
AcDbCircle
 62
7
  6
BYLAYER
 10
106.0885386463
 20
58.6877356524
 40
6.4080541324
100
AcDbArc
 50
60.939074931
 51
63.0203368063
  0
ARC
  5
2AA
100
AcDbEntity
  8
0
100
AcDbCircle
 62
7
  6
BYLAYER
 10
69.3780808542
 20
64.7039859404
 40
5.9718469315
100
AcDbArc
 50
113.7558787652
 51
117.098831642
  0
ARC
  5
2AB
100
AcDbEntity
  8
0
100
AcDbCircle
 62
7
  6
BYLAYER
 10
67.2155716012
 20
61.0279312123
 40
5.9288105326
100
AcDbArc
 50
182.8511256982
 51
185.4785115766
  0
ARC
  5
2AC
100
AcDbEntity
  8
0
100
AcDbCircle
 62
7
  6
BYLAYER
 10
66.9684640657
 20
61.0050568144
 40
5.680647951
100
AcDbArc
 50
185.4868028556
 51
186.077579952
  0
ARC
  5
2AD
100
AcDbEntity
  8
0
100
AcDbCircle
 62
7
  6
BYLAYER
 10
38.8288376297
 20
120.6969114116
 40
4.5492945136
100
AcDbArc
 50
208.3850484409
 51
208.7280057637
  0
ARC
  5
2AE
100
AcDbEntity
  8
0
100
AcDbCircle
 62
7
  6
BYLAYER
 10
38.7867157746
 20
120.6994607007
 40
4.5140820525
100
AcDbArc
 50
211.27233485
 51
211.8017771966
  0
ARC
  5
2AF
100
AcDbEntity
  8
0
100
AcDbCircle
 62
7
  6
BYLAYER
 10
49.631720598
 20
51.360585115
 40
3.0830620987
100
AcDbArc
 50
50.2736764211
 51
53.5297751735
  0
ARC
  5
2B0
100
AcDbEntity
  8
0
100
AcDbCircle
 62
7
  6
BYLAYER
 10
19.5795572793
 20
68.7108171821
 40
3.0830620986
100
AcDbArc
 50
50.2736764211
 51
53.5297751736
  0
ARC
  5
2B1
100
AcDbEntity
  8
0
100
AcDbCircle
 62
7
  6
BYLAYER
 10
50.2061235828
 20
50.7980748586
 40
2.8438511672
100
AcDbArc
 50
3.2877013886
 51
5.6265702911
  0
ARC
  5
2B2
100
AcDbEntity
  8
0
100
AcDbCircle
 62
7
  6
BYLAYER
 10
20.1539602641
 20
68.1483069257
 40
2.8438511672
100
AcDbArc
 50
3.2877013886
 51
5.6265702911
  0
ARC
  5
2B3
100
AcDbEntity
  8
0
100
AcDbCircle
 62
7
  6
BYLAYER
 10
50.37823294
 20
50.8083986601
 40
2.6714330447
100
AcDbArc
 50
1.8773953941
 51
3.2783419876
  0
ARC
  5
2B4
100
AcDbEntity
  8
0
100
AcDbCircle
 62
7
  6
BYLAYER
 10
20.3260696212
 20
68.1586307272
 40
2.6714330447
100
AcDbArc
 50
1.8773953941
 51
3.2783419876
  0
ARC
  5
2B5
100
AcDbEntity
  8
0
100
AcDbCircle
 62
7
  6
BYLAYER
 10
21.5499426985
 20
70.2940469277
 40
2.23210343
100
AcDbArc
 50
175.0012545013
 51
178.0756320825
  0
ARC
  5
2B6
100
AcDbEntity
  8
0
100
AcDbCircle
 62
7
  6
BYLAYER
 10
51.6021060173
 20
52.9438148606
 40
2.23210343
100
AcDbArc
 50
175.0012545013
 51
178.0756320825
  0
ARC
  5
2B7
100
AcDbEntity
  8
0
100
AcDbCircle
 62
7
  6
BYLAYER
 10
75.4569540181
 20
169.1342912583
 40
1.7008900429
100
AcDbArc
 50
297.0327969692
 51
298.195730152
  0
ARC
  5
2B8
100
AcDbEntity
  8
0
100
AcDbCircle
 62
7
  6
BYLAYER
 10
75.4813590228
 20
169.0889647895
 40
1.6494110753
100
AcDbArc
 50
298.1924998162
 51
299.9941610987
  0
ARC
  5
2B9
100
AcDbEntity
  8
0
100
AcDbCircle
 62
7
  6
BYLAYER
 10
75.6791892021
 20
166.6728911372
 40
1.0833547951
100
AcDbArc
 50
60.0114058369
 51
62.5543640992
  0
ARC
  5
2BA
100
AcDbEntity
  8
0
100
AcDbCircle
 62
7
  6
BYLAYER
 10
22.1580052638
 20
67.8318483206
 40
0.8850129516
100
AcDbArc
 50
290.1038186473
 51
291.0058804516
  0
ARC
  5
2BB
100
AcDbEntity
  8
0
100
AcDbCircle
 62
7
  6
BYLAYER
 10
52.2101685825
 20
50.4816162535
 40
0.8850129516
100
AcDbArc
 50
290.1038186473
 51
291.0058804516
  0
ARC
  5
2BC
100
AcDbEntity
  8
0
100
AcDbCircle
 62
7
  6
BYLAYER
 10
22.0177384427
 20
67.7435195607
 40
0.8785331139
100
AcDbArc
 50
300.0414274616
 51
309.3548553502
  0
ARC
  5
2BD
100
AcDbEntity
  8
0
100
AcDbCircle
 62
7
  6
BYLAYER
 10
52.0699017615
 20
50.3932874935
 40
0.8785331139
100
AcDbArc
 50
300.0414274617
 51
309.3548553501
  0
ARC
  5
2BE
100
AcDbEntity
  8
0
100
AcDbCircle
 62
7
  6
BYLAYER
 10
50.3472884121
 20
53.3778425211
 40
0.8753702465
100
AcDbArc
 50
110.0931608765
 51
119.9870134397
  0
ARC
  5
2BF
100
AcDbEntity
  8
0
100
AcDbCircle
 62
7
  6
BYLAYER
 10
20.2951250934
 20
70.7280745882
 40
0.8753702465
100
AcDbArc
 50
110.0931608765
 51
119.9870134397
  0
ARC
  5
2C0
100
AcDbEntity
  8
0
100
AcDbCircle
 62
7
  6
BYLAYER
 10
35.320796714
 20
120.6788820818
 40
0.8742529875
100
AcDbArc
 50
110.1449723488
 51
119.9981287144
  0
ARC
  5
2C1
100
AcDbEntity
  8
0
100
AcDbCircle
 62
7
  6
BYLAYER
 10
37.151046653
 20
139.8845678554
 40
0.8512545567
100
AcDbArc
 50
290.0582834825
 51
291.38548908
  0
ARC
  5
2C2
100
AcDbEntity
  8
0
100
AcDbCircle
 62
7
  6
BYLAYER
 10
37.0102396725
 20
139.7966403316
 40
0.8453781848
100
AcDbArc
 50
300.0554455183
 51
309.5534797242
  0
ARC
  5
2C3
100
AcDbEntity
  8
0
100
AcDbCircle
 62
7
  6
BYLAYER
 10
35.3537453397
 20
142.6672928377
 40
0.8402276285
100
AcDbArc
 50
110.151315915
 51
119.9951528606
  0
ARC
  5
2C4
100
AcDbEntity
  8
0
100
AcDbCircle
 62
7
  6
BYLAYER
 10
48.1214210194
 20
167.9049471322
 40
0.6686940304
100
AcDbArc
 50
0.9424276772
 51
6.9216427728
  0
ARC
  5
2C5
100
AcDbEntity
  8
0
100
AcDbCircle
 62
7
  6
BYLAYER
 10
58.4720136777
 20
99.489591675
 40
0.1885602383
100
AcDbArc
 50
205.035434072
 51
214.2589278993
  0
SPLINE
  5
2C6
100
AcDbEntity
  8
0
100
AcDbSpline
 62
7
  6
BYLAYER
 70
0
 71
3
 72
15
 73
11
 74
0
 42
0.0000001
 43
0.0000001
 44
0.0000000001
 40
0.0
 40
0.0
 40
0.0
 40
0.0
 40
0.1167502352
 40
0.2404186642
 40
0.3686838995
 40
0.4992774935
 40
0.6299603592
 40
0.7584934143
 40
0.8826130507
 40
1.0
 40
1.0
 40
1.0
 40
1.0
 10
110.0226555664
 20
63.6798669163
 30
0.0
 10
110.0863710481
 20
63.3499360795
 30
0.0
 10
110.2507957049
 20
62.6766428556
 30
0.0
 10
110.5899536872
 20
61.6699822376
 30
0.0
 10
111.0244417996
 20
60.6571048514
 30
0.0
 10
111.5451287503
 20
59.6629484313
 30
0.0
 10
112.1403999986
 20
58.7106652874
 30
0.0
 10
112.7962171366
 20
57.8220006244
 30
0.0
 10
113.495758544
 20
57.0174303465
 30
0.0
 10
113.9955246315
 20
56.5327401384
 30
0.0
 10
114.2490978051
 20
56.3094698779
 30
0.0
  0
SPLINE
  5
2C7
100
AcDbEntity
  8
0
100
AcDbSpline
 62
7
  6
BYLAYER
 70
0
 71
3
 72
14
 73
10
 74
0
 42
0.0000001
 43
0.0000001
 44
0.0000000001
 40
0.0
 40
0.0
 40
0.0
 40
0.0
 40
0.1097951869
 40
0.2213647242
 40
0.3363479229
 40
0.456137759
 40
0.5818132653
 40
0.7141278416
 40
1.0
 40
1.0
 40
1.0
 40
1.0
 10
105.6735124578
 20
64.5929778576
 30
0.0
 10
105.7833982572
 20
64.6564200701
 30
0.0
 10
106.0154947544
 20
64.7669387538
 30
0.0
 10
106.3894724681
 20
64.8780386464
 30
0.0
 10
106.7871595533
 20
64.9342754895
 30
0.0
 10
107.2048985044
 20
64.9354344631
 30
0.0
 10
107.6392615116
 20
64.8818454229
 30
0.0
 10
108.2513046784
 20
64.7345389241
 30
0.0
 10
108.7012800397
 20
64.5482388092
 30
0.0
 10
108.9957075651
 20
64.3983859343
 30
0.0
  0
SPLINE
  5
2C8
100
AcDbEntity
  8
0
100
AcDbSpline
 62
7
  6
BYLAYER
 70
0
 71
3
 72
15
 73
11
 74
0
 42
0.0000001
 43
0.0000001
 44
0.0000000001
 40
0.0
 40
0.0
 40
0.0
 40
0.0
 40
0.1141551384
 40
0.2373267474
 40
0.3669762667
 40
0.5000006053
 40
0.6330244887
 40
0.7626735462
 40
0.8858409242
 40
1.0
 40
1.0
 40
1.0
 40
1.0
 10
103.0052268836
 20
61.620972468
 30
0.0
 10
103.0052284226
 20
61.1458599113
 30
0.0
 10
103.0922630972
 20
60.1571864948
 30
0.0
 10
103.4391861401
 20
58.665664592
 30
0.0
 10
103.9949262355
 20
57.1548649896
 30
0.0
 10
104.7387242178
 20
55.6816026464
 30
0.0
 10
105.6427131883
 20
54.3008277994
 30
0.0
 10
106.6732420664
 20
53.0641791351
 30
0.0
 10
107.7914639572
 20
52.0179647146
 30
0.0
 10
108.6041786315
 20
51.4482765447
 30
0.0
 10
109.0156546943
 20
51.2107161034
 30
0.0
  0
SPLINE
  5
2C9
100
AcDbEntity
  8
0
100
AcDbSpline
 62
7
  6
BYLAYER
 70
0
 71
3
 72
24
 73
20
 74
0
 42
0.0000001
 43
0.0000001
 44
0.0000000001
 40
0.0
 40
0.0
 40
0.0
 40
0.0
 40
0.0213342046
 40
0.0428966547
 40
0.0874755379
 40
0.1352549641
 40
0.1871602207
 40
0.2436022482
 40
0.3045545473
 40
0.3696467905
 40
0.4382486761
 40
0.5095399368
 40
0.5825691885
 40
0.6563062389
 40
0.7296883897
 40
0.801669373
 40
0.871266214
 40
0.937612267
 40
1.0
 40
1.0
 40
1.0
 40
1.0
 10
107.9011968487
 20
68.2462519675
 30
0.0
 10
108.0154564212
 20
68.3122198256
 30
0.0
 10
108.2540163032
 20
68.4302324789
 30
0.0
 10
108.7663797696
 20
68.6074996491
 30
0.0
 10
109.4704713975
 20
68.7111190858
 30
0.0
 10
110.3660560114
 20
68.6449606322
 30
0.0
 10
111.30377955
 20
68.3958943041
 30
0.0
 10
112.2646744628
 20
67.9711829982
 30
0.0
 10
113.2297814885
 20
67.3807410939
 30
0.0
 10
114.1794475972
 20
66.6372554058
 30
0.0
 10
115.0939709914
 20
65.7564895027
 30
0.0
 10
115.9541015833
 20
64.7571087121
 30
0.0
 10
116.7415971354
 20
63.6603574599
 30
0.0
 10
117.4396739229
 20
62.4896077463
 30
0.0
 10
118.0334524391
 20
61.2698378469
 30
0.0
 10
118.5102447272
 20
60.0270687713
 30
0.0
 10
118.8599432591
 20
58.7876335914
 30
0.0
 10
119.0750182761
 20
57.5780386132
 30
0.0
 10
119.1272943242
 20
56.781388472
 30
0.0
 10
119.1272943242
 20
56.3955684014
 30
0.0
  0
SPLINE
  5
2CA
100
AcDbEntity
  8
0
100
AcDbSpline
 62
7
  6
BYLAYER
 70
0
 71
3
 72
15
 73
11
 74
0
 42
0.0000001
 43
0.0000001
 44
0.0000000001
 40
0.0
 40
0.0
 40
0.0
 40
0.0
 40
0.1080132808
 40
0.2180617278
 40
0.3319995396
 40
0.4513614582
 40
0.5772752832
 40
0.7104914711
 40
0.8514274728
 40
1.0
 40
1.0
 40
1.0
 40
1.0
 10
104.9313585815
 20
66.5316302463
 30
0.0
 10
104.7788789878
 20
66.4435966437
 30
0.0
 10
104.4857295987
 20
66.2390139222
 30
0.0
 10
104.0983630844
 20
65.8578037167
 30
0.0
 10
103.7652028549
 20
65.4053474491
 30
0.0
 10
103.489399375
 20
64.8867181691
 30
0.0
 10
103.2729804544
 20
64.3072666159
 30
0.0
 10
103.1176910109
 20
63.6725080677
 30
0.0
 10
103.0247645361
 20
62.9886429681
 30
0.0
 10
103.0052173202
 20
62.5164029501
 30
0.0
 10
103.0052173202
 20
62.2742209892
 30
0.0
  0
SPLINE
  5
2CB
100
AcDbEntity
  8
0
100
AcDbSpline
 62
7
  6
BYLAYER
 70
0
 71
3
 72
15
 73
11
 74
0
 42
0.0000001
 43
0.0000001
 44
0.0000000001
 40
0.0
 40
0.0
 40
0.0
 40
0.0
 40
0.1485846647
 40
0.2895068885
 40
0.4227214545
 40
0.5486407511
 40
0.6680001328
 40
0.7819379016
 40
0.8919871991
 40
1.0
 40
1.0
 40
1.0
 40
1.0
 10
138.0069885632
 20
64.2746931487
 30
0.0
 10
138.0069885632
 20
63.9361314012
 30
0.0
 10
137.9796864529
 20
63.2760129203
 30
0.0
 10
137.8497563234
 20
62.3200825544
 30
0.0
 10
137.632685151
 20
61.4328119761
 30
0.0
 10
137.3302066829
 20
60.622803479
 30
0.0
 10
136.9446211178
 20
59.8978579757
 30
0.0
 10
136.4789427087
 20
59.2653799451
 30
0.0
 10
135.9374713847
 20
58.7324879598
 30
0.0
 10
135.5276687829
 20
58.4465451489
 30
0.0
 10
135.3145260837
 20
58.3234879504
 30
0.0
  0
SPLINE
  5
2CC
100
AcDbEntity
  8
0
100
AcDbSpline
 62
7
  6
BYLAYER
 70
0
 71
3
 72
15
 73
11
 74
0
 42
0.0000001
 43
0.0000001
 44
0.0000000001
 40
0.0
 40
0.0
 40
0.0
 40
0.0
 40
0.1080124755
 40
0.2180615397
 40
0.3319997307
 40
0.4513575212
 40
0.5772772176
 40
0.7105009513
 40
0.8513950489
 40
1.0
 40
1.0
 40
1.0
 40
1.0
 10
122.3145981889
 20
80.8401579645
 30
0.0
 10
122.5277430103
 20
80.9632163883
 30
0.0
 10
122.9802839028
 20
81.1751439892
 30
0.0
 10
123.7125282401
 20
81.3776246226
 30
0.0
 10
124.4931179133
 20
81.4646617216
 30
0.0
 10
125.3137400954
 20
81.4361167438
 30
0.0
 10
126.1664969336
 20
81.2930547485
 30
0.0
 10
127.0433881123
 20
81.0373737971
 30
0.0
 10
127.9362444255
 20
80.6719690069
 30
0.0
 10
128.5215527244
 20
80.3655282982
 30
0.0
 10
128.8147975304
 20
80.1962184749
 30
0.0
  0
SPLINE
  5
2CD
100
AcDbEntity
  8
0
100
AcDbSpline
 62
7
  6
BYLAYER
 70
0
 71
3
 72
15
 73
11
 74
0
 42
0.0000001
 43
0.0000001
 44
0.0000000001
 40
0.0
 40
0.0
 40
0.0
 40
0.0
 40
0.1084153538
 40
0.2188055741
 40
0.3329721743
 40
0.452416401
 40
0.5782666878
 40
0.7112623112
 40
0.8518337635
 40
1.0
 40
1.0
 40
1.0
 40
1.0
 10
107.6775487585
 20
72.3895039794
 30
0.0
 10
107.4681433778
 20
72.2686045087
 30
0.0
 10
107.0653059798
 20
71.988431546
 30
0.0
 10
106.5315361172
 20
71.4677065829
 30
0.0
 10
106.0707012725
 20
70.8506285794
 30
0.0
 10
105.6869329381
 20
70.1438947013
 30
0.0
 10
105.3831852893
 20
69.3544792185
 30
0.0
 10
105.1616876468
 20
68.489759761
 30
0.0
 10
105.0241494581
 20
67.5577895493
 30
0.0
 10
104.9899127515
 20
66.9137370362
 30
0.0
 10
104.9859524402
 20
66.5833037642
 30
0.0
  0
SPLINE
  5
2CE
100
AcDbEntity
  8
0
100
AcDbSpline
 62
7
  6
BYLAYER
 70
0
 71
3
 72
15
 73
11
 74
0
 42
0.0000001
 43
0.0000001
 44
0.0000000001
 40
0.0
 40
0.0
 40
0.0
 40
0.0
 40
0.1485721032
 40
0.2895074768
 40
0.422723784
 40
0.5486378735
 40
0.6679992764
 40
0.781935839
 40
0.8919847381
 40
1.0
 40
1.0
 40
1.0
 40
1.0
 10
119.1272943242
 20
56.3955684014
 30
0.0
 10
119.1272943242
 20
56.1533872269
 30
0.0
 10
119.1077477492
 20
55.6811490667
 30
0.0
 10
119.0148208398
 20
54.9972858559
 30
0.0
 10
118.8595323908
 20
54.3625277338
 30
0.0
 10
118.6431127018
 20
53.783076894
 30
0.0
 10
118.3673112547
 20
53.2644498354
 30
0.0
 10
118.034154982
 20
52.8119933011
 30
0.0
 10
117.6467842693
 20
52.4307848746
 30
0.0
 10
117.3536329754
 20
52.2261985141
 30
0.0
 10
117.201150912
 20
52.1381628693
 30
0.0
  0
SPLINE
  5
2CF
100
AcDbEntity
  8
0
100
AcDbSpline
 62
7
  6
BYLAYER
 70
0
 71
3
 72
15
 73
11
 74
0
 42
0.0000001
 43
0.0000001
 44
0.0000000001
 40
0.0
 40
0.0
 40
0.0
 40
0.0
 40
0.148202784
 40
0.2887807967
 40
0.421805242
 40
0.5476623749
 40
0.6671000912
 40
0.7812506049
 40
0.8916152058
 40
1.0
 40
1.0
 40
1.0
 40
1.0
 10
114.2934421667
 20
50.4505524973
 30
0.0
 10
114.5819893802
 20
50.2881711261
 30
0.0
 10
115.1576557993
 20
49.9946989365
 30
0.0
 10
116.0348711089
 20
49.6464181659
 30
0.0
 10
116.8958218139
 20
49.4046635915
 30
0.0
 10
117.7327335717
 20
49.272114629
 30
0.0
 10
118.5379866491
 20
49.250515687
 30
0.0
 10
119.3040577757
 20
49.3407892499
 30
0.0
 10
120.0230459978
 20
49.5427340887
 30
0.0
 10
120.467774689
 20
49.7517632631
 30
0.0
 10
120.6774766533
 20
49.8728339652
 30
0.0
  0
SPLINE
  5
2D0
100
AcDbEntity
  8
0
100
AcDbSpline
 62
7
  6
BYLAYER
 70
0
 71
3
 72
15
 73
11
 74
0
 42
0.0000001
 43
0.0000001
 44
0.0000000001
 40
0.0
 40
0.0
 40
0.0
 40
0.0
 40
0.1485130392
 40
0.2894208896
 40
0.4226378352
 40
0.5485752965
 40
0.6679741295
 40
0.7819471433
 40
0.8920109034
 40
1.0
 40
1.0
 40
1.0
 40
1.0
 10
109.581337764
 20
50.8841094928
 30
0.0
 10
109.7903608766
 20
50.7634326726
 30
0.0
 10
110.2076894085
 20
50.5449147377
 30
0.0
 10
110.8442125417
 20
50.2839912705
 30
0.0
 10
111.4695028522
 20
50.1010703421
 30
0.0
 10
112.0776319787
 20
49.9981663067
 30
0.0
 10
112.6630086993
 20
49.9765138464
 30
0.0
 10
113.2200455538
 20
50.0370353675
 30
0.0
 10
113.7428412633
 20
50.1795454526
 30
0.0
 10
114.0662546196
 20
50.3292316624
 30
0.0
 10
114.2186545372
 20
50.4162628834
 30
0.0
  0
SPLINE
  5
2D1
100
AcDbEntity
  8
0
100
AcDbSpline
 62
7
  6
BYLAYER
 70
0
 71
3
 72
15
 73
11
 74
0
 42
0.0000001
 43
0.0000001
 44
0.0000000001
 40
0.0
 40
0.0
 40
0.0
 40
0.0
 40
0.1141571438
 40
0.2373234998
 40
0.3669731073
 40
0.4999973509
 40
0.6330233211
 40
0.7626740334
 40
0.88584567
 40
1.0
 40
1.0
 40
1.0
 40
1.0
 10
109.0156546943
 20
64.3972301401
 30
0.0
 10
109.3859766091
 20
64.1834295197
 30
0.0
 10
110.1174118824
 20
63.6707194659
 30
0.0
 10
111.1238044407
 20
62.7291334822
 30
0.0
 10
112.0512817318
 20
61.616152459
 30
0.0
 10
112.8648732969
 20
60.3734464316
 30
0.0
 10
113.5343106792
 20
59.0475081252
 30
0.0
 10
114.0344829358
 20
57.6877797453
 30
0.0
 10
114.3467041567
 20
56.3454066535
 30
0.0
 10
114.4250260171
 20
55.4556039711
 30
0.0
 10
114.4250282983
 20
55.0280060148
 30
0.0
  0
SPLINE
  5
2D2
100
AcDbEntity
  8
0
100
AcDbSpline
 62
7
  6
BYLAYER
 70
0
 71
3
 72
14
 73
10
 74
0
 42
0.0000001
 43
0.0000001
 44
0.0000000001
 40
0.0
 40
0.0
 40
0.0
 40
0.0
 40
0.2858742756
 40
0.4181894073
 40
0.5438650659
 40
0.6636546483
 40
0.7786372273
 40
0.890205865
 40
1.0
 40
1.0
 40
1.0
 40
1.0
 10
114.4160820635
 20
55.0101865994
 30
0.0
 10
114.398652546
 20
54.6802562915
 30
0.0
 10
114.3350142301
 20
54.1973830982
 30
0.0
 10
114.1565668666
 20
53.5936422863
 30
0.0
 10
113.985793199
 20
53.1906507149
 30
0.0
 10
113.7759144918
 20
52.8294335792
 30
0.0
 10
113.5283591359
 20
52.5131248767
 30
0.0
 10
113.2451421487
 20
52.2447852097
 30
0.0
 10
113.0333711538
 20
52.0990360672
 30
0.0
 10
112.9234800005
 20
52.0355907635
 30
0.0
  0
SPLINE
  5
2D3
100
AcDbEntity
  8
0
100
AcDbSpline
 62
7
  6
BYLAYER
 70
0
 71
3
 72
15
 73
11
 74
0
 42
0.0000001
 43
0.0000001
 44
0.0000000001
 40
0.0
 40
0.0
 40
0.0
 40
0.0
 40
0.114155236
 40
0.2373266846
 40
0.3669758901
 40
0.499999501
 40
0.6330233444
 40
0.7626729658
 40
0.8858416521
 40
1.0
 40
1.0
 40
1.0
 40
1.0
 10
129.0269232493
 20
80.0737383612
 30
0.0
 10
129.6416824551
 20
79.7187964966
 30
0.0
 10
130.8559340844
 20
78.8675844733
 30
0.0
 10
132.5266938934
 20
77.3044510785
 30
0.0
 10
134.0663894985
 20
75.456716268
 30
0.0
 10
135.4170086098
 20
73.393680832
 30
0.0
 10
136.5283262855
 20
71.1924816197
 30
0.0
 10
137.358628378
 20
68.9352009318
 30
0.0
 10
137.8769712448
 20
66.7067107343
 30
0.0
 10
138.0069867968
 20
65.229525994
 30
0.0
 10
138.0069867968
 20
64.5196386212
 30
0.0
  0
SPLINE
  5
2D4
100
AcDbEntity
  8
0
100
AcDbSpline
 62
7
  6
BYLAYER
 70
0
 71
3
 72
15
 73
11
 74
0
 42
0.0000001
 43
0.0000001
 44
0.0000000001
 40
0.0
 40
0.0
 40
0.0
 40
0.0
 40
0.1142115789
 40
0.2374551357
 40
0.367184652
 40
0.5002716442
 40
0.6333207878
 40
0.7629395445
 40
0.886012636
 40
1.0
 40
1.0
 40
1.0
 40
1.0
 10
123.3699391328
 20
55.8240391635
 30
0.0
 10
123.3699391328
 20
56.5527797675
 30
0.0
 10
123.2360845636
 20
58.0693107133
 30
0.0
 10
122.7026283499
 20
60.3569399962
 30
0.0
 10
121.8482616232
 20
62.6737152809
 30
0.0
 10
120.7050002542
 20
64.9320613716
 30
0.0
 10
119.3159867877
 20
67.047304585
 30
0.0
 10
117.7331445353
 20
68.9399309877
 30
0.0
 10
116.01643285
 20
70.5385828012
 30
0.0
 10
114.7691231578
 20
71.4071893764
 30
0.0
 10
114.1378926613
 20
71.7684757706
 30
0.0
  0
SPLINE
  5
2D5
100
AcDbEntity
  8
0
100
AcDbSpline
 62
7
  6
BYLAYER
 70
0
 71
3
 72
15
 73
11
 74
0
 42
0.0000001
 43
0.0000001
 44
0.0000000001
 40
0.0
 40
0.0
 40
0.0
 40
0.0
 40
0.1484678455
 40
0.2892538676
 40
0.4224092374
 40
0.5483072356
 40
0.6676921267
 40
0.7817028634
 40
0.8918599554
 40
1.0
 40
1.0
 40
1.0
 40
1.0
 10
114.1378926613
 20
71.7684757706
 30
0.0
 10
113.8462546373
 20
71.9353955419
 30
0.0
 10
113.2642470851
 20
72.2373621335
 30
0.0
 10
112.376750685
 20
72.5968550757
 30
0.0
 10
111.5053273433
 20
72.8477246537
 30
0.0
 10
110.6580091055
 20
72.9871501527
 30
0.0
 10
109.8426645627
 20
73.0132879824
 30
0.0
 10
109.0670617081
 20
72.9251228379
 30
0.0
 10
108.3393706089
 20
72.7228154436
 30
0.0
 10
107.8895123111
 20
72.5118804016
 30
0.0
 10
107.6775487585
 20
72.3895039794
 30
0.0
  0
SPLINE
  5
2D6
100
AcDbEntity
  8
0
100
AcDbSpline
 62
7
  6
BYLAYER
 70
0
 71
3
 72
31
 73
27
 74
0
 42
0.0000001
 43
0.0000001
 44
0.0000000001
 40
0.0
 40
0.0
 40
0.0
 40
0.0
 40
0.0664984198
 40
0.1381954643
 40
0.2136641407
 40
0.2911490732
 40
0.3687385901
 40
0.4445133252
 40
0.5166952649
 40
0.5509833861
 40
0.5838561821
 40
0.6152080629
 40
0.6449793037
 40
0.6731635945
 40
0.6998181452
 40
0.7250734944
 40
0.7491389405
 40
0.7723035323
 40
0.7949265348
 40
0.8174136307
 40
0.8401828709
 40
0.8636266581
 40
0.8880817948
 40
0.9138105607
 40
0.9409910574
 40
1.0
 40
1.0
 40
1.0
 40
1.0
 10
122.9456750641
 20
55.8240381437
 30
0.0
 10
122.9456750641
 20
56.5240954816
 30
0.0
 10
122.8192509721
 20
57.9802810795
 30
0.0
 10
122.3143575867
 20
60.178117637
 30
0.0
 10
121.5049001356
 20
62.4062411018
 30
0.0
 10
120.4202916223
 20
64.5830064293
 30
0.0
 10
119.1000625317
 20
66.6294549672
 30
0.0
 10
117.5925724021
 20
68.470571181
 30
0.0
 10
116.2019273551
 20
69.8010100793
 30
0.0
 10
115.0406727886
 20
70.699153618
 30
0.0
 10
114.1742366336
 20
71.2710620461
 30
0.0
 10
113.3055227735
 20
71.7474128943
 30
0.0
 10
112.4424081974
 20
72.1237659397
 30
0.0
 10
111.5926876293
 20
72.3964569255
 30
0.0
 10
110.764012238
 20
72.5626457789
 30
0.0
 10
109.9639161815
 20
72.6203626077
 30
0.0
 10
109.1998594631
 20
72.5683774314
 30
0.0
 10
108.4793796946
 20
72.4063914759
 30
0.0
 10
107.8100435608
 20
72.1354551057
 30
0.0
 10
107.199198119
 20
71.7581057719
 30
0.0
 10
106.6535029033
 20
71.2784970625
 30
0.0
 10
106.1783641257
 20
70.7021730155
 30
0.0
 10
105.7780250612
 20
70.0354356742
 30
0.0
 10
105.4557256287
 20
69.2849747299
 30
0.0
 10
105.1243199528
 20
68.1520937496
 30
0.0
 10
105.0159788405
 20
67.2433595809
 30
0.0
 10
104.992962581
 20
66.6225737053
 30
0.0
  0
SPLINE
  5
2D7
100
AcDbEntity
  8
0
100
AcDbSpline
 62
7
  6
BYLAYER
 70
0
 71
3
 72
23
 73
19
 74
0
 42
0.0000001
 43
0.0000001
 44
0.0000000001
 40
0.0
 40
0.0
 40
0.0
 40
0.0
 40
0.0612955312
 40
0.1263279305
 40
0.1944745785
 40
0.2649822258
 40
0.3369866217
 40
0.4095657498
 40
0.4817715776
 40
0.5526725899
 40
0.6213899424
 40
0.6871381686
 40
0.749270069
 40
0.8073285105
 40
0.8611080619
 40
0.9107272439
 40
0.9567033048
 40
1.0
 40
1.0
 40
1.0
 40
1.0
 10
113.9653815548
 20
67.9489662717
 30
0.0
 10
114.2554460409
 20
67.7815012512
 30
0.0
 10
114.8320913747
 20
67.3988383488
 30
0.0
 10
115.6518101093
 20
66.7200219594
 30
0.0
 10
116.4388040456
 20
65.9307640376
 30
0.0
 10
117.1778487793
 20
65.0464430948
 30
0.0
 10
117.8547470753
 20
64.0840141125
 30
0.0
 10
118.4564282164
 20
63.0621130116
 30
0.0
 10
118.9712453325
 20
62.0004862642
 30
0.0
 10
119.389247643
 20
60.9196636028
 30
0.0
 10
119.7023597448
 20
59.8404855186
 30
0.0
 10
119.9045244712
 20
58.7836720639
 30
0.0
 10
119.9917745914
 20
57.7693735329
 30
0.0
 10
119.9621740004
 20
56.8167262389
 30
0.0
 10
119.8157102241
 20
55.9435694254
 30
0.0
 10
119.5537795795
 20
55.1661778561
 30
0.0
 10
119.1797394727
 20
54.5002482409
 30
0.0
 10
118.8514770278
 20
54.1326091759
 30
0.0
 10
118.6736776261
 20
53.9765326346
 30
0.0
  0
SPLINE
  5
2D8
100
AcDbEntity
  8
0
100
AcDbSpline
 62
7
  6
BYLAYER
 70
0
 71
3
 72
12
 73
8
 74
0
 42
0.0000001
 43
0.0000001
 44
0.0000000001
 40
0.0
 40
0.0
 40
0.0
 40
0.0
 40
0.1079400794
 40
0.2191550251
 40
0.4552369619
 40
0.714751286
 40
1.0
 40
1.0
 40
1.0
 40
1.0
 10
110.2243475762
 20
68.6005361914
 30
0.0
 10
110.357415706
 20
68.6459120259
 30
0.0
 10
110.6345905305
 20
68.7186563508
 30
0.0
 10
111.2246579706
 20
68.7905354411
 30
0.0
 10
112.0210198954
 20
68.7331286546
 30
0.0
 10
113.0030749829
 20
68.4479250161
 30
0.0
 10
113.6436197619
 20
68.1347313269
 30
0.0
 10
113.9653815548
 20
67.9489662717
 30
0.0
  0
SPLINE
  5
2D9
100
AcDbEntity
  8
0
100
AcDbSpline
 62
7
  6
BYLAYER
 70
0
 71
3
 72
22
 73
18
 74
0
 42
0.0000001
 43
0.0000001
 44
0.0000000001
 40
0.0
 40
0.0
 40
0.0
 40
0.0
 40
0.1425230953
 40
0.2082506776
 40
0.2704917295
 40
0.3296577892
 40
0.3863498358
 40
0.4413445527
 40
0.4955554845
 40
0.5499650043
 40
0.60553748
 40
0.6631386118
 40
0.7234784005
 40
0.787078954
 40
0.8542775297
 40
0.9252618749
 40
1.0
 40
1.0
 40
1.0
 40
1.0
 10
114.3103533847
 20
50.4476165872
 30
0.0
 10
114.8536969647
 20
50.1580570156
 30
0.0
 10
115.6859604873
 20
49.7972376697
 30
0.0
 10
116.8211990108
 20
49.5119208513
 30
0.0
 10
117.6252243525
 20
49.4089352783
 30
0.0
 10
118.3970479863
 20
49.4128244734
 30
0.0
 10
119.1295428602
 20
49.5241716699
 30
0.0
 10
119.8153916041
 20
49.742607021
 30
0.0
 10
120.4473383459
 20
50.06643024
 30
0.0
 10
121.018629525
 20
50.4922652941
 30
0.0
 10
121.5234382904
 20
51.0153856038
 30
0.0
 10
121.957069368
 20
51.6300896083
 30
0.0
 10
122.3159689043
 20
52.330009233
 30
0.0
 10
122.5974281285
 20
53.1083601697
 30
0.0
 10
122.7993666848
 20
53.9580646897
 30
0.0
 10
122.9202360383
 20
54.8712624811
 30
0.0
 10
122.9456750641
 20
55.501177627
 30
0.0
 10
122.9456750641
 20
55.8240381437
 30
0.0
  0
SPLINE
  5
2DA
100
AcDbEntity
  8
0
100
AcDbSpline
 62
7
  6
BYLAYER
 70
0
 71
3
 72
15
 73
11
 74
0
 42
0.0000001
 43
0.0000001
 44
0.0000000001
 40
0.0
 40
0.0
 40
0.0
 40
0.0
 40
0.114158703
 40
0.2373259923
 40
0.3669769309
 40
0.500001082
 40
0.6330250826
 40
0.7626755816
 40
0.8858421784
 40
1.0
 40
1.0
 40
1.0
 40
1.0
 10
116.1574582079
 20
54.6809429551
 30
0.0
 10
116.1574582079
 20
55.2007908557
 30
0.0
 10
116.0622534414
 20
56.2825206727
 30
0.0
 10
115.6826528322
 20
57.9144272838
 30
0.0
 10
115.0746298036
 20
59.5674213379
 30
0.0
 10
114.2608174322
 20
61.1793568759
 30
0.0
 10
113.2717404187
 20
62.6901004766
 30
0.0
 10
112.144213692
 20
64.0431505166
 30
0.0
 10
110.920740797
 20
65.1878336082
 30
0.0
 10
110.0315383223
 20
65.8111369181
 30
0.0
 10
109.581337764
 20
66.0710544514
 30
0.0
  0
SPLINE
  5
2DB
100
AcDbEntity
  8
0
100
AcDbSpline
 62
7
  6
BYLAYER
 70
0
 71
3
 72
14
 73
10
 74
0
 42
0.0000001
 43
0.0000001
 44
0.0000000001
 40
0.0
 40
0.0
 40
0.0
 40
0.0
 40
0.1080484672
 40
0.2181326759
 40
0.3321073565
 40
0.4515077045
 40
0.5774618663
 40
0.7107205523
 40
1.0
 40
1.0
 40
1.0
 40
1.0
 10
112.9234800005
 20
52.0355907635
 30
0.0
 10
112.8046141257
 20
51.9669639334
 30
0.0
 10
112.5522347276
 20
51.8487975459
 30
0.0
 10
112.1438899167
 20
51.7358682368
 30
0.0
 10
111.7085715556
 20
51.6873033425
 30
0.0
 10
111.2509496004
 20
51.7032504433
 30
0.0
 10
110.7753569081
 20
51.7830012615
 30
0.0
 10
110.1053173423
 20
51.9783747506
 30
0.0
 10
109.6167385701
 20
52.2109086418
 30
0.0
 10
109.2984962292
 20
52.3946417864
 30
0.0
  0
SPLINE
  5
2DC
100
AcDbEntity
  8
0
100
AcDbSpline
 62
7
  6
BYLAYER
 70
0
 71
3
 72
15
 73
11
 74
0
 42
0.0000001
 43
0.0000001
 44
0.0000000001
 40
0.0
 40
0.0
 40
0.0
 40
0.0
 40
0.1485719805
 40
0.2895075541
 40
0.4227234707
 40
0.5486372073
 40
0.6679992337
 40
0.781937334
 40
0.891986211
 40
1.0
 40
1.0
 40
1.0
 40
1.0
 10
109.581337764
 20
66.0710544514
 30
0.0
 10
109.3716072386
 20
66.1921396874
 30
0.0
 10
108.9528723059
 20
66.4113206689
 30
0.0
 10
108.3141811472
 20
66.6727629344
 30
0.0
 10
107.6868359285
 20
66.8556470789
 30
0.0
 10
107.0768227414
 20
66.9579413065
 30
0.0
 10
106.4897900309
 20
66.9783992745
 30
0.0
 10
105.9313852016
 20
66.9161018158
 30
0.0
 10
105.4075764572
 20
66.7712408801
 30
0.0
 10
105.0838348071
 20
66.6196619043
 30
0.0
 10
104.9313585815
 20
66.5316302463
 30
0.0
  0
SPLINE
  5
2DD
100
AcDbEntity
  8
0
100
AcDbSpline
 62
7
  6
BYLAYER
 70
0
 71
3
 72
9
 73
5
 74
0
 42
0.0000001
 43
0.0000001
 44
0.0000000001
 40
0.0
 40
0.0
 40
0.0
 40
0.0
 40
0.2548464034
 40
1.0
 40
1.0
 40
1.0
 40
1.0
 10
109.0156546943
 20
51.2107161034
 30
0.0
 10
109.0660145324
 20
51.1816414951
 30
0.0
 10
109.2648611906
 20
51.0697200191
 30
0.0
 10
109.4686989223
 20
50.9666081718
 30
0.0
 10
109.6231632599
 20
50.8955445797
 30
0.0
  0
SPLINE
  5
2DE
100
AcDbEntity
  8
0
100
AcDbSpline
 62
7
  6
BYLAYER
 70
0
 71
3
 72
28
 73
24
 74
0
 42
0.0000001
 43
0.0000001
 44
0.0000000001
 40
0.0
 40
0.0
 40
0.0
 40
0.0
 40
0.0571122178
 40
0.1083467537
 40
0.1322263511
 40
0.1552767772
 40
0.1778527027
 40
0.2003475633
 40
0.2231624101
 40
0.2466712749
 40
0.2711921386
 40
0.2969722347
 40
0.3241828242
 40
0.3529212162
 40
0.4149990156
 40
0.4829056168
 40
0.5556127821
 40
0.6316551717
 40
0.7093008704
 40
0.7866973453
 40
0.8620120785
 40
0.9335663892
 40
1.0
 40
1.0
 40
1.0
 40
1.0
 10
109.6231632599
 20
50.8955445797
 30
0.0
 10
109.981805532
 20
50.7305459235
 30
0.0
 10
110.6914276505
 20
50.4745161408
 30
0.0
 10
111.6095221297
 20
50.3636427952
 30
0.0
 10
112.2873555238
 20
50.4276109624
 30
0.0
 10
112.7552583086
 20
50.5451739393
 30
0.0
 10
113.1895027155
 20
50.7326626031
 30
0.0
 10
113.5855081918
 20
50.9883752417
 30
0.0
 10
113.9392406053
 20
51.3094844776
 30
0.0
 10
114.2472692719
 20
51.6925650493
 30
0.0
 10
114.5070327012
 20
52.1335704014
 30
0.0
 10
114.7165078288
 20
52.6282158882
 30
0.0
 10
114.8741391742
 20
53.1719610397
 30
0.0
 10
115.017327032
 20
53.976425837
 30
0.0
 10
115.0512865581
 20
55.0791584748
 30
0.0
 10
114.8781426217
 20
56.4738818063
 30
0.0
 10
114.498954773
 20
57.9267334203
 30
0.0
 10
113.9271091015
 20
59.3870105726
 30
0.0
 10
113.1826310862
 20
60.8038324042
 30
0.0
 10
112.2917247049
 20
62.1273900981
 30
0.0
 10
111.2854897762
 20
63.3112980642
 30
0.0
 10
110.1994956688
 20
64.3139531123
 30
0.0
 10
109.4133438071
 20
64.8616564725
 30
0.0
 10
109.0156546943
 20
65.0912571946
 30
0.0
  0
SPLINE
  5
2DF
100
AcDbEntity
  8
0
100
AcDbSpline
 62
7
  6
BYLAYER
 70
0
 71
3
 72
21
 73
17
 74
0
 42
0.0000001
 43
0.0000001
 44
0.0000000001
 40
0.0
 40
0.0
 40
0.0
 40
0.0
 40
0.1470512096
 40
0.215169896
 40
0.2797759079
 40
0.3411683201
 40
0.3997929573
 40
0.4562722323
 40
0.5113752094
 40
0.5659748722
 40
0.6209855728
 40
0.6772885524
 40
0.7356644162
 40
0.7967510699
 40
0.8610177865
 40
1.0
 40
1.0
 40
1.0
 40
1.0
 10
109.0156546943
 20
65.0912571946
 30
0.0
 10
108.6653147671
 20
65.2935214701
 30
0.0
 10
108.1283218374
 20
65.5521996335
 30
0.0
 10
107.3922172536
 20
65.7807174275
 30
0.0
 10
106.8669984952
 20
65.8835755503
 30
0.0
 10
106.3591682324
 20
65.9212112117
 30
0.0
 10
105.8729081031
 20
65.8928474736
 30
0.0
 10
105.4125121875
 20
65.7984440166
 30
0.0
 10
104.9822639678
 20
65.6384087101
 30
0.0
 10
104.5863196125
 20
65.4141121653
 30
0.0
 10
104.2285246453
 20
65.1276871139
 30
0.0
 10
103.9121890223
 20
64.7820117973
 30
0.0
 10
103.6398825101
 20
64.3805713172
 30
0.0
 10
103.4137363422
 20
63.9269761813
 30
0.0
 10
103.1695744848
 20
63.2406045855
 30
0.0
 10
103.0712604865
 20
62.6852165496
 30
0.0
 10
103.0359935344
 20
62.3045087998
 30
0.0
  0
SPLINE
  5
2E0
100
AcDbEntity
  8
0
100
AcDbSpline
 62
7
  6
BYLAYER
 70
0
 71
3
 72
9
 73
5
 74
0
 42
0.0000001
 43
0.0000001
 44
0.0000000001
 40
0.0
 40
0.0
 40
0.0
 40
0.0
 40
0.2450546916
 40
1.0
 40
1.0
 40
1.0
 40
1.0
 10
103.0359935344
 20
62.3045087998
 30
0.0
 10
103.0308370767
 20
62.2488446921
 30
0.0
 10
103.0125798337
 20
62.0214421489
 30
0.0
 10
103.0052263258
 20
61.7931923048
 30
0.0
 10
103.0052268836
 20
61.620972468
 30
0.0
  0
SPLINE
  5
2E1
100
AcDbEntity
  8
0
100
AcDbSpline
 62
7
  6
BYLAYER
 70
0
 71
3
 72
29
 73
25
 74
0
 42
0.0000001
 43
0.0000001
 44
0.0000000001
 40
0.0
 40
0.0
 40
0.0
 40
0.0
 40
0.0665376651
 40
0.1383264726
 40
0.2138941118
 40
0.2914286608
 40
0.3689641509
 40
0.4445322437
 40
0.5163238292
 40
0.5828594726
 40
0.6431927069
 40
0.6709878763
 40
0.6972596048
 40
0.722161951
 40
0.745933866
 40
0.7688942353
 40
0.7914299088
 40
0.813965624
 40
0.8369256263
 40
0.8606968877
 40
0.8856001553
 40
0.9118697252
 40
0.9396642479
 40
1.0
 40
1.0
 40
1.0
 40
1.0
 10
109.0156546943
 20
51.904743158
 30
0.0
 10
108.6453296298
 20
52.1185455968
 30
0.0
 10
107.9138882969
 20
52.631260832
 30
0.0
 10
106.9074884249
 20
53.5728561409
 30
0.0
 10
105.9800057003
 20
54.6858519181
 30
0.0
 10
105.1664112687
 20
55.9285607419
 30
0.0
 10
104.4969744731
 20
57.2545500548
 30
0.0
 10
103.9968055551
 20
58.6141530398
 30
0.0
 10
103.6845943686
 20
59.9570060916
 30
0.0
 10
103.5721150949
 20
61.2333454723
 30
0.0
 10
103.6515476192
 20
62.2308015636
 30
0.0
 10
103.8265254041
 20
62.9463336117
 30
0.0
 10
104.0045160947
 20
63.423016389
 30
0.0
 10
104.23143982
 20
63.8495991599
 30
0.0
 10
104.5054197913
 20
64.2217849962
 30
0.0
 10
104.82415244
 20
64.5354057271
 30
0.0
 10
105.1844157472
 20
64.7868492581
 30
0.0
 10
105.582293652
 20
64.9731508997
 30
0.0
 10
106.0132625695
 20
65.0923389932
 30
0.0
 10
106.4725685744
 20
65.1435922705
 30
0.0
 10
106.9554430695
 20
65.126765722
 30
0.0
 10
107.4572785153
 20
65.0426237489
 30
0.0
 10
108.1642999151
 20
64.8364746029
 30
0.0
 10
108.6798472795
 20
64.5911042554
 30
0.0
 10
109.0156546943
 20
64.3972301401
 30
0.0
  0
SPLINE
  5
2E2
100
AcDbEntity
  8
0
100
AcDbSpline
 62
7
  6
BYLAYER
 70
0
 71
3
 72
15
 73
11
 74
0
 42
0.0000001
 43
0.0000001
 44
0.0000000001
 40
0.0
 40
0.0
 40
0.0
 40
0.0
 40
0.1080128009
 40
0.2180620984
 40
0.3319998672
 40
0.4513592489
 40
0.5772785455
 40
0.7104931115
 40
0.8514153353
 40
1.0
 40
1.0
 40
1.0
 40
1.0
 10
120.6774766533
 20
49.8728339652
 30
0.0
 10
120.8906193525
 20
49.9958911637
 30
0.0
 10
121.3004219544
 20
50.2818339746
 30
0.0
 10
121.8418932784
 20
50.81472596
 30
0.0
 10
122.3075716875
 20
51.4472039905
 30
0.0
 10
122.6931572526
 20
52.1721494939
 30
0.0
 10
122.9956357206
 20
52.9821579909
 30
0.0
 10
123.212706893
 20
53.8694285693
 30
0.0
 10
123.3426370226
 20
54.8253589351
 30
0.0
 10
123.3699391328
 20
55.485477416
 30
0.0
 10
123.3699391328
 20
55.8240391635
 30
0.0
  0
SPLINE
  5
2E3
100
AcDbEntity
  8
0
100
AcDbSpline
 62
7
  6
BYLAYER
 70
0
 71
3
 72
14
 73
10
 74
0
 42
0.0000001
 43
0.0000001
 44
0.0000000001
 40
0.0
 40
0.0
 40
0.0
 40
0.0
 40
0.2892804194
 40
0.4225393776
 40
0.5484936283
 40
0.6678938691
 40
0.7818682616
 40
0.8919520406
 40
1.0
 40
1.0
 40
1.0
 40
1.0
 10
104.1719507218
 20
61.2740297809
 30
0.0
 10
104.1719507218
 20
61.6415133838
 30
0.0
 10
104.2148559957
 20
62.1809184552
 30
0.0
 10
104.3806765364
 20
62.8588977058
 30
0.0
 10
104.5494079948
 20
63.3106621299
 30
0.0
 10
104.7644116867
 20
63.7149596557
 30
0.0
 10
105.0241344705
 20
64.0676835015
 30
0.0
 10
105.3261134581
 20
64.3648628382
 30
0.0
 10
105.5546439573
 20
64.5243495115
 30
0.0
 10
105.6735124578
 20
64.5929778576
 30
0.0
  0
SPLINE
  5
2E4
100
AcDbEntity
  8
0
100
AcDbSpline
 62
7
  6
BYLAYER
 70
0
 71
3
 72
15
 73
11
 74
0
 42
0.0000001
 43
0.0000001
 44
0.0000000001
 40
0.0
 40
0.0
 40
0.0
 40
0.0
 40
0.1141578216
 40
0.2373244184
 40
0.3669749174
 40
0.499998918
 40
0.6330230691
 40
0.7626740077
 40
0.885841297
 40
1.0
 40
1.0
 40
1.0
 40
1.0
 10
109.2984962292
 20
52.3946417864
 30
0.0
 10
108.9475334284
 20
52.5972656699
 30
0.0
 10
108.2543379508
 20
53.0831741642
 30
0.0
 10
107.3005553175
 20
53.9755346388
 30
0.0
 10
106.4215694285
 20
55.0303317131
 30
0.0
 10
105.6505147674
 20
56.2080619393
 30
0.0
 10
105.0160911445
 20
57.4646783534
 30
0.0
 10
104.5420946975
 20
58.7533027504
 30
0.0
 10
104.2461694914
 20
60.0254880118
 30
0.0
 10
104.1719507218
 20
60.8687720089
 30
0.0
 10
104.1719507218
 20
61.2740297809
 30
0.0
  0
SPLINE
  5
2E5
100
AcDbEntity
  8
0
100
AcDbSpline
 62
7
  6
BYLAYER
 70
0
 71
3
 72
15
 73
11
 74
0
 42
0.0000001
 43
0.0000001
 44
0.0000000001
 40
0.0
 40
0.0
 40
0.0
 40
0.0
 40
0.1148422642
 40
0.2389596084
 40
0.3696056883
 40
0.5034075398
 40
0.6367318922
 40
0.7659833765
 40
0.8879202138
 40
1.0
 40
1.0
 40
1.0
 40
1.0
 10
108.9802568149
 20
64.0500900272
 30
0.0
 10
108.9802568149
 20
63.630624314
 30
0.0
 10
109.0597905252
 20
62.7569723775
 30
0.0
 10
109.3755411762
 20
61.4406095947
 30
0.0
 10
109.8801657676
 20
60.1102293744
 30
0.0
 10
110.5536373842
 20
58.8191871986
 30
0.0
 10
111.3690104325
 20
57.6188548862
 30
0.0
 10
112.2939763218
 20
56.5570473977
 30
0.0
 10
113.2914189304
 20
55.6761598997
 30
0.0
 10
114.0138717001
 20
55.2104170295
 30
0.0
 10
114.377627512
 20
55.0226135725
 30
0.0
  0
SPLINE
  5
2E6
100
AcDbEntity
  8
0
100
AcDbSpline
 62
7
  6
BYLAYER
 70
0
 71
3
 72
15
 73
11
 74
0
 42
0.0000001
 43
0.0000001
 44
0.0000000001
 40
0.0
 40
0.0
 40
0.0
 40
0.0
 40
0.1147436859
 40
0.2380443541
 40
0.3674612343
 40
0.5000524213
 40
0.6326358892
 40
0.762030213
 40
0.8852917107
 40
1.0
 40
1.0
 40
1.0
 40
1.0
 10
129.0191481353
 20
80.0756069179
 30
0.0
 10
129.6294209184
 20
79.707570869
 30
0.0
 10
130.8327591925
 20
78.8374907401
 30
0.0
 10
132.4890968381
 20
77.2593086414
 30
0.0
 10
134.0151833468
 20
75.408880643
 30
0.0
 10
135.3565721732
 20
73.351948839
 30
0.0
 10
136.466001695
 20
71.1613369341
 30
0.0
 10
137.3040544405
 20
68.9144220189
 30
0.0
 10
137.8411603715
 20
66.6911583102
 30
0.0
 10
137.9918644694
 20
65.2143369954
 30
0.0
 10
138.0048973175
 20
64.5020166679
 30
0.0
  0
SPLINE
  5
2E7
100
AcDbEntity
  8
0
100
AcDbSpline
 62
7
  6
BYLAYER
 70
0
 71
3
 72
15
 73
11
 74
0
 42
0.0000001
 43
0.0000001
 44
0.0000000001
 40
0.0
 40
0.0
 40
0.0
 40
0.0
 40
0.1080132808
 40
0.2180617278
 40
0.3319995396
 40
0.4513614582
 40
0.5772752832
 40
0.7104914711
 40
0.8514274728
 40
1.0
 40
1.0
 40
1.0
 40
1.0
 10
114.2313169466
 20
50.423533698
 30
0.0
 10
114.3837965403
 20
50.5115673006
 30
0.0
 10
114.6769459294
 20
50.7161500221
 30
0.0
 10
115.0643124437
 20
51.0973602275
 30
0.0
 10
115.3974726732
 20
51.5498164952
 30
0.0
 10
115.6732761531
 20
52.0684457751
 30
0.0
 10
115.8896950737
 20
52.6478973283
 30
0.0
 10
116.0449845172
 20
53.2826558766
 30
0.0
 10
116.137910992
 20
53.9665209761
 30
0.0
 10
116.1574582079
 20
54.4387609941
 30
0.0
 10
116.1574582079
 20
54.6809429551
 30
0.0
  0
SPLINE
  5
2E8
100
AcDbEntity
  8
0
100
AcDbSpline
 62
7
  6
BYLAYER
 70
0
 71
3
 72
21
 73
17
 74
0
 42
0.0000001
 43
0.0000001
 44
0.0000000001
 40
0.0
 40
0.0
 40
0.0
 40
0.0
 40
0.1446359582
 40
0.2112688836
 40
0.2742496513
 40
0.3339475684
 40
0.3909354547
 40
0.4459777619
 40
0.500001878
 40
0.5540260263
 40
0.6090672572
 40
0.6660532681
 40
0.7257529977
 40
0.7887281335
 40
0.8553590144
 40
1.0
 40
1.0
 40
1.0
 40
1.0
 10
114.4250282983
 20
55.0280060148
 30
0.0
 10
114.4250303668
 20
54.6402616929
 30
0.0
 10
114.3797712957
 20
54.0711003609
 30
0.0
 10
114.2048005681
 20
53.3557160052
 30
0.0
 10
114.0268133617
 20
52.8789956385
 30
0.0
 10
113.7998923446
 20
52.452411523
 30
0.0
 10
113.5259140593
 20
52.0802159541
 30
0.0
 10
113.2071821247
 20
51.7665883609
 30
0.0
 10
112.8469185763
 20
51.5151381684
 30
0.0
 10
112.4490395148
 20
51.3288309529
 30
0.0
 10
112.0180686366
 20
51.2096382734
 30
0.0
 10
111.5587599822
 20
51.1583815359
 30
0.0
 10
111.0758822758
 20
51.1752057603
 30
0.0
 10
110.5740431732
 20
51.2593465406
 30
0.0
 10
109.8670161445
 20
51.4654956319
 30
0.0
 10
109.3514646983
 20
51.7108675478
 30
0.0
 10
109.0156546943
 20
51.904743158
 30
0.0
  0
SPLINE
  5
2E9
100
AcDbEntity
  8
0
100
AcDbSpline
 62
7
  6
BYLAYER
 70
0
 71
3
 72
9
 73
5
 74
0
 42
0.0000001
 43
0.0000001
 44
0.0000000001
 40
0.0
 40
0.0
 40
0.0
 40
0.0
 40
0.2049697501
 40
1.0
 40
1.0
 40
1.0
 40
1.0
 10
21.546462548
 20
120.6119639934
 30
0.0
 10
21.550975862
 20
120.6133947809
 30
0.0
 10
21.5728477092
 20
120.6208384811
 30
0.0
 10
21.5942418099
 20
120.6296251631
 30
0.0
 10
21.6110665356
 20
120.636986636
 30
0.0
  0
SPLINE
  5
2EA
100
AcDbEntity
  8
0
100
AcDbSpline
 62
7
  6
BYLAYER
 70
0
 71
3
 72
17
 73
13
 74
0
 42
0.0000001
 43
0.0000001
 44
0.0000000001
 40
0.0
 40
0.0
 40
0.0
 40
0.0
 40
0.0432238441
 40
0.0890272303
 40
0.1384448956
 40
0.1920272943
 40
0.3117686901
 40
0.4461304322
 40
0.5894209977
 40
0.7343625138
 40
0.8734128745
 40
1.0
 40
1.0
 40
1.0
 40
1.0
 10
35.0642863846
 20
143.4560868418
 30
0.0
 10
35.1297290631
 20
143.4801142431
 30
0.0
 10
35.2710618006
 20
143.5130500167
 30
0.0
 10
35.4958337098
 20
143.5148632965
 30
0.0
 10
35.7330637165
 20
143.4708790808
 30
0.0
 10
36.0723047305
 20
143.3488803798
 30
0.0
 10
36.4982147663
 20
143.0837838392
 30
0.0
 10
36.9646963265
 20
142.6394786106
 30
0.0
 10
37.3726036526
 20
142.0895188575
 30
0.0
 10
37.6912329423
 20
141.4750356026
 30
0.0
 10
37.8968100379
 20
140.8424498322
 30
0.0
 10
37.9514393775
 20
140.4135245729
 30
0.0
 10
37.9514393775
 20
140.2093569022
 30
0.0
  0
SPLINE
  5
2EB
100
AcDbEntity
  8
0
100
AcDbSpline
 62
7
  6
BYLAYER
 70
0
 71
3
 72
11
 73
7
 74
0
 42
0.0000001
 43
0.0000001
 44
0.0000000001
 40
0.0
 40
0.0
 40
0.0
 40
0.0
 40
0.2895453772
 40
0.5491366158
 40
0.7822776227
 40
1.0
 40
1.0
 40
1.0
 40
1.0
 10
48.9646415518
 20
113.4587647355
 30
0.0
 10
48.9646415518
 20
113.3739430266
 30
0.0
 10
48.9516897853
 20
113.2125399874
 30
0.0
 10
48.8864415342
 20
112.9907410056
 30
0.0
 10
48.7763686922
 20
112.8107240283
 30
0.0
 10
48.6729303437
 20
112.7239244806
 30
0.0
 10
48.6176946094
 20
112.6920329543
 30
0.0
  0
SPLINE
  5
2EC
100
AcDbEntity
  8
0
100
AcDbSpline
 62
7
  6
BYLAYER
 70
0
 71
3
 72
11
 73
7
 74
0
 42
0.0000001
 43
0.0000001
 44
0.0000000001
 40
0.0
 40
0.0
 40
0.0
 40
0.0
 40
0.2896413964
 40
0.5491107671
 40
0.7822355978
 40
1.0
 40
1.0
 40
1.0
 40
1.0
 10
56.1241275189
 20
108.0801609099
 30
0.0
 10
56.1241275189
 20
107.9459192878
 30
0.0
 10
56.1037227427
 20
107.6905599477
 30
0.0
 10
56.0003690998
 20
107.3397044217
 30
0.0
 10
55.8262702733
 20
107.0549352678
 30
0.0
 10
55.6626434647
 20
106.9175682585
 30
0.0
 10
55.5752570448
 20
106.867069167
 30
0.0
  0
SPLINE
  5
2ED
100
AcDbEntity
  8
0
100
AcDbSpline
 62
7
  6
BYLAYER
 70
0
 71
3
 72
11
 73
7
 74
0
 42
0.0000001
 43
0.0000001
 44
0.0000000001
 40
0.0
 40
0.0
 40
0.0
 40
0.0
 40
0.2896413964
 40
0.5491107671
 40
0.7822355978
 40
1.0
 40
1.0
 40
1.0
 40
1.0
 10
27.6276055955
 20
124.5322633171
 30
0.0
 10
27.6276055955
 20
124.3980216949
 30
0.0
 10
27.6072008193
 20
124.1426623549
 30
0.0
 10
27.5038471764
 20
123.7918068288
 30
0.0
 10
27.3297483499
 20
123.507037675
 30
0.0
 10
27.1661215413
 20
123.3696706657
 30
0.0
 10
27.0787351214
 20
123.3191715742
 30
0.0
  0
SPLINE
  5
2EE
100
AcDbEntity
  8
0
100
AcDbSpline
 62
7
  6
BYLAYER
 70
0
 71
3
 72
9
 73
5
 74
0
 42
0.0000001
 43
0.0000001
 44
0.0000000001
 40
0.0
 40
0.0
 40
0.0
 40
0.0
 40
0.2940773067
 40
1.0
 40
1.0
 40
1.0
 40
1.0
 10
46.7903109418
 20
120.2868285998
 30
0.0
 10
46.7946766708
 20
120.2893491396
 30
0.0
 10
46.8099069942
 20
120.2967778602
 30
0.0
 10
46.8298400703
 20
120.29784942
 30
0.0
 10
46.8403181899
 20
120.2917960639
 30
0.0
  0
SPLINE
  5
2EF
100
AcDbEntity
  8
0
100
AcDbSpline
 62
7
  6
BYLAYER
 70
0
 71
3
 72
11
 73
7
 74
0
 42
0.0000001
 43
0.0000001
 44
0.0000000001
 40
0.0
 40
0.0
 40
0.0
 40
0.0
 40
0.2372398078
 40
0.4999994051
 40
0.7627593222
 40
1.0
 40
1.0
 40
1.0
 40
1.0
 10
48.5579238075
 20
167.7823202497
 30
0.0
 10
48.3069510988
 20
167.6374219537
 30
0.0
 10
47.7233172955
 20
167.4259810805
 30
0.0
 10
46.7901598485
 20
167.3246773802
 30
0.0
 10
45.8570008581
 20
167.4259767422
 30
0.0
 10
45.2733645756
 20
167.6374147338
 30
0.0
 10
45.0223899016
 20
167.7823117514
 30
0.0
  0
SPLINE
  5
2F0
100
AcDbEntity
  8
0
100
AcDbSpline
 62
7
  6
BYLAYER
 70
0
 71
3
 72
9
 73
5
 74
0
 42
0.0000001
 43
0.0000001
 44
0.0000000001
 40
0.0
 40
0.0
 40
0.0
 40
0.0
 40
0.2567322476
 40
1.0
 40
1.0
 40
1.0
 40
1.0
 10
62.5869954743
 20
157.6416114091
 30
0.0
 10
62.566400547
 20
157.6535016269
 30
0.0
 10
62.4868985477
 20
157.7010390128
 30
0.0
 10
62.4103333089
 20
157.753549913
 30
0.0
 10
62.3557508262
 20
157.7955119824
 30
0.0
  0
SPLINE
  5
2F1
100
AcDbEntity
  8
0
100
AcDbSpline
 62
7
  6
BYLAYER
 70
0
 71
3
 72
11
 73
7
 74
0
 42
0.0000001
 43
0.0000001
 44
0.0000000001
 40
0.0
 40
0.0
 40
0.0
 40
0.0
 40
0.2812990789
 40
0.5376342416
 40
0.7743036255
 40
1.0
 40
1.0
 40
1.0
 40
1.0
 10
62.3557508262
 20
157.7955119824
 30
0.0
 10
62.2787959159
 20
157.8546735875
 30
0.0
 10
62.1399077867
 20
157.9793320146
 30
0.0
 10
61.9781045211
 20
158.1944637451
 30
0.0
 10
61.8777963297
 20
158.424012999
 30
0.0
 10
61.8547675202
 20
158.5843408212
 30
0.0
 10
61.854767542
 20
158.6622217937
 30
0.0
  0
SPLINE
  5
2F2
100
AcDbEntity
  8
0
100
AcDbSpline
 62
7
  6
BYLAYER
 70
0
 71
3
 72
11
 73
7
 74
0
 42
0.0000001
 43
0.0000001
 44
0.0000000001
 40
0.0
 40
0.0
 40
0.0
 40
0.0
 40
0.2858898121
 40
0.5458450837
 40
0.7815844197
 40
1.0
 40
1.0
 40
1.0
 40
1.0
 10
37.9514393775
 20
140.2093569022
 30
0.0
 10
37.9514393775
 20
140.0975778681
 30
0.0
 10
37.9362493528
 20
139.8836427428
 30
0.0
 10
37.860990791
 20
139.585476273
 30
0.0
 10
37.7346516018
 20
139.33363167
 30
0.0
 10
37.6144344362
 20
139.199190302
 30
0.0
 10
37.548574958
 20
139.1448279386
 30
0.0
  0
SPLINE
  5
2F3
100
AcDbEntity
  8
0
100
AcDbSpline
 62
7
  6
BYLAYER
 70
0
 71
3
 72
17
 73
13
 74
0
 42
0.0000001
 43
0.0000001
 44
0.0000000001
 40
0.0
 40
0.0
 40
0.0
 40
0.0
 40
0.0430435172
 40
0.0884530403
 40
0.1373829725
 40
0.1904839185
 40
0.3095185212
 40
0.4437118401
 40
0.5873447427
 40
0.7329638781
 40
0.8727815217
 40
1.0
 40
1.0
 40
1.0
 40
1.0
 10
48.7852415347
 20
167.9855326749
 30
0.0
 10
48.7784907278
 20
168.0411538139
 30
0.0
 10
48.7500395887
 20
168.1540684109
 30
0.0
 10
48.667557668
 20
168.3141958079
 30
0.0
 10
48.5468550159
 20
168.4648333966
 30
0.0
 10
48.3309692521
 20
168.6567432526
 30
0.0
 10
47.9782708358
 20
168.8525536228
 30
0.0
 10
47.4816490889
 20
169.0044551932
 30
0.0
 10
46.9319476143
 20
169.0718555633
 30
0.0
 10
46.3713655187
 20
169.0494264022
 30
0.0
 10
45.843171945
 20
168.9391516635
 30
0.0
 10
45.5193432233
 20
168.8040501295
 30
0.0
 10
45.3759300444
 20
168.7212509862
 30
0.0
  0
SPLINE
  5
2F4
100
AcDbEntity
  8
0
100
AcDbSpline
 62
7
  6
BYLAYER
 70
0
 71
3
 72
9
 73
5
 74
0
 42
0.0000001
 43
0.0000001
 44
0.0000000001
 40
0.0
 40
0.0
 40
0.0
 40
0.0
 40
0.4995463565
 40
1.0
 40
1.0
 40
1.0
 40
1.0
 10
25.5770191874
 20
132.370750752
 30
0.0
 10
25.5979888313
 20
132.3828575092
 30
0.0
 10
25.6311730613
 20
132.4211042966
 30
0.0
 10
25.6477295711
 20
132.4689678088
 30
0.0
 10
25.6477295711
 20
132.4932254091
 30
0.0
  0
SPLINE
  5
2F5
100
AcDbEntity
  8
0
100
AcDbSpline
 62
7
  6
BYLAYER
 70
0
 71
3
 72
11
 73
7
 74
0
 42
0.0000001
 43
0.0000001
 44
0.0000000001
 40
0.0
 40
0.0
 40
0.0
 40
0.0
 40
0.2231013618
 40
0.4586241994
 40
0.7159445774
 40
1.0
 40
1.0
 40
1.0
 40
1.0
 10
24.4287945263
 20
134.441050396
 30
0.0
 10
24.5054706622
 20
134.4853602007
 30
0.0
 10
24.6781400582
 20
134.5523913515
 30
0.0
 10
24.9645516787
 20
134.5762391427
 30
0.0
 10
25.2713867968
 20
134.5264747186
 30
0.0
 10
25.4738106101
 20
134.450465713
 30
0.0
 10
25.575954308
 20
134.4027158557
 30
0.0
  0
SPLINE
  5
2F6
100
AcDbEntity
  8
0
100
AcDbSpline
 62
7
  6
BYLAYER
 70
0
 71
3
 72
17
 73
13
 74
0
 42
0.0000001
 43
0.0000001
 44
0.0000000001
 40
0.0
 40
0.0
 40
0.0
 40
0.0
 40
0.042857965
 40
0.0874854797
 40
0.1353180708
 40
0.1872814984
 40
0.3045423159
 40
0.4382097446
 40
0.5825520305
 40
0.7297107839
 40
0.8713099826
 40
1.0
 40
1.0
 40
1.0
 40
1.0
 10
52.9253164497
 20
117.9889479888
 30
0.0
 10
52.9906303901
 20
118.0266917784
 30
0.0
 10
53.1346540408
 20
118.0865210013
 30
0.0
 10
53.3723610922
 20
118.1213852472
 30
0.0
 10
53.62764789
 20
118.1025733869
 30
0.0
 10
53.9985816924
 20
118.0039401627
 30
0.0
 10
54.4727639833
 20
117.7446562246
 30
0.0
 10
54.9966573066
 20
117.2806993272
 30
0.0
 10
55.4597579078
 20
116.6879526861
 30
0.0
 10
55.8242369393
 20
116.0142978822
 30
0.0
 10
56.0607537885
 20
115.3149761124
 30
0.0
 10
56.1241275189
 20
114.8386909343
 30
0.0
 10
56.1241275189
 20
114.6121802469
 30
0.0
  0
SPLINE
  5
2F7
100
AcDbEntity
  8
0
100
AcDbSpline
 62
7
  6
BYLAYER
 70
0
 71
3
 72
9
 73
5
 74
0
 42
0.0000001
 43
0.0000001
 44
0.0000000001
 40
0.0
 40
0.0
 40
0.0
 40
0.0
 40
0.525478247
 40
1.0
 40
1.0
 40
1.0
 40
1.0
 10
48.6084510076
 20
118.6836830234
 30
0.0
 10
48.7187605646
 20
118.4953817466
 30
0.0
 10
48.8897959924
 20
118.1129504286
 30
0.0
 10
48.9646415518
 20
117.6975221345
 30
0.0
 10
48.9646415518
 20
117.5004517003
 30
0.0
  0
SPLINE
  5
2F8
100
AcDbEntity
  8
0
100
AcDbSpline
 62
7
  6
BYLAYER
 70
0
 71
3
 72
11
 73
7
 74
0
 42
0.0000001
 43
0.0000001
 44
0.0000000001
 40
0.0
 40
0.0
 40
0.0
 40
0.0
 40
0.2871466534
 40
0.54704674
 40
0.7819875018
 40
1.0
 40
1.0
 40
1.0
 40
1.0
 10
62.940535617
 20
158.5805506439
 30
0.0
 10
62.8599113014
 20
158.5340024515
 30
0.0
 10
62.7124570727
 20
158.433722888
 30
0.0
 10
62.5314557879
 20
158.2536598286
 30
0.0
 10
62.407980545
 20
158.0554486497
 30
0.0
 10
62.3674667776
 20
157.911603629
 30
0.0
 10
62.3593006002
 20
157.8413943656
 30
0.0
  0
SPLINE
  5
2F9
100
AcDbEntity
  8
0
100
AcDbSpline
 62
7
  6
BYLAYER
 70
0
 71
3
 72
9
 73
5
 74
0
 42
0.0000001
 43
0.0000001
 44
0.0000000001
 40
0.0
 40
0.0
 40
0.0
 40
0.0
 40
0.2598086755
 40
1.0
 40
1.0
 40
1.0
 40
1.0
 10
73.7837621381
 20
167.7067163267
 30
0.0
 10
73.7693407469
 20
167.7176731301
 30
0.0
 10
73.7147738863
 20
167.7610524758
 30
0.0
 10
73.6640906643
 20
167.8094496196
 30
0.0
 10
73.629946224
 20
167.8481364377
 30
0.0
  0
SPLINE
  5
2FA
100
AcDbEntity
  8
0
100
AcDbSpline
 62
7
  6
BYLAYER
 70
0
 71
3
 72
9
 73
5
 74
0
 42
0.0000001
 43
0.0000001
 44
0.0000000001
 40
0.0
 40
0.0
 40
0.0
 40
0.0
 40
0.5234199209
 40
1.0
 40
1.0
 40
1.0
 40
1.0
 10
73.629946224
 20
167.8481364377
 30
0.0
 10
73.5759164151
 20
167.9093540582
 30
0.0
 10
73.4871984274
 20
168.0414978904
 30
0.0
 10
73.4533062997
 20
168.1987055728
 30
0.0
 10
73.4533098411
 20
168.2730494
 30
0.0
  0
SPLINE
  5
2FB
100
AcDbEntity
  8
0
100
AcDbSpline
 62
7
  6
BYLAYER
 70
0
 71
3
 72
9
 73
5
 74
0
 42
0.0000001
 43
0.0000001
 44
0.0000000001
 40
0.0
 40
0.0
 40
0.0
 40
0.0
 40
0.499998676
 40
1.0
 40
1.0
 40
1.0
 40
1.0
 10
58.4575890231
 20
48.5571674486
 30
0.0
 10
58.4366006163
 20
48.5692848368
 30
0.0
 10
58.3868783844
 20
48.5788803518
 30
0.0
 10
58.3371560974
 20
48.5692847124
 30
0.0
 10
58.3161676669
 20
48.5571671087
 30
0.0
  0
SPLINE
  5
2FC
100
AcDbEntity
  8
0
100
AcDbSpline
 62
7
  6
BYLAYER
 70
0
 71
3
 72
11
 73
7
 74
0
 42
0.0000001
 43
0.0000001
 44
0.0000000001
 40
0.0
 40
0.0
 40
0.0
 40
0.0
 40
0.2222543714
 40
0.4573048447
 40
0.7149781861
 40
1.0
 40
1.0
 40
1.0
 40
1.0
 10
76.6954423816
 20
168.2730494018
 30
0.0
 10
76.6954397516
 20
168.2178390411
 30
0.0
 10
76.6775636581
 20
168.1035767581
 30
0.0
 10
76.5995671177
 20
167.9416964485
 30
0.0
 10
76.4748280884
 20
167.7921135661
 30
0.0
 10
76.3689191924
 20
167.7073501429
 30
0.0
 10
76.3104002819
 20
167.6674938254
 30
0.0
  0
SPLINE
  5
2FD
100
AcDbEntity
  8
0
100
AcDbSpline
 62
7
  6
BYLAYER
 70
0
 71
3
 72
8
 73
4
 74
0
 42
0.0000001
 43
0.0000001
 44
0.0000000001
 40
0.0
 40
0.0
 40
0.0
 40
0.0
 40
1.0
 40
1.0
 40
1.0
 40
1.0
 10
58.2870653046
 20
99.462567904
 30
0.0
 10
58.2881243208
 20
99.4443909974
 30
0.0
 10
58.2934867683
 20
99.4263045434
 30
0.0
 10
58.301169381
 20
99.4097970024
 30
0.0
  0
SPLINE
  5
2FE
100
AcDbEntity
  8
0
100
AcDbSpline
 62
7
  6
BYLAYER
 70
0
 71
3
 72
11
 73
7
 74
0
 42
0.0000001
 43
0.0000001
 44
0.0000000001
 40
0.0
 40
0.0
 40
0.0
 40
0.0
 40
0.2897033281
 40
0.5490895198
 40
0.7822165953
 40
1.0
 40
1.0
 40
1.0
 40
1.0
 10
32.1757153923
 20
118.1945433802
 30
0.0
 10
32.1757153923
 20
118.0757944801
 30
0.0
 10
32.1577113119
 20
117.8499592398
 30
0.0
 10
32.0662507491
 20
117.5396734542
 30
0.0
 10
31.9122615365
 20
117.2878940863
 30
0.0
 10
31.7676189254
 20
117.1662932344
 30
0.0
 10
31.6903095335
 20
117.1216589368
 30
0.0
  0
SPLINE
  5
2FF
100
AcDbEntity
  8
0
100
AcDbSpline
 62
7
  6
BYLAYER
 70
0
 71
3
 72
11
 73
7
 74
0
 42
0.0000001
 43
0.0000001
 44
0.0000000001
 40
0.0
 40
0.0
 40
0.0
 40
0.0
 40
0.2838153987
 40
0.5431037559
 40
0.7796640765
 40
1.0
 40
1.0
 40
1.0
 40
1.0
 10
22.9960686906
 20
68.1002705183
 30
0.0
 10
22.9923749488
 20
67.9915084164
 30
0.0
 10
22.9708375014
 20
67.7833988557
 30
0.0
 10
22.8892611929
 20
67.4939415254
 30
0.0
 10
22.759973053
 20
67.2490271764
 30
0.0
 10
22.6401734719
 20
67.1177671309
 30
0.0
 10
22.5748351452
 20
67.0642083681
 30
0.0
  0
SPLINE
  5
300
100
AcDbEntity
  8
0
100
AcDbSpline
 62
7
  6
BYLAYER
 70
0
 71
3
 72
10
 73
6
 74
0
 42
0.0000001
 43
0.0000001
 44
0.0000000001
 40
0.0
 40
0.0
 40
0.0
 40
0.0
 40
0.2813661141
 40
0.5415155854
 40
1.0
 40
1.0
 40
1.0
 40
1.0
 10
38.02215035
 20
118.1229675642
 30
0.0
 10
38.02215035
 20
118.0242475914
 30
0.0
 10
38.0104531855
 20
117.8337415313
 30
0.0
 10
37.9394970839
 20
117.489904218
 30
0.0
 10
37.824770211
 20
117.2552745716
 30
0.0
 10
37.7208907237
 20
117.1324488688
 30
0.0
  0
SPLINE
  5
301
100
AcDbEntity
  8
0
100
AcDbSpline
 62
7
  6
BYLAYER
 70
0
 71
3
 72
9
 73
5
 74
0
 42
0.0000001
 43
0.0000001
 44
0.0000000001
 40
0.0
 40
0.0
 40
0.0
 40
0.0
 40
0.2548241123
 40
1.0
 40
1.0
 40
1.0
 40
1.0
 10
37.7208907237
 20
117.1324488688
 30
0.0
 10
37.7038335823
 20
117.1122807352
 30
0.0
 10
37.6337314911
 20
117.0358804809
 30
0.0
 10
37.5505129273
 20
116.9714133842
 30
0.0
 10
37.4836351809
 20
116.9327653975
 30
0.0
  0
SPLINE
  5
302
100
AcDbEntity
  8
0
100
AcDbSpline
 62
7
  6
BYLAYER
 70
0
 71
3
 72
9
 73
5
 74
0
 42
0.0000001
 43
0.0000001
 44
0.0000000001
 40
0.0
 40
0.0
 40
0.0
 40
0.0
 40
0.5254845327
 40
1.0
 40
1.0
 40
1.0
 40
1.0
 10
37.527820398
 20
119.8585039784
 30
0.0
 10
37.6808839606
 20
119.5792521345
 30
0.0
 10
37.9189760223
 20
119.0168539829
 30
0.0
 10
38.02215035
 20
118.4105291878
 30
0.0
 10
38.02215035
 20
118.1229675642
 30
0.0
  0
SPLINE
  5
303
100
AcDbEntity
  8
0
100
AcDbSpline
 62
7
  6
BYLAYER
 70
0
 71
3
 72
11
 73
7
 74
0
 42
0.0000001
 43
0.0000001
 44
0.0000000001
 40
0.0
 40
0.0
 40
0.0
 40
0.0
 40
0.2838153987
 40
0.5431037559
 40
0.7796640765
 40
1.0
 40
1.0
 40
1.0
 40
1.0
 10
53.0482320093
 20
50.7500384512
 30
0.0
 10
53.0445382676
 20
50.6412763493
 30
0.0
 10
53.0230008201
 20
50.4331667885
 30
0.0
 10
52.9414245117
 20
50.1437094583
 30
0.0
 10
52.8121363717
 20
49.8987951093
 30
0.0
 10
52.6923367907
 20
49.7675350638
 30
0.0
 10
52.626998464
 20
49.713976301
 30
0.0
  0
SPLINE
  5
304
100
AcDbEntity
  8
0
100
AcDbSpline
 62
7
  6
BYLAYER
 70
0
 71
3
 72
18
 73
14
 74
0
 42
0.0000001
 43
0.0000001
 44
0.0000000001
 40
0.0
 40
0.0
 40
0.0
 40
0.0
 40
0.0428468662
 40
0.0874646884
 40
0.1352866292
 40
0.1872364664
 40
0.2437289536
 40
0.3047354086
 40
0.4383687386
 40
0.5826747644
 40
0.7297915008
 40
0.8713415111
 40
1.0
 40
1.0
 40
1.0
 40
1.0
 10
75.6099292813
 20
170.9207325978
 30
0.0
 10
75.7578464138
 20
171.0061305862
 30
0.0
 10
76.0839004502
 20
171.1416757268
 30
0.0
 10
76.6221545014
 20
171.2205651206
 30
0.0
 10
77.2001480611
 20
171.1779768571
 30
0.0
 10
77.8050643493
 20
171.0173110915
 30
0.0
 10
78.4250500786
 20
170.7433207168
 30
0.0
 10
79.2808901194
 20
170.2194558606
 30
0.0
 10
80.3004592853
 20
169.3165097425
 30
0.0
 10
81.3482303949
 20
167.9751004251
 30
0.0
 10
82.1735900975
 20
166.4496612055
 30
0.0
 10
82.7090659875
 20
164.8663937733
 30
0.0
 10
82.8525536483
 20
163.7880304013
 30
0.0
 10
82.8525536483
 20
163.2751634937
 30
0.0
  0
SPLINE
  5
305
100
AcDbEntity
  8
0
100
AcDbSpline
 62
7
  6
BYLAYER
 70
0
 71
3
 72
11
 73
7
 74
0
 42
0.0000001
 43
0.0000001
 44
0.0000000001
 40
0.0
 40
0.0
 40
0.0
 40
0.0
 40
0.282634474
 40
0.5394036608
 40
0.7755535633
 40
1.0
 40
1.0
 40
1.0
 40
1.0
 10
66.9723784401
 20
70.1698391829
 30
0.0
 10
67.2395691095
 20
70.2872071537
 30
0.0
 10
67.7683991792
 20
70.4725082714
 30
0.0
 10
68.5674340662
 20
70.5852552339
 30
0.0
 10
69.3125352599
 20
70.5124172181
 30
0.0
 10
69.7620272825
 20
70.3347881118
 30
0.0
 10
69.9627432187
 20
70.218937029
 30
0.0
  0
SPLINE
  5
306
100
AcDbEntity
  8
0
100
AcDbSpline
 62
7
  6
BYLAYER
 70
0
 71
3
 72
11
 73
7
 74
0
 42
0.0000001
 43
0.0000001
 44
0.0000000001
 40
0.0
 40
0.0
 40
0.0
 40
0.0
 40
0.2114851069
 40
0.4448316696
 40
0.7073181094
 40
1.0
 40
1.0
 40
1.0
 40
1.0
 10
50.0465570675
 20
54.1999335907
 30
0.0
 10
50.1470429717
 20
54.2367076889
 30
0.0
 10
50.3737803765
 20
54.2752133819
 30
0.0
 10
50.7323099192
 20
54.2255661711
 30
0.0
 10
51.106307695
 20
54.0785611412
 30
0.0
 10
51.3452008002
 20
53.9278724243
 30
0.0
 10
51.4643080085
 20
53.8398784189
 30
0.0
  0
SPLINE
  5
307
100
AcDbEntity
  8
0
100
AcDbSpline
 62
7
  6
BYLAYER
 70
0
 71
3
 72
9
 73
5
 74
0
 42
0.0000001
 43
0.0000001
 44
0.0000000001
 40
0.0
 40
0.0
 40
0.0
 40
0.0
 40
0.2433399789
 40
1.0
 40
1.0
 40
1.0
 40
1.0
 10
51.6021710625
 20
53.7317866819
 30
0.0
 10
51.6371263892
 20
53.7027798008
 30
0.0
 10
51.7782752818
 20
53.5805823525
 30
0.0
 10
51.9095661529
 20
53.4471148518
 30
0.0
 10
52.003172849
 20
53.3413449827
 30
0.0
  0
SPLINE
  5
308
100
AcDbEntity
  8
0
100
AcDbSpline
 62
7
  6
BYLAYER
 70
0
 71
3
 72
11
 73
7
 74
0
 42
0.0000001
 43
0.0000001
 44
0.0000000001
 40
0.0
 40
0.0
 40
0.0
 40
0.0
 40
0.2548802316
 40
0.5135284572
 40
0.7650784736
 40
1.0
 40
1.0
 40
1.0
 40
1.0
 10
52.003172849
 20
53.3413449827
 30
0.0
 10
52.1453376995
 20
53.1807073548
 30
0.0
 10
52.4064579747
 20
52.8339292864
 30
0.0
 10
52.7170949772
 20
52.2674822015
 30
0.0
 10
52.9365682126
 20
51.6776630444
 30
0.0
 10
53.0169388748
 20
51.2736651186
 30
0.0
 10
53.0362731888
 20
51.0768985828
 30
0.0
  0
SPLINE
  5
309
100
AcDbEntity
  8
0
100
AcDbSpline
 62
7
  6
BYLAYER
 70
0
 71
3
 72
13
 73
9
 74
0
 42
0.0000001
 43
0.0000001
 44
0.0000000001
 40
0.0
 40
0.0
 40
0.0
 40
0.0
 40
0.0918763929
 40
0.1915357376
 40
0.3018445712
 40
0.4237741617
 40
0.6983572802
 40
1.0
 40
1.0
 40
1.0
 40
1.0
 10
35.0197068716
 20
121.49965196
 30
0.0
 10
35.106888196
 20
121.5316451202
 30
0.0
 10
35.3000911692
 20
121.5695136769
 30
0.0
 10
35.6071013506
 20
121.545073853
 30
0.0
 10
35.9297086302
 20
121.4450920799
 30
0.0
 10
36.3857489038
 20
121.2070219375
 30
0.0
 10
36.9284992584
 20
120.7426408021
 30
0.0
 10
37.2805722056
 20
120.2732105121
 30
0.0
 10
37.4388435264
 20
120.0126155853
 30
0.0
  0
SPLINE
  5
30A
100
AcDbEntity
  8
0
100
AcDbSpline
 62
7
  6
BYLAYER
 70
0
 71
3
 72
11
 73
7
 74
0
 42
0.0000001
 43
0.0000001
 44
0.0000000001
 40
0.0
 40
0.0
 40
0.0
 40
0.0
 40
0.2114851069
 40
0.4448316696
 40
0.7073181094
 40
1.0
 40
1.0
 40
1.0
 40
1.0
 10
19.9943937488
 20
71.5501656578
 30
0.0
 10
20.0948796529
 20
71.586939756
 30
0.0
 10
20.3216170577
 20
71.625445449
 30
0.0
 10
20.6801466004
 20
71.5757982382
 30
0.0
 10
21.0541443763
 20
71.4287932083
 30
0.0
 10
21.2930374815
 20
71.2781044915
 30
0.0
 10
21.4121446897
 20
71.190110486
 30
0.0
  0
SPLINE
  5
30B
100
AcDbEntity
  8
0
100
AcDbSpline
 62
7
  6
BYLAYER
 70
0
 71
3
 72
9
 73
5
 74
0
 42
0.0000001
 43
0.0000001
 44
0.0000000001
 40
0.0
 40
0.0
 40
0.0
 40
0.0
 40
0.2433399789
 40
1.0
 40
1.0
 40
1.0
 40
1.0
 10
21.5500077437
 20
71.082018749
 30
0.0
 10
21.5849630704
 20
71.0530118679
 30
0.0
 10
21.726111963
 20
70.9308144197
 30
0.0
 10
21.8574028341
 20
70.7973469189
 30
0.0
 10
21.9510095303
 20
70.6915770498
 30
0.0
  0
SPLINE
  5
30C
100
AcDbEntity
  8
0
100
AcDbSpline
 62
7
  6
BYLAYER
 70
0
 71
3
 72
11
 73
7
 74
0
 42
0.0000001
 43
0.0000001
 44
0.0000000001
 40
0.0
 40
0.0
 40
0.0
 40
0.0
 40
0.2548802316
 40
0.5135284572
 40
0.7650784736
 40
1.0
 40
1.0
 40
1.0
 40
1.0
 10
21.9510095303
 20
70.6915770498
 30
0.0
 10
22.0931743808
 20
70.5309394219
 30
0.0
 10
22.354294656
 20
70.1841613535
 30
0.0
 10
22.6649316585
 20
69.6177142686
 30
0.0
 10
22.8844048939
 20
69.0278951115
 30
0.0
 10
22.9647755561
 20
68.6238971857
 30
0.0
 10
22.98410987
 20
68.4271306499
 30
0.0
  0
SPLINE
  5
30D
100
AcDbEntity
  8
0
100
AcDbSpline
 62
7
  6
BYLAYER
 70
0
 71
3
 72
11
 73
7
 74
0
 42
0.0000001
 43
0.0000001
 44
0.0000000001
 40
0.0
 40
0.0
 40
0.0
 40
0.0
 40
0.2242521616
 40
0.4603184852
 40
0.7172211228
 40
1.0
 40
1.0
 40
1.0
 40
1.0
 10
62.7747575044
 20
57.7686989146
 30
0.0
 10
62.5728763393
 20
57.885222555
 30
0.0
 10
62.192272715
 20
58.1879993487
 30
0.0
 10
61.7551391827
 20
58.801805493
 30
0.0
 10
61.453636883
 20
59.5563880949
 30
0.0
 10
61.3508685316
 20
60.1113399613
 30
0.0
 10
61.3197444833
 20
60.4036183538
 30
0.0
  0
SPLINE
  5
30E
100
AcDbEntity
  8
0
100
AcDbSpline
 62
7
  6
BYLAYER
 70
0
 71
3
 72
15
 73
11
 74
0
 42
0.0000001
 43
0.0000001
 44
0.0000000001
 40
0.0
 40
0.0
 40
0.0
 40
0.0
 40
0.11415277
 40
0.2373224585
 40
0.3669712759
 40
0.4999936133
 40
0.6330176716
 40
0.7626670726
 40
0.8858481117
 40
1.0
 40
1.0
 40
1.0
 40
1.0
 10
61.2860465184
 20
60.3963942081
 30
0.0
 10
61.2860425122
 20
60.8435520987
 30
0.0
 10
61.3679377433
 20
61.7740575455
 30
0.0
 10
61.6944238399
 20
63.1778385383
 30
0.0
 10
62.2174585594
 20
64.5997617845
 30
0.0
 10
62.9174722767
 20
65.9863768714
 30
0.0
 10
63.7682848354
 20
67.2859303446
 30
0.0
 10
64.7381698289
 20
68.4499409713
 30
0.0
 10
65.7906747453
 20
69.4346011201
 30
0.0
 10
66.5555873899
 20
69.9708206287
 30
0.0
 10
66.9428350697
 20
70.1943968462
 30
0.0
  0
SPLINE
  5
30F
100
AcDbEntity
  8
0
100
AcDbSpline
 62
7
  6
BYLAYER
 70
0
 71
3
 72
17
 73
13
 74
0
 42
0.0000001
 43
0.0000001
 44
0.0000000001
 40
0.0
 40
0.0
 40
0.0
 40
0.0
 40
0.0428571351
 40
0.0874839364
 40
0.1353160071
 40
0.1872791416
 40
0.3045400115
 40
0.4382081091
 40
0.5825513186
 40
0.7297108723
 40
0.8713103985
 40
1.0
 40
1.0
 40
1.0
 40
1.0
 10
66.354719292
 20
157.764069199
 30
0.0
 10
66.3547421629
 20
157.8210004738
 30
0.0
 10
66.3394983292
 20
157.9377099528
 30
0.0
 10
66.272584496
 20
158.1062294191
 30
0.0
 10
66.1639535115
 20
158.2659840131
 30
0.0
 10
65.9595093164
 20
158.4712041194
 30
0.0
 10
65.6111004544
 20
158.6832841378
 30
0.0
 10
65.1101574269
 20
158.8506208136
 30
0.0
 10
64.5479775977
 20
158.929624704
 30
0.0
 10
63.9701324127
 20
158.9136393169
 30
0.0
 10
63.4238004104
 20
158.8043333475
 30
0.0
 10
63.0885836164
 20
158.666025686
 30
0.0
 10
62.940535617
 20
158.5805506439
 30
0.0
  0
SPLINE
  5
310
100
AcDbEntity
  8
0
100
AcDbSpline
 62
7
  6
BYLAYER
 70
0
 71
3
 72
11
 73
7
 74
0
 42
0.0000001
 43
0.0000001
 44
0.0000000001
 40
0.0
 40
0.0
 40
0.0
 40
0.0
 40
0.2896428702
 40
0.5491125874
 40
0.7822368
 40
1.0
 40
1.0
 40
1.0
 40
1.0
 10
45.3759300444
 20
168.7212509862
 30
0.0
 10
45.2881917484
 20
168.6705955598
 30
0.0
 10
45.128992535
 20
168.5609011456
 30
0.0
 10
44.9386786416
 20
168.3609585483
 30
0.0
 10
44.8182531243
 20
168.1397159837
 30
0.0
 10
44.7902158693
 20
167.9809386366
 30
0.0
 10
44.79018527
 20
167.9047694131
 30
0.0
  0
SPLINE
  5
311
100
AcDbEntity
  8
0
100
AcDbSpline
 62
7
  6
BYLAYER
 70
0
 71
3
 72
11
 73
7
 74
0
 42
0.0000001
 43
0.0000001
 44
0.0000000001
 40
0.0
 40
0.0
 40
0.0
 40
0.0
 40
0.2599720169
 40
0.5221470549
 40
0.771511589
 40
1.0
 40
1.0
 40
1.0
 40
1.0
 10
74.321236044
 20
167.5238754171
 30
0.0
 10
74.4741747741
 20
167.5878215634
 30
0.0
 10
74.7896968037
 20
167.6973275686
 30
0.0
 10
75.2748333111
 20
167.7914741135
 30
0.0
 10
75.7505965021
 20
167.7894704748
 30
0.0
 10
76.0492314111
 20
167.7014877868
 30
0.0
 10
76.1785147732
 20
167.6343127857
 30
0.0
  0
SPLINE
  5
312
100
AcDbEntity
  8
0
100
AcDbSpline
 62
7
  6
BYLAYER
 70
0
 71
3
 72
9
 73
5
 74
0
 42
0.0000001
 43
0.0000001
 44
0.0000000001
 40
0.0
 40
0.0
 40
0.0
 40
0.0
 40
0.2388487723
 40
1.0
 40
1.0
 40
1.0
 40
1.0
 10
73.6601684369
 20
167.7659134465
 30
0.0
 10
73.6797647511
 20
167.7545997652
 30
0.0
 10
73.7626742467
 20
167.708734889
 30
0.0
 10
73.8486383786
 20
167.6684860494
 30
0.0
 10
73.9151119852
 20
167.6405403515
 30
0.0
  0
SPLINE
  5
313
100
AcDbEntity
  8
0
100
AcDbSpline
 62
7
  6
BYLAYER
 70
0
 71
3
 72
10
 73
6
 74
0
 42
0.0000001
 43
0.0000001
 44
0.0000000001
 40
0.0
 40
0.0
 40
0.0
 40
0.0
 40
0.2568041234
 40
0.520927382
 40
1.0
 40
1.0
 40
1.0
 40
1.0
 10
73.9151119852
 20
167.6405403515
 30
0.0
 10
74.1020154227
 20
167.5619656017
 30
0.0
 10
74.4998842537
 20
167.4442187374
 30
0.0
 10
75.2831952892
 20
167.3508543036
 30
0.0
 10
75.8931086937
 20
167.4473097842
 30
0.0
 10
76.2300093095
 20
167.6192293934
 30
0.0
  0
SPLINE
  5
314
100
AcDbEntity
  8
0
100
AcDbSpline
 62
7
  6
BYLAYER
 70
0
 71
3
 72
12
 73
8
 74
0
 42
0.0000001
 43
0.0000001
 44
0.0000000001
 40
0.0
 40
0.0
 40
0.0
 40
0.0
 40
0.2895543751
 40
0.5486508264
 40
0.7816328335
 40
0.8918400056
 40
1.0
 40
1.0
 40
1.0
 40
1.0
 10
82.8525536483
 20
163.2751634937
 30
0.0
 10
82.8525536483
 20
162.9710773975
 30
0.0
 10
82.8064240671
 20
162.3928442684
 30
0.0
 10
82.5727267972
 20
161.5987938412
 30
0.0
 10
82.2365978474
 20
161.0510381113
 30
0.0
 10
81.8974076076
 20
160.7172355188
 30
0.0
 10
81.7082321292
 20
160.5852765254
 30
0.0
 10
81.6098613136
 20
160.5284834438
 30
0.0
  0
SPLINE
  5
315
100
AcDbEntity
  8
0
100
AcDbSpline
 62
7
  6
BYLAYER
 70
0
 71
3
 72
9
 73
5
 74
0
 42
0.0000001
 43
0.0000001
 44
0.0000000001
 40
0.0
 40
0.0
 40
0.0
 40
0.0
 40
0.234692618
 40
1.0
 40
1.0
 40
1.0
 40
1.0
 10
27.7142230473
 20
121.4980603844
 30
0.0
 10
28.0728618576
 20
121.4896630319
 30
0.0
 10
29.5990324355
 20
121.3705069824
 30
0.0
 10
31.0910748272
 20
120.9395805009
 30
0.0
 10
32.1745585166
 20
120.4985562087
 30
0.0
  0
SPLINE
  5
316
100
AcDbEntity
  8
0
100
AcDbSpline
 62
7
  6
BYLAYER
 70
0
 71
3
 72
9
 73
5
 74
0
 42
0.0000001
 43
0.0000001
 44
0.0000000001
 40
0.0
 40
0.0
 40
0.0
 40
0.0
 40
0.4896960303
 40
1.0
 40
1.0
 40
1.0
 40
1.0
 10
21.7015721941
 20
120.6793039295
 30
0.0
 10
22.6503605915
 20
120.9746865879
 30
0.0
 10
24.6437284029
 20
121.4087801775
 30
0.0
 10
26.6788682972
 20
121.5167589349
 30
0.0
 10
27.7142230473
 20
121.4980603844
 30
0.0
  0
SPLINE
  5
317
100
AcDbEntity
  8
0
100
AcDbSpline
 62
7
  6
BYLAYER
 70
0
 71
3
 72
23
 73
19
 74
0
 42
0.0000001
 43
0.0000001
 44
0.0000000001
 40
0.0
 40
0.0
 40
0.0
 40
0.0
 40
0.0603767888
 40
0.1143942281
 40
0.1629749355
 40
0.2083468746
 40
0.2537191505
 40
0.3023022997
 40
0.3563169723
 40
0.4166960466
 40
0.4832818946
 40
0.5551273113
 40
0.6307519948
 40
0.7083444372
 40
0.785937864
 40
0.8615628313
 40
0.9334147798
 40
1.0
 40
1.0
 40
1.0
 40
1.0
 10
66.9428350697
 20
70.1943968462
 30
0.0
 10
67.29397474
 20
70.3971262193
 30
0.0
 10
67.9922445973
 20
70.729474106
 30
0.0
 10
69.0654358363
 20
70.9885017269
 30
0.0
 10
70.0731000404
 20
70.9628231025
 30
0.0
 10
70.9699528489
 20
70.6376174552
 30
0.0
 10
71.700022157
 20
70.0234798738
 30
0.0
 10
72.2260277101
 20
69.1636801674
 30
0.0
 10
72.5383258897
 20
68.1044862404
 30
0.0
 10
72.6353218654
 20
66.8860623265
 30
0.0
 10
72.5177361368
 20
65.55096836
 30
0.0
 10
72.1912377266
 20
64.1468099239
 30
0.0
 10
71.6682046381
 20
62.7250004285
 30
0.0
 10
70.9681899938
 20
61.3383585262
 30
0.0
 10
70.1173785252
 20
60.0388173961
 30
0.0
 10
69.1474951679
 20
58.8748083771
 30
0.0
 10
68.0949925358
 20
57.8901518788
 30
0.0
 10
67.3300817707
 20
57.3539338247
 30
0.0
 10
66.9428350697
 20
57.1303581722
 30
0.0
  0
SPLINE
  5
318
100
AcDbEntity
  8
0
100
AcDbSpline
 62
7
  6
BYLAYER
 70
0
 71
3
 72
15
 73
11
 74
0
 42
0.0000001
 43
0.0000001
 44
0.0000000001
 40
0.0
 40
0.0
 40
0.0
 40
0.0
 40
0.1448941715
 40
0.2745270077
 40
0.3911126125
 40
0.499997681
 40
0.6088834783
 40
0.7254747318
 40
0.8551006433
 40
1.0
 40
1.0
 40
1.0
 40
1.0
 10
66.9428350697
 20
57.1303581722
 30
0.0
 10
66.5916962039
 20
56.9276292636
 30
0.0
 10
65.8934279319
 20
56.5952818909
 30
0.0
 10
64.820239182
 20
56.3362543506
 30
0.0
 10
63.8125770123
 20
56.3619300372
 30
0.0
 10
62.9157254953
 20
56.6871362806
 30
0.0
 10
62.1856556064
 20
57.3012542896
 30
0.0
 10
61.6596501281
 20
58.1611108832
 30
0.0
 10
61.3473422019
 20
59.2200283152
 30
0.0
 10
61.2860501512
 20
59.9909200661
 30
0.0
 10
61.2860465184
 20
60.3963942081
 30
0.0
  0
SPLINE
  5
319
100
AcDbEntity
  8
0
100
AcDbSpline
 62
7
  6
BYLAYER
 70
0
 71
3
 72
11
 73
7
 74
0
 42
0.0000001
 43
0.0000001
 44
0.0000000001
 40
0.0
 40
0.0
 40
0.0
 40
0.0
 40
0.2896413964
 40
0.5491107671
 40
0.7822355978
 40
1.0
 40
1.0
 40
1.0
 40
1.0
 10
34.4158907517
 20
142.2505606748
 30
0.0
 10
34.4158907517
 20
142.3772037145
 30
0.0
 10
34.4351405406
 20
142.6181087523
 30
0.0
 10
34.5326439773
 20
142.9491045316
 30
0.0
 10
34.6968881532
 20
143.2177546768
 30
0.0
 10
34.851253067
 20
143.347346195
 30
0.0
 10
34.9336930858
 20
143.3949868473
 30
0.0
  0
SPLINE
  5
31A
100
AcDbEntity
  8
0
100
AcDbSpline
 62
7
  6
BYLAYER
 70
0
 71
3
 72
12
 73
8
 74
0
 42
0.0000001
 43
0.0000001
 44
0.0000000001
 40
0.0
 40
0.0
 40
0.0
 40
0.0
 40
0.289568497
 40
0.5486375543
 40
0.781632668
 40
0.891836758
 40
1.0
 40
1.0
 40
1.0
 40
1.0
 10
66.3687503616
 20
58.1246965347
 30
0.0
 10
66.0532508046
 20
57.9425438678
 30
0.0
 10
65.4257369425
 20
57.6440124822
 30
0.0
 10
64.4619425055
 20
57.4109304623
 30
0.0
 10
63.6923179969
 20
57.4314049701
 30
0.0
 10
63.1428538591
 20
57.5835039243
 30
0.0
 10
62.8926148799
 20
57.7006729032
 30
0.0
 10
62.7747575044
 20
57.7686989146
 30
0.0
  0
SPLINE
  5
31B
100
AcDbEntity
  8
0
100
AcDbSpline
 62
7
  6
BYLAYER
 70
0
 71
3
 72
9
 73
5
 74
0
 42
0.0000001
 43
0.0000001
 44
0.0000000001
 40
0.0
 40
0.0
 40
0.0
 40
0.0
 40
0.4996729905
 40
1.0
 40
1.0
 40
1.0
 40
1.0
 10
61.9989851405
 20
63.6425812136
 30
0.0
 10
62.5483448165
 20
64.2521449709
 30
0.0
 10
63.5154650624
 20
65.5951193443
 30
0.0
 10
64.2045725343
 20
67.099703755
 30
0.0
 10
64.4635740235
 20
67.8794768852
 30
0.0
  0
SPLINE
  5
31C
100
AcDbEntity
  8
0
100
AcDbSpline
 62
7
  6
BYLAYER
 70
0
 71
3
 72
17
 73
13
 74
0
 42
0.0000001
 43
0.0000001
 44
0.0000000001
 40
0.0
 40
0.0
 40
0.0
 40
0.0
 40
0.042857965
 40
0.0874854797
 40
0.1353180708
 40
0.1872814984
 40
0.3045423159
 40
0.4382097446
 40
0.5825520305
 40
0.7297107839
 40
0.8713099826
 40
1.0
 40
1.0
 40
1.0
 40
1.0
 10
37.4336370434
 20
139.0649307296
 30
0.0
 10
37.3720201186
 20
139.0293233809
 30
0.0
 10
37.2361487499
 20
138.9728807179
 30
0.0
 10
37.0118968146
 20
138.9399899198
 30
0.0
 10
36.771060213
 20
138.9577369579
 30
0.0
 10
36.4211226635
 20
139.0507871693
 30
0.0
 10
35.9737808796
 20
139.2953946581
 30
0.0
 10
35.4795418954
 20
139.7330898443
 30
0.0
 10
35.0426545357
 20
140.2922847888
 30
0.0
 10
34.6988063929
 20
140.9278081886
 30
0.0
 10
34.4756772898
 20
141.5875457074
 30
0.0
 10
34.4158907517
 20
142.0368713471
 30
0.0
 10
34.4158907517
 20
142.2505606748
 30
0.0
  0
SPLINE
  5
31D
100
AcDbEntity
  8
0
100
AcDbSpline
 62
7
  6
BYLAYER
 70
0
 71
3
 72
11
 73
7
 74
0
 42
0.0000001
 43
0.0000001
 44
0.0000000001
 40
0.0
 40
0.0
 40
0.0
 40
0.0
 40
0.2398040873
 40
0.5026001501
 40
0.7639639938
 40
1.0
 40
1.0
 40
1.0
 40
1.0
 10
32.1732920839
 20
121.7866642107
 30
0.0
 10
32.0109588197
 20
121.8884341052
 30
0.0
 10
31.7056063829
 20
122.1581425714
 30
0.0
 10
31.349917325
 20
122.6594849286
 30
0.0
 10
31.1082041209
 20
123.221374158
 30
0.0
 10
31.0394100193
 20
123.619081998
 30
0.0
 10
31.0394100193
 20
123.8076678626
 30
0.0
  0
SPLINE
  5
31E
100
AcDbEntity
  8
0
100
AcDbSpline
 62
7
  6
BYLAYER
 70
0
 71
3
 72
9
 73
5
 74
0
 42
0.0000001
 43
0.0000001
 44
0.0000000001
 40
0.0
 40
0.0
 40
0.0
 40
0.0
 40
0.4745473222
 40
1.0
 40
1.0
 40
1.0
 40
1.0
 10
65.7689745176
 20
155.3145827916
 30
0.0
 10
65.5760495193
 20
155.2031981568
 30
0.0
 10
65.1291237109
 20
155.0379631752
 30
0.0
 10
64.6593352826
 20
154.9810446766
 30
0.0
 10
64.4127030845
 20
154.9768926327
 30
0.0
  0
SPLINE
  5
31F
100
AcDbEntity
  8
0
100
AcDbSpline
 62
7
  6
BYLAYER
 70
0
 71
3
 72
11
 73
7
 74
0
 42
0.0000001
 43
0.0000001
 44
0.0000000001
 40
0.0
 40
0.0
 40
0.0
 40
0.0
 40
0.220438283
 40
0.4569543459
 40
0.7161445565
 40
1.0
 40
1.0
 40
1.0
 40
1.0
 10
49.9339262052
 20
54.1364670895
 30
0.0
 10
49.869013887
 20
54.0832594934
 30
0.0
 10
49.7498964771
 20
53.9530789925
 30
0.0
 10
49.6208972811
 20
53.7102289308
 30
0.0
 10
49.539272137
 20
53.4229943972
 30
0.0
 10
49.5177109533
 20
53.2163600409
 30
0.0
 10
49.5140425357
 20
53.1083436078
 30
0.0
  0
SPLINE
  5
320
100
AcDbEntity
  8
0
100
AcDbSpline
 62
7
  6
BYLAYER
 70
0
 71
3
 72
17
 73
13
 74
0
 42
0.0000001
 43
0.0000001
 44
0.0000000001
 40
0.0
 40
0.0
 40
0.0
 40
0.0
 40
0.0428311829
 40
0.0873810832
 40
0.1350499951
 40
0.1867615742
 40
0.303309247
 40
0.4361901275
 40
0.5799916953
 40
0.7271654609
 40
0.8695566323
 40
1.0
 40
1.0
 40
1.0
 40
1.0
 10
52.5097183198
 20
49.6327733074
 30
0.0
 10
52.4465654764
 20
49.5962927347
 30
0.0
 10
52.3075753884
 20
49.5382019268
 30
0.0
 10
52.0782898599
 20
49.5033711276
 30
0.0
 10
51.8320611344
 20
49.5195829409
 30
0.0
 10
51.4742709398
 20
49.6113620802
 30
0.0
 10
51.0157634747
 20
49.8561341395
 30
0.0
 10
50.5069234925
 20
50.2973532487
 30
0.0
 10
50.0538636466
 20
50.8638580925
 30
0.0
 10
49.6924475937
 20
51.5111168854
 30
0.0
 10
49.4512242898
 20
52.1878548625
 30
0.0
 10
49.3785163725
 20
52.6508923888
 30
0.0
 10
49.3712614386
 20
52.8728907598
 30
0.0
  0
SPLINE
  5
321
100
AcDbEntity
  8
0
100
AcDbSpline
 62
7
  6
BYLAYER
 70
0
 71
3
 72
9
 73
5
 74
0
 42
0.0000001
 43
0.0000001
 44
0.0000000001
 40
0.0
 40
0.0
 40
0.0
 40
0.0
 40
0.2471980664
 40
1.0
 40
1.0
 40
1.0
 40
1.0
 10
34.9362414852
 20
121.4587799928
 30
0.0
 10
34.9227704808
 20
121.4486230668
 30
0.0
 10
34.8694568117
 20
121.4059842594
 30
0.0
 10
34.8210662734
 20
121.3572461402
 30
0.0
 10
34.7878867308
 20
121.3180184397
 30
0.0
  0
SPLINE
  5
322
100
AcDbEntity
  8
0
100
AcDbSpline
 62
7
  6
BYLAYER
 70
0
 71
3
 72
10
 73
6
 74
0
 42
0.0000001
 43
0.0000001
 44
0.0000000001
 40
0.0
 40
0.0
 40
0.0
 40
0.0
 40
0.458482681
 40
0.7186324824
 40
1.0
 40
1.0
 40
1.0
 40
1.0
 10
34.7878867308
 20
121.3180184397
 30
0.0
 10
34.6839984783
 20
121.195192839
 30
0.0
 10
34.5692609094
 20
120.96055651
 30
0.0
 10
34.4982987558
 20
120.6167066362
 30
0.0
 10
34.4866005467
 20
120.426192583
 30
0.0
 10
34.4866005467
 20
120.3274683185
 30
0.0
  0
SPLINE
  5
323
100
AcDbEntity
  8
0
100
AcDbSpline
 62
7
  6
BYLAYER
 70
0
 71
3
 72
14
 73
10
 74
0
 42
0.0000001
 43
0.0000001
 44
0.0000000001
 40
0.0
 40
0.0
 40
0.0
 40
0.0
 40
0.0914853086
 40
0.1890602939
 40
0.297051145
 40
0.4174041898
 40
0.5500064761
 40
0.6932436158
 40
1.0
 40
1.0
 40
1.0
 40
1.0
 10
37.4836351809
 20
116.9327653975
 30
0.0
 10
37.400693538
 20
116.8848342443
 30
0.0
 10
37.2110879927
 20
116.8147589478
 30
0.0
 10
36.8962616937
 20
116.8019927897
 30
0.0
 10
36.5600240071
 20
116.8761651927
 30
0.0
 10
36.2134075005
 20
117.0319870606
 30
0.0
 10
35.8669726934
 20
117.2632115145
 30
0.0
 10
35.4108466881
 20
117.6703415898
 30
0.0
 10
35.1195744393
 20
118.0476330037
 30
0.0
 10
34.9503042075
 20
118.3206200031
 30
0.0
  0
SPLINE
  5
324
100
AcDbEntity
  8
0
100
AcDbSpline
 62
7
  6
BYLAYER
 70
0
 71
3
 72
11
 73
7
 74
0
 42
0.0000001
 43
0.0000001
 44
0.0000000001
 40
0.0
 40
0.0
 40
0.0
 40
0.0
 40
0.2896428702
 40
0.5491125874
 40
0.7822368
 40
1.0
 40
1.0
 40
1.0
 40
1.0
 10
65.7689745176
 20
156.9475876259
 30
0.0
 10
65.8567128136
 20
156.9982430523
 30
0.0
 10
66.015912027
 20
157.1079374665
 30
0.0
 10
66.2062259204
 20
157.3078800638
 30
0.0
 10
66.3266514377
 20
157.5291226284
 30
0.0
 10
66.3546886927
 20
157.6878999755
 30
0.0
 10
66.354719292
 20
157.764069199
 30
0.0
  0
SPLINE
  5
325
100
AcDbEntity
  8
0
100
AcDbSpline
 62
7
  6
BYLAYER
 70
0
 71
3
 72
11
 73
7
 74
0
 42
0.0000001
 43
0.0000001
 44
0.0000000001
 40
0.0
 40
0.0
 40
0.0
 40
0.0
 40
0.220438283
 40
0.4569543459
 40
0.7161445565
 40
1.0
 40
1.0
 40
1.0
 40
1.0
 10
19.8817628864
 20
71.4866991566
 30
0.0
 10
19.8168505683
 20
71.4334915605
 30
0.0
 10
19.6977331583
 20
71.3033110596
 30
0.0
 10
19.5687339623
 20
71.0604609979
 30
0.0
 10
19.4871088182
 20
70.7732264643
 30
0.0
 10
19.4655476345
 20
70.566592108
 30
0.0
 10
19.4618792169
 20
70.458575675
 30
0.0
  0
SPLINE
  5
326
100
AcDbEntity
  8
0
100
AcDbSpline
 62
7
  6
BYLAYER
 70
0
 71
3
 72
17
 73
13
 74
0
 42
0.0000001
 43
0.0000001
 44
0.0000000001
 40
0.0
 40
0.0
 40
0.0
 40
0.0
 40
0.0428311829
 40
0.0873810832
 40
0.1350499951
 40
0.1867615742
 40
0.303309247
 40
0.4361901275
 40
0.5799916953
 40
0.7271654609
 40
0.8695566323
 40
1.0
 40
1.0
 40
1.0
 40
1.0
 10
22.457555001
 20
66.9830053745
 30
0.0
 10
22.3944021576
 20
66.9465248019
 30
0.0
 10
22.2554120696
 20
66.8884339939
 30
0.0
 10
22.0261265412
 20
66.8536031947
 30
0.0
 10
21.7798978157
 20
66.869815008
 30
0.0
 10
21.422107621
 20
66.9615941473
 30
0.0
 10
20.963600156
 20
67.2063662066
 30
0.0
 10
20.4547601737
 20
67.6475853158
 30
0.0
 10
20.0017003279
 20
68.2140901596
 30
0.0
 10
19.6402842749
 20
68.8613489525
 30
0.0
 10
19.3990609711
 20
69.5380869296
 30
0.0
 10
19.3263530537
 20
70.0011244559
 30
0.0
 10
19.3190981198
 20
70.2231228269
 30
0.0
  0
SPLINE
  5
327
100
AcDbEntity
  8
0
100
AcDbSpline
 62
7
  6
BYLAYER
 70
0
 71
3
 72
17
 73
13
 74
0
 42
0.0000001
 43
0.0000001
 44
0.0000000001
 40
0.0
 40
0.0
 40
0.0
 40
0.0
 40
0.1283776732
 40
0.2683184696
 40
0.413322099
 40
0.5560759428
 40
0.6896205913
 40
0.8085951172
 40
0.8618928799
 40
0.9111171843
 40
0.9568170124
 40
1.0
 40
1.0
 40
1.0
 40
1.0
 10
19.4618792169
 20
70.2952751915
 30
0.0
 10
19.4687966497
 20
70.0836042345
 30
0.0
 10
19.5365199344
 20
69.642415388
 30
0.0
 10
19.7602788893
 20
68.9952778801
 30
0.0
 10
20.0956955924
 20
68.3711445801
 30
0.0
 10
20.5185569462
 20
67.8156255994
 30
0.0
 10
20.9980897992
 20
67.3689070094
 30
0.0
 10
21.4337103459
 20
67.1038008032
 30
0.0
 10
21.7797931549
 20
66.9826950471
 30
0.0
 10
22.021774364
 20
66.9395792822
 30
0.0
 10
22.2510611512
 20
66.9425179921
 30
0.0
 10
22.3953058769
 20
66.976271118
 30
0.0
 10
22.4622039356
 20
67.0007580171
 30
0.0
  0
SPLINE
  5
328
100
AcDbEntity
  8
0
100
AcDbSpline
 62
7
  6
BYLAYER
 70
0
 71
3
 72
18
 73
14
 74
0
 42
0.0000001
 43
0.0000001
 44
0.0000000001
 40
0.0
 40
0.0
 40
0.0
 40
0.0
 40
0.0428485014
 40
0.0874657732
 40
0.1352873043
 40
0.1872390954
 40
0.2437306714
 40
0.3047371115
 40
0.4383735454
 40
0.5826822873
 40
0.7297994178
 40
0.871346985
 40
1.0
 40
1.0
 40
1.0
 40
1.0
 10
69.9627432187
 20
70.218937029
 30
0.0
 10
70.1399707485
 20
70.1166432021
 30
0.0
 10
70.4758635347
 20
69.8594651046
 30
0.0
 10
70.8801823767
 20
69.3483218663
 30
0.0
 10
71.1822712147
 20
68.7231312331
 30
0.0
 10
71.3778299783
 20
67.9992436077
 30
0.0
 10
71.4649848787
 20
67.1918742419
 30
0.0
 10
71.4341737686
 20
65.9900975193
 30
0.0
 10
71.1079980345
 20
64.3913722761
 30
0.0
 10
70.3438693661
 20
62.500740742
 30
0.0
 10
69.2556382766
 20
60.7306059769
 30
0.0
 10
67.933679408
 20
59.2267116511
 30
0.0
 10
66.9008413296
 20
58.4318975645
 30
0.0
 10
66.3687503616
 20
58.1246965347
 30
0.0
  0
SPLINE
  5
329
100
AcDbEntity
  8
0
100
AcDbSpline
 62
7
  6
BYLAYER
 70
0
 71
3
 72
9
 73
5
 74
0
 42
0.0000001
 43
0.0000001
 44
0.0000000001
 40
0.0
 40
0.0
 40
0.0
 40
0.0
 40
0.5527438466
 40
1.0
 40
1.0
 40
1.0
 40
1.0
 10
73.6601322324
 20
167.7659343492
 30
0.0
 10
73.5772545883
 20
167.8137851778
 30
0.0
 10
73.4330531616
 20
167.9112652599
 30
0.0
 10
73.3140039959
 20
168.0410584491
 30
0.0
 10
73.2734216902
 20
168.107008392
 30
0.0
  0
SPLINE
  5
32A
100
AcDbEntity
  8
0
100
AcDbSpline
 62
7
  6
BYLAYER
 70
0
 71
3
 72
14
 73
10
 74
0
 42
0.0000001
 43
0.0000001
 44
0.0000000001
 40
0.0
 40
0.0
 40
0.0
 40
0.0
 40
0.1092076111
 40
0.2094750459
 40
0.3101044752
 40
0.4189780507
 40
0.5408928952
 40
0.6782900931
 40
1.0
 40
1.0
 40
1.0
 40
1.0
 10
73.2734216902
 20
168.107008392
 30
0.0
 10
73.2492465997
 20
168.146295116
 30
0.0
 10
73.2113375173
 20
168.2277600875
 30
0.0
 10
73.1948896786
 20
168.3599920697
 30
0.0
 10
73.2215823944
 20
168.4901567142
 30
0.0
 10
73.2857752276
 20
168.6159423068
 30
0.0
 10
73.3827743353
 20
168.738454097
 30
0.0
 10
73.5622131906
 20
168.9067504766
 30
0.0
 10
73.7251494726
 20
169.0145355653
 30
0.0
 10
73.8428332353
 20
169.0824799117
 30
0.0
  0
SPLINE
  5
32B
100
AcDbEntity
  8
0
100
AcDbSpline
 62
7
  6
BYLAYER
 70
0
 71
3
 72
11
 73
7
 74
0
 42
0.0000001
 43
0.0000001
 44
0.0000000001
 40
0.0
 40
0.0
 40
0.0
 40
0.0
 40
0.2177843137
 40
0.4509117637
 40
0.7102976701
 40
1.0
 40
1.0
 40
1.0
 40
1.0
 10
31.6903095335
 20
117.1216589368
 30
0.0
 10
31.6130018857
 20
117.0770256461
 30
0.0
 10
31.4353755462
 20
117.0125635928
 30
0.0
 10
31.1403412233
 20
117.0050933806
 30
0.0
 10
30.8259037795
 20
117.0810244177
 30
0.0
 10
30.6213277002
 20
117.1783452269
 30
0.0
 10
30.5184906582
 20
117.2377168776
 30
0.0
  0
SPLINE
  5
32C
100
AcDbEntity
  8
0
100
AcDbSpline
 62
7
  6
BYLAYER
 70
0
 71
3
 72
9
 73
5
 74
0
 42
0.0000001
 43
0.0000001
 44
0.0000000001
 40
0.0
 40
0.0
 40
0.0
 40
0.0
 40
0.5254688731
 40
1.0
 40
1.0
 40
1.0
 40
1.0
 10
64.4064942272
 20
156.6098017846
 30
0.0
 10
64.6542210762
 20
156.6135269672
 30
0.0
 10
65.1261686159
 20
156.6700505636
 30
0.0
 10
65.5752113768
 20
156.8357190922
 30
0.0
 10
65.7689745176
 20
156.9475876259
 30
0.0
  0
SPLINE
  5
32D
100
AcDbEntity
  8
0
100
AcDbSpline
 62
7
  6
BYLAYER
 70
0
 71
3
 72
9
 73
5
 74
0
 42
0.0000001
 43
0.0000001
 44
0.0000000001
 40
0.0
 40
0.0
 40
0.0
 40
0.0
 40
0.2805440997
 40
1.0
 40
1.0
 40
1.0
 40
1.0
 10
45.3583819535
 20
117.561636066
 30
0.0
 10
45.3583819535
 20
117.6377172179
 30
0.0
 10
45.3731831112
 20
117.9075031273
 30
0.0
 10
45.4582364603
 20
118.18197726
 30
0.0
 10
45.5743343434
 20
118.3387870081
 30
0.0
  0
SPLINE
  5
32E
100
AcDbEntity
  8
0
100
AcDbSpline
 62
7
  6
BYLAYER
 70
0
 71
3
 72
11
 73
7
 74
0
 42
0.0000001
 43
0.0000001
 44
0.0000000001
 40
0.0
 40
0.0
 40
0.0
 40
0.0
 40
0.2177648073
 40
0.4508950352
 40
0.7103684932
 40
1.0
 40
1.0
 40
1.0
 40
1.0
 10
66.3547131437
 20
156.1310644356
 30
0.0
 10
66.3546828878
 20
156.0548947584
 30
0.0
 10
66.3266538212
 20
155.8961131972
 30
0.0
 10
66.2062191762
 20
155.6748698385
 30
0.0
 10
66.0159060171
 20
155.4749291914
 30
0.0
 10
65.8567092464
 20
155.3652361585
 30
0.0
 10
65.7689745176
 20
155.3145827916
 30
0.0
  0
SPLINE
  5
32F
100
AcDbEntity
  8
0
100
AcDbSpline
 62
7
  6
BYLAYER
 70
0
 71
3
 72
11
 73
7
 74
0
 42
0.0000001
 43
0.0000001
 44
0.0000000001
 40
0.0
 40
0.0
 40
0.0
 40
0.0
 40
0.2478637569
 40
0.5105061283
 40
0.7675472397
 40
1.0
 40
1.0
 40
1.0
 40
1.0
 10
46.5958239725
 20
115.1223835858
 30
0.0
 10
46.4140905935
 20
115.2670403042
 30
0.0
 10
46.0780974234
 20
115.6143219305
 30
0.0
 10
45.6892726315
 20
116.2245165262
 30
0.0
 10
45.4302550943
 20
116.8846382429
 30
0.0
 10
45.3583819535
 20
117.343800987
 30
0.0
 10
45.3583819535
 20
117.561636066
 30
0.0
  0
SPLINE
  5
330
100
AcDbEntity
  8
0
100
AcDbSpline
 62
7
  6
BYLAYER
 70
0
 71
3
 72
11
 73
7
 74
0
 42
0.0000001
 43
0.0000001
 44
0.0000000001
 40
0.0
 40
0.0
 40
0.0
 40
0.0
 40
0.2184187186
 40
0.4541654663
 40
0.7141229692
 40
1.0
 40
1.0
 40
1.0
 40
1.0
 10
34.9601447129
 20
143.3967087121
 30
0.0
 10
34.8942870745
 20
143.3423472369
 30
0.0
 10
34.7740810362
 20
143.2078988143
 30
0.0
 10
34.6477488333
 20
142.9560581008
 30
0.0
 10
34.5725012201
 20
142.6579018187
 30
0.0
 10
34.5573115192
 20
142.4439793393
 30
0.0
 10
34.5573115192
 20
142.3322095056
 30
0.0
  0
SPLINE
  5
331
100
AcDbEntity
  8
0
100
AcDbSpline
 62
7
  6
BYLAYER
 70
0
 71
3
 72
13
 73
9
 74
0
 42
0.0000001
 43
0.0000001
 44
0.0000000001
 40
0.0
 40
0.0
 40
0.0
 40
0.0
 40
0.3017180982
 40
0.576208647
 40
0.6980988065
 40
0.8083948418
 40
0.9080752736
 40
1.0
 40
1.0
 40
1.0
 40
1.0
 10
35.0760425261
 20
118.4294153704
 30
0.0
 10
35.2338100239
 20
118.1696499919
 30
0.0
 10
35.585397113
 20
117.7022729547
 30
0.0
 10
36.1271919155
 20
117.240683227
 30
0.0
 10
36.5819006127
 20
117.0042109819
 30
0.0
 10
36.9035143855
 20
116.9050582337
 30
0.0
 10
37.2095437033
 20
116.8810467478
 30
0.0
 10
37.4021187364
 20
116.9188846923
 30
0.0
 10
37.4890465042
 20
116.9507848918
 30
0.0
  0
SPLINE
  5
332
100
AcDbEntity
  8
0
100
AcDbSpline
 62
7
  6
BYLAYER
 70
0
 71
3
 72
11
 73
7
 74
0
 42
0.0000001
 43
0.0000001
 44
0.0000000001
 40
0.0
 40
0.0
 40
0.0
 40
0.0
 40
0.2177821605
 40
0.4509085882
 40
0.7102951949
 40
1.0
 40
1.0
 40
1.0
 40
1.0
 10
61.854767542
 20
158.6622217937
 30
0.0
 10
61.8547675687
 20
158.7574418025
 30
0.0
 10
61.8899556301
 20
158.9559102907
 30
0.0
 10
62.0404137989
 20
159.232440907
 30
0.0
 10
62.278267062
 20
159.4824138063
 30
0.0
 10
62.4772842235
 20
159.6194907364
 30
0.0
 10
62.5869807545
 20
159.6828236801
 30
0.0
  0
SPLINE
  5
333
100
AcDbEntity
  8
0
100
AcDbSpline
 62
7
  6
BYLAYER
 70
0
 71
3
 72
8
 73
4
 74
0
 42
0.0000001
 43
0.0000001
 44
0.0000000001
 40
0.0
 40
0.0
 40
0.0
 40
0.0
 40
1.0
 40
1.0
 40
1.0
 40
1.0
 10
46.8403181899
 20
120.2917960639
 30
0.0
 10
46.8441969502
 20
120.2895552498
 30
0.0
 10
46.8476576957
 20
120.2864503587
 30
0.0
 10
46.8503937634
 20
120.2829035344
 30
0.0
  0
SPLINE
  5
334
100
AcDbEntity
  8
0
100
AcDbSpline
 62
7
  6
BYLAYER
 70
0
 71
3
 72
9
 73
5
 74
0
 42
0.0000001
 43
0.0000001
 44
0.0000000001
 40
0.0
 40
0.0
 40
0.0
 40
0.0
 40
0.2245358223
 40
1.0
 40
1.0
 40
1.0
 40
1.0
 10
46.8503937634
 20
120.2829035344
 30
0.0
 10
46.8521678283
 20
120.2806037751
 30
0.0
 10
46.8588838738
 20
120.2694415977
 30
0.0
 10
46.8610213255
 20
120.2560338954
 30
0.0
 10
46.8610213255
 20
120.2460027735
 30
0.0
  0
SPLINE
  5
335
100
AcDbEntity
  8
0
100
AcDbSpline
 62
7
  6
BYLAYER
 70
0
 71
3
 72
11
 73
7
 74
0
 42
0.0000001
 43
0.0000001
 44
0.0000000001
 40
0.0
 40
0.0
 40
0.0
 40
0.0
 40
0.2177416576
 40
0.4508857691
 40
0.7104589349
 40
1.0
 40
1.0
 40
1.0
 40
1.0
 10
73.4533098411
 20
168.2730494
 30
0.0
 10
73.4533127819
 20
168.3347829121
 30
0.0
 10
73.4760075214
 20
168.4634896408
 30
0.0
 10
73.5736400883
 20
168.6428504414
 30
0.0
 10
73.7279590379
 20
168.8048649665
 30
0.0
 10
73.8569708294
 20
168.8938139371
 30
0.0
 10
73.9280628582
 20
168.9348586941
 30
0.0
  0
SPLINE
  5
336
100
AcDbEntity
  8
0
100
AcDbSpline
 62
7
  6
BYLAYER
 70
0
 71
3
 72
11
 73
7
 74
0
 42
0.0000001
 43
0.0000001
 44
0.0000000001
 40
0.0
 40
0.0
 40
0.0
 40
0.0
 40
0.2896413964
 40
0.5491107671
 40
0.7822355978
 40
1.0
 40
1.0
 40
1.0
 40
1.0
 10
52.3764459756
 20
116.7758562459
 30
0.0
 10
52.3764459756
 20
116.910097868
 30
0.0
 10
52.3968507518
 20
117.1654572081
 30
0.0
 10
52.5002043947
 20
117.5163127341
 30
0.0
 10
52.6743032212
 20
117.801081888
 30
0.0
 10
52.8379300298
 20
117.9384488973
 30
0.0
 10
52.9253164497
 20
117.9889479888
 30
0.0
  0
SPLINE
  5
337
100
AcDbEntity
  8
0
100
AcDbSpline
 62
7
  6
BYLAYER
 70
0
 71
3
 72
9
 73
5
 74
0
 42
0.0000001
 43
0.0000001
 44
0.0000000001
 40
0.0
 40
0.0
 40
0.0
 40
0.0
 40
0.4745091132
 40
1.0
 40
1.0
 40
1.0
 40
1.0
 10
34.4866005467
 20
120.3274683185
 30
0.0
 10
34.4866005467
 20
120.0417654543
 30
0.0
 10
34.5883800543
 20
119.4393564664
 30
0.0
 10
34.823964054
 20
118.8800740788
 30
0.0
 10
34.9760421098
 20
118.6026202108
 30
0.0
  0
SPLINE
  5
338
100
AcDbEntity
  8
0
100
AcDbSpline
 62
7
  6
BYLAYER
 70
0
 71
3
 72
17
 73
13
 74
0
 42
0.0000001
 43
0.0000001
 44
0.0000000001
 40
0.0
 40
0.0
 40
0.0
 40
0.0
 40
0.042857965
 40
0.0874854797
 40
0.1353180708
 40
0.1872814984
 40
0.3045423159
 40
0.4382097446
 40
0.5825520305
 40
0.7297107839
 40
0.8713099826
 40
1.0
 40
1.0
 40
1.0
 40
1.0
 10
27.0787351214
 20
123.3191715742
 30
0.0
 10
27.013421181
 20
123.2814277845
 30
0.0
 10
26.8693975303
 20
123.2215985617
 30
0.0
 10
26.6316904789
 20
123.1867343158
 30
0.0
 10
26.3764036811
 20
123.2055461761
 30
0.0
 10
26.0054698786
 20
123.3041794002
 30
0.0
 10
25.5312875877
 20
123.5634633383
 30
0.0
 10
25.0073942644
 20
124.0274202358
 30
0.0
 10
24.5442936632
 20
124.6201668769
 30
0.0
 10
24.1798146318
 20
125.2938216807
 30
0.0
 10
23.9432977826
 20
125.9931434506
 30
0.0
 10
23.8799240522
 20
126.4694286287
 30
0.0
 10
23.8799240522
 20
126.695939316
 30
0.0
  0
SPLINE
  5
339
100
AcDbEntity
  8
0
100
AcDbSpline
 62
7
  6
BYLAYER
 70
0
 71
3
 72
11
 73
7
 74
0
 42
0.0000001
 43
0.0000001
 44
0.0000000001
 40
0.0
 40
0.0
 40
0.0
 40
0.0
 40
0.2896413964
 40
0.5491107671
 40
0.7822355978
 40
1.0
 40
1.0
 40
1.0
 40
1.0
 10
23.8799240522
 20
133.2279586531
 30
0.0
 10
23.8799240522
 20
133.3622002752
 30
0.0
 10
23.9003288284
 20
133.6175596153
 30
0.0
 10
24.0036824713
 20
133.9684151413
 30
0.0
 10
24.1777812978
 20
134.2531842952
 30
0.0
 10
24.3414081064
 20
134.3905513044
 30
0.0
 10
24.4287945263
 20
134.441050396
 30
0.0
  0
SPLINE
  5
33A
100
AcDbEntity
  8
0
100
AcDbSpline
 62
7
  6
BYLAYER
 70
0
 71
3
 72
9
 73
5
 74
0
 42
0.0000001
 43
0.0000001
 44
0.0000000001
 40
0.0
 40
0.0
 40
0.0
 40
0.0
 40
0.2468630449
 40
1.0
 40
1.0
 40
1.0
 40
1.0
 10
52.2898285238
 20
107.3096489318
 30
0.0
 10
52.8272903189
 20
106.6987621301
 30
0.0
 10
54.9644381082
 20
104.1891727344
 30
0.0
 10
56.9428432105
 20
101.5449492605
 30
0.0
 10
58.3400304282
 20
99.4931410776
 30
0.0
  0
SPLINE
  5
33B
100
AcDbEntity
  8
0
100
AcDbSpline
 62
7
  6
BYLAYER
 70
0
 71
3
 72
17
 73
13
 74
0
 42
0.0000001
 43
0.0000001
 44
0.0000000001
 40
0.0
 40
0.0
 40
0.0
 40
0.0
 40
0.1265639
 40
0.2655788565
 40
0.4104895962
 40
0.5537661511
 40
0.688138261
 40
0.8079084841
 40
0.86150924
 40
0.9109459792
 40
0.9567658613
 40
1.0
 40
1.0
 40
1.0
 40
1.0
 10
34.5573115192
 20
142.3322095056
 30
0.0
 10
34.5573115192
 20
142.1281441628
 30
0.0
 10
34.6118836793
 20
141.6994495768
 30
0.0
 10
34.8172670577
 20
141.0671779053
 30
0.0
 10
35.1356064334
 20
140.4529416025
 30
0.0
 10
35.5431941748
 20
139.9030894548
 30
0.0
 10
36.0093754913
 20
139.4587147447
 30
0.0
 10
36.4350589841
 20
139.1934005111
 30
0.0
 10
36.7741826456
 20
139.0711116324
 30
0.0
 10
37.0113687523
 20
139.0268484071
 30
0.0
 10
37.2361405912
 20
139.0283558979
 30
0.0
 10
37.3775264823
 20
139.0610373111
 30
0.0
 10
37.4430064149
 20
139.084946809
 30
0.0
  0
SPLINE
  5
33C
100
AcDbEntity
  8
0
100
AcDbSpline
 62
7
  6
BYLAYER
 70
0
 71
3
 72
17
 73
13
 74
0
 42
0.0000001
 43
0.0000001
 44
0.0000000001
 40
0.0
 40
0.0
 40
0.0
 40
0.0
 40
0.1283776732
 40
0.2683184696
 40
0.413322099
 40
0.5560759428
 40
0.6896205913
 40
0.8085951172
 40
0.8618928799
 40
0.9111171843
 40
0.9568170124
 40
1.0
 40
1.0
 40
1.0
 40
1.0
 10
49.5140425357
 20
52.9450431244
 30
0.0
 10
49.5209599684
 20
52.7333721674
 30
0.0
 10
49.5886832531
 20
52.2921833209
 30
0.0
 10
49.812442208
 20
51.645045813
 30
0.0
 10
50.1478589111
 20
51.020912513
 30
0.0
 10
50.570720265
 20
50.4653935323
 30
0.0
 10
51.0502531179
 20
50.0186749423
 30
0.0
 10
51.4858736646
 20
49.7535687361
 30
0.0
 10
51.8319564736
 20
49.63246298
 30
0.0
 10
52.0739376828
 20
49.5893472151
 30
0.0
 10
52.30322447
 20
49.592285925
 30
0.0
 10
52.4474691957
 20
49.6260390509
 30
0.0
 10
52.5143672543
 20
49.65052595
 30
0.0
  0
SPLINE
  5
33D
100
AcDbEntity
  8
0
100
AcDbSpline
 62
7
  6
BYLAYER
 70
0
 71
3
 72
17
 73
13
 74
0
 42
0.0000001
 43
0.0000001
 44
0.0000000001
 40
0.0
 40
0.0
 40
0.0
 40
0.0
 40
0.042857965
 40
0.0874854797
 40
0.1353180708
 40
0.1872814984
 40
0.3045423159
 40
0.4382097446
 40
0.5825520305
 40
0.7297107839
 40
0.8713099826
 40
1.0
 40
1.0
 40
1.0
 40
1.0
 10
55.5752570448
 20
106.867069167
 30
0.0
 10
55.5099431045
 20
106.8293253774
 30
0.0
 10
55.3659194537
 20
106.7694961545
 30
0.0
 10
55.1282124023
 20
106.7346319086
 30
0.0
 10
54.8729256046
 20
106.7534437689
 30
0.0
 10
54.5019918021
 20
106.8520769931
 30
0.0
 10
54.0278095112
 20
107.1113609312
 30
0.0
 10
53.5039161879
 20
107.5753178286
 30
0.0
 10
53.0408155867
 20
108.1680644697
 30
0.0
 10
52.6763365552
 20
108.8417192735
 30
0.0
 10
52.439819706
 20
109.5410410434
 30
0.0
 10
52.3764459756
 20
110.0173262215
 30
0.0
 10
52.3764459756
 20
110.2438369089
 30
0.0
  0
SPLINE
  5
33E
100
AcDbEntity
  8
0
100
AcDbSpline
 62
7
  6
BYLAYER
 70
0
 71
3
 72
9
 73
5
 74
0
 42
0.0000001
 43
0.0000001
 44
0.0000000001
 40
0.0
 40
0.0
 40
0.0
 40
0.0
 40
0.5104061779
 40
1.0
 40
1.0
 40
1.0
 40
1.0
 10
23.8958623264
 20
119.2935419535
 30
0.0
 10
22.8453040455
 20
119.3125150804
 30
0.0
 10
20.7805249113
 20
119.2008077634
 30
0.0
 10
18.7595751986
 20
118.7528460856
 30
0.0
 10
17.7988122108
 20
118.4482699779
 30
0.0
  0
SPLINE
  5
33F
100
AcDbEntity
  8
0
100
AcDbSpline
 62
7
  6
BYLAYER
 70
0
 71
3
 72
9
 73
5
 74
0
 42
0.0000001
 43
0.0000001
 44
0.0000000001
 40
0.0
 40
0.0
 40
0.0
 40
0.0
 40
0.2746707261
 40
1.0
 40
1.0
 40
1.0
 40
1.0
 10
30.5184906582
 20
117.2377168776
 30
0.0
 10
29.9638035457
 20
117.5534481364
 30
0.0
 10
27.897210177
 20
118.607139628
 30
0.0
 10
25.5808438699
 20
119.2540889338
 30
0.0
 10
23.8958623264
 20
119.2935419535
 30
0.0
  0
SPLINE
  5
340
100
AcDbEntity
  8
0
100
AcDbSpline
 62
7
  6
BYLAYER
 70
0
 71
3
 72
11
 73
7
 74
0
 42
0.0000001
 43
0.0000001
 44
0.0000000001
 40
0.0
 40
0.0
 40
0.0
 40
0.0
 40
0.2693887321
 40
0.5151810124
 40
0.7545651586
 40
1.0
 40
1.0
 40
1.0
 40
1.0
 10
76.4885837858
 20
169.3988900619
 30
0.0
 10
76.5984215687
 20
169.335476623
 30
0.0
 10
76.7911073034
 20
169.1755760818
 30
0.0
 10
76.9480308685
 20
168.8446370785
 30
0.0
 10
76.9563196711
 20
168.4919019748
 30
0.0
 10
76.8769682167
 20
168.2724305165
 30
0.0
 10
76.8216608992
 20
168.1709749014
 30
0.0
  0
SPLINE
  5
341
100
AcDbEntity
  8
0
100
AcDbSpline
 62
7
  6
BYLAYER
 70
0
 71
3
 72
9
 73
5
 74
0
 42
0.0000001
 43
0.0000001
 44
0.0000000001
 40
0.0
 40
0.0
 40
0.0
 40
0.0
 40
0.4833212201
 40
1.0
 40
1.0
 40
1.0
 40
1.0
 10
76.8216608992
 20
168.1709749014
 30
0.0
 10
76.7651721188
 20
168.0673520134
 30
0.0
 10
76.6136337516
 20
167.870772107
 30
0.0
 10
76.41518148
 20
167.7235312133
 30
0.0
 10
76.3059189874
 20
167.6604488604
 30
0.0
  0
SPLINE
  5
342
100
AcDbEntity
  8
0
100
AcDbSpline
 62
7
  6
BYLAYER
 70
0
 71
3
 72
11
 73
7
 74
0
 42
0.0000001
 43
0.0000001
 44
0.0000000001
 40
0.0
 40
0.0
 40
0.0
 40
0.0
 40
0.237239768
 40
0.4999988393
 40
0.7627585384
 40
1.0
 40
1.0
 40
1.0
 40
1.0
 10
41.848839471
 20
110.6962849275
 30
0.0
 10
41.6135602463
 20
110.8321203782
 30
0.0
 10
41.1683263239
 20
111.2068410011
 30
0.0
 10
40.6486778272
 20
111.9169564095
 30
0.0
 10
40.2935195811
 20
112.7220430512
 30
0.0
 10
40.1916147369
 20
113.2949889821
 30
0.0
 10
40.1916147369
 20
113.5666664324
 30
0.0
  0
SPLINE
  5
343
100
AcDbEntity
  8
0
100
AcDbSpline
 62
7
  6
BYLAYER
 70
0
 71
3
 72
9
 73
5
 74
0
 42
0.0000001
 43
0.0000001
 44
0.0000000001
 40
0.0
 40
0.0
 40
0.0
 40
0.0
 40
0.5202331492
 40
1.0
 40
1.0
 40
1.0
 40
1.0
 10
48.4714678028
 20
105.1051305009
 30
0.0
 10
47.4729694527
 20
106.2346916493
 30
0.0
 10
45.4079349594
 20
108.2827433959
 30
0.0
 10
43.0486750806
 20
109.9938191302
 30
0.0
 10
41.848839471
 20
110.6962849275
 30
0.0
  0
SPLINE
  5
344
100
AcDbEntity
  8
0
100
AcDbSpline
 62
7
  6
BYLAYER
 70
0
 71
3
 72
9
 73
5
 74
0
 42
0.0000001
 43
0.0000001
 44
0.0000000001
 40
0.0
 40
0.0
 40
0.0
 40
0.0
 40
0.2528304946
 40
1.0
 40
1.0
 40
1.0
 40
1.0
 10
54.5685179184
 20
97.2197507429
 30
0.0
 10
54.0962273918
 20
97.9148156283
 30
0.0
 10
52.186743257
 20
100.6354639145
 30
0.0
 10
50.1118623122
 20
103.2406345226
 30
0.0
 10
48.4714678028
 20
105.1051305009
 30
0.0
  0
SPLINE
  5
345
100
AcDbEntity
  8
0
100
AcDbSpline
 62
7
  6
BYLAYER
 70
0
 71
3
 72
11
 73
7
 74
0
 42
0.0000001
 43
0.0000001
 44
0.0000000001
 40
0.0
 40
0.0
 40
0.0
 40
0.0
 40
0.2840727969
 40
0.5415462226
 40
0.7770015454
 40
1.0
 40
1.0
 40
1.0
 40
1.0
 10
19.326328837
 20
70.4885388737
 30
0.0
 10
19.3360456131
 20
70.5991564264
 30
0.0
 10
19.3707653169
 20
70.8092788581
 30
0.0
 10
19.4790580676
 20
71.0956115016
 30
0.0
 10
19.6399360547
 20
71.3284998852
 30
0.0
 10
19.7821306413
 20
71.4426645504
 30
0.0
 10
19.8576118094
 20
71.4862666448
 30
0.0
  0
SPLINE
  5
346
100
AcDbEntity
  8
0
100
AcDbSpline
 62
7
  6
BYLAYER
 70
0
 71
3
 72
9
 73
5
 74
0
 42
0.0000001
 43
0.0000001
 44
0.0000000001
 40
0.0
 40
0.0
 40
0.0
 40
0.0
 40
0.2286014044
 40
1.0
 40
1.0
 40
1.0
 40
1.0
 10
46.8610213255
 20
120.2460027735
 30
0.0
 10
46.8610213255
 20
120.2387103407
 30
0.0
 10
46.8572612
 20
120.2068753118
 30
0.0
 10
46.8426651015
 20
120.1767605619
 30
0.0
 10
46.8275812659
 20
120.1573178101
 30
0.0
  0
SPLINE
  5
347
100
AcDbEntity
  8
0
100
AcDbSpline
 62
7
  6
BYLAYER
 70
0
 71
3
 72
9
 73
5
 74
0
 42
0.0000001
 43
0.0000001
 44
0.0000000001
 40
0.0
 40
0.0
 40
0.0
 40
0.0
 40
0.2671861545
 40
1.0
 40
1.0
 40
1.0
 40
1.0
 10
46.8275812659
 20
120.1573178101
 30
0.0
 10
46.8248261346
 20
120.1537665029
 30
0.0
 10
46.8139647258
 20
120.1409382993
 30
0.0
 10
46.8009870729
 20
120.1296919467
 30
0.0
 10
46.7903109418
 20
120.1235281164
 30
0.0
  0
SPLINE
  5
348
100
AcDbEntity
  8
0
100
AcDbSpline
 62
7
  6
BYLAYER
 70
0
 71
3
 72
11
 73
7
 74
0
 42
0.0000001
 43
0.0000001
 44
0.0000000001
 40
0.0
 40
0.0
 40
0.0
 40
0.0
 40
0.289622452
 40
0.5491042256
 40
0.7822329996
 40
1.0
 40
1.0
 40
1.0
 40
1.0
 10
34.3451797792
 20
120.2458194877
 30
0.0
 10
34.3451797792
 20
120.3775194066
 30
0.0
 10
34.3652137729
 20
120.6280560558
 30
0.0
 10
34.4666050557
 20
120.9722901427
 30
0.0
 10
34.6374062436
 20
121.2517071223
 30
0.0
 10
34.7979567322
 20
121.3864743894
 30
0.0
 10
34.8836949483
 20
121.4360216545
 30
0.0
  0
SPLINE
  5
349
100
AcDbEntity
  8
0
100
AcDbSpline
 62
7
  6
BYLAYER
 70
0
 71
3
 72
9
 73
5
 74
0
 42
0.0000001
 43
0.0000001
 44
0.0000000001
 40
0.0
 40
0.0
 40
0.0
 40
0.0
 40
0.5254622071
 40
1.0
 40
1.0
 40
1.0
 40
1.0
 10
34.8264926993
 20
118.5342011608
 30
0.0
 10
34.6773624242
 20
118.8101836162
 30
0.0
 10
34.4453818594
 20
119.3651904295
 30
0.0
 10
34.3451797792
 20
119.9625234821
 30
0.0
 10
34.3451797792
 20
120.2458194877
 30
0.0
  0
SPLINE
  5
34A
100
AcDbEntity
  8
0
100
AcDbSpline
 62
7
  6
BYLAYER
 70
0
 71
3
 72
16
 73
12
 74
0
 42
0.0000001
 43
0.0000001
 44
0.0000000001
 40
0.0
 40
0.0
 40
0.0
 40
0.0
 40
0.1287278405
 40
0.2703983835
 40
0.4176122773
 40
0.5620238074
 40
0.6957506811
 40
0.8130645496
 40
0.9124695887
 40
0.9571207797
 40
1.0
 40
1.0
 40
1.0
 40
1.0
 10
73.9280628582
 20
168.9348586941
 30
0.0
 10
74.0480481722
 20
169.0041318339
 30
0.0
 10
74.3197583306
 20
169.1162186229
 30
0.0
 10
74.7625585592
 20
169.2048706963
 30
0.0
 10
75.2309712536
 20
169.2177641225
 30
0.0
 10
75.6865546338
 20
169.1538743152
 30
0.0
 10
76.0929263104
 20
169.0178395758
 30
0.0
 10
76.418548271
 20
168.8202427422
 30
0.0
 10
76.6081690574
 20
168.6024075104
 30
0.0
 10
76.6831930405
 20
168.4138220136
 30
0.0
 10
76.69544458
 20
168.319199349
 30
0.0
 10
76.6954423816
 20
168.2730494018
 30
0.0
  0
SPLINE
  5
34B
100
AcDbEntity
  8
0
100
AcDbSpline
 62
7
  6
BYLAYER
 70
0
 71
3
 72
12
 73
8
 74
0
 42
0.0000001
 43
0.0000001
 44
0.0000000001
 40
0.0
 40
0.0
 40
0.0
 40
0.0
 40
0.2360728357
 40
0.3660000462
 40
0.4991796408
 40
0.7619069258
 40
1.0
 40
1.0
 40
1.0
 40
1.0
 10
76.4885837858
 20
169.3988900619
 30
0.0
 10
76.300485964
 20
169.5074859332
 30
0.0
 10
75.9605565493
 20
169.592022805
 30
0.0
 10
75.5016883407
 20
169.5959507841
 30
0.0
 10
75.0197858777
 20
169.5387652875
 30
0.0
 10
74.4548535532
 20
169.3823718623
 30
0.0
 10
74.0325399504
 20
169.192006481
 30
0.0
 10
73.8428332353
 20
169.0824799117
 30
0.0
  0
SPLINE
  5
34C
100
AcDbEntity
  8
0
100
AcDbSpline
 62
7
  6
BYLAYER
 70
0
 71
3
 72
16
 73
12
 74
0
 42
0.0000001
 43
0.0000001
 44
0.0000000001
 40
0.0
 40
0.0
 40
0.0
 40
0.0
 40
0.0428757513
 40
0.0875233495
 40
0.186923412
 40
0.3042342846
 40
0.4379543358
 40
0.5823556103
 40
0.7295669663
 40
0.8712579545
 40
1.0
 40
1.0
 40
1.0
 40
1.0
 10
48.6176946094
 20
112.6920329543
 30
0.0
 10
48.5764033377
 20
112.6681925602
 30
0.0
 10
48.4854120026
 20
112.6302788917
 30
0.0
 10
48.2779230554
 20
112.5999748035
 30
0.0
 10
47.9850537225
 20
112.6570992467
 30
0.0
 10
47.6400288223
 20
112.8463584043
 30
0.0
 10
47.3083713454
 20
113.1396736535
 30
0.0
 10
47.0158434876
 20
113.5142960287
 30
0.0
 10
46.7853660733
 20
113.9400883889
 30
0.0
 10
46.6359123409
 20
114.3821353847
 30
0.0
 10
46.5958239725
 20
114.6832051485
 30
0.0
 10
46.5958239725
 20
114.8263712632
 30
0.0
  0
SPLINE
  5
34D
100
AcDbEntity
  8
0
100
AcDbSpline
 62
7
  6
BYLAYER
 70
0
 71
3
 72
9
 73
5
 74
0
 42
0.0000001
 43
0.0000001
 44
0.0000000001
 40
0.0
 40
0.0
 40
0.0
 40
0.0
 40
0.4797668508
 40
1.0
 40
1.0
 40
1.0
 40
1.0
 10
45.6672001919
 20
112.9008033584
 30
0.0
 10
46.8670358016
 20
112.1983375611
 30
0.0
 10
49.2262956804
 20
110.4872618268
 30
0.0
 10
51.2913301736
 20
108.4392100802
 30
0.0
 10
52.2898285238
 20
107.3096489318
 30
0.0
  0
SPLINE
  5
34E
100
AcDbEntity
  8
0
100
AcDbSpline
 62
7
  6
BYLAYER
 70
0
 71
3
 72
11
 73
7
 74
0
 42
0.0000001
 43
0.0000001
 44
0.0000000001
 40
0.0
 40
0.0
 40
0.0
 40
0.0
 40
0.2840727969
 40
0.5415462226
 40
0.7770015454
 40
1.0
 40
1.0
 40
1.0
 40
1.0
 10
49.3784921557
 20
53.1383068066
 30
0.0
 10
49.3882089318
 20
53.2489243593
 30
0.0
 10
49.4229286357
 20
53.459046791
 30
0.0
 10
49.5312213864
 20
53.7453794344
 30
0.0
 10
49.6920993735
 20
53.978267818
 30
0.0
 10
49.83429396
 20
54.0924324833
 30
0.0
 10
49.9097751281
 20
54.1360345777
 30
0.0
  0
SPLINE
  5
34F
100
AcDbEntity
  8
0
100
AcDbSpline
 62
7
  6
BYLAYER
 70
0
 71
3
 72
11
 73
7
 74
0
 42
0.0000001
 43
0.0000001
 44
0.0000000001
 40
0.0
 40
0.0
 40
0.0
 40
0.0
 40
0.2372413576
 40
0.5000010231
 40
0.762760128
 40
1.0
 40
1.0
 40
1.0
 40
1.0
 10
44.0099754578
 20
115.7711848633
 30
0.0
 10
44.0099754578
 20
115.4995075321
 30
0.0
 10
44.1118802292
 20
114.9265617581
 30
0.0
 10
44.467038347
 20
114.1214751888
 30
0.0
 10
44.9866868423
 20
113.4113596332
 30
0.0
 10
45.4319208641
 20
113.0366388687
 30
0.0
 10
45.6672001919
 20
112.9008033584
 30
0.0
  0
ENDSEC
  0
SECTION
  2
OBJECTS
  0
DICTIONARY
  5
C
100
AcDbDictionary
280
0
281
1
  3
ACAD_GROUP
350
D
  3
ACAD_MLINESTYLE
350
17
  3
ACAD_LAYOUT
350
1A
  3
ACAD_PLOTSETTINGS
350
19
  3
ACAD_PLOTSTYLENAME
350
E
  0
DICTIONARY
  5
D
102
{ACAD_REACTORS
330
C
102
}
100
AcDbDictionary
280
0
281
1
  0
ACDBDICTIONARYWDFLT
  5
E
102
{ACAD_REACTORS
330
C
102
}
100
AcDbDictionary
281
1
  3
Normal
350
F
100
AcDbDictionaryWithDefault
340
F
  0
DICTIONARY
  5
17
102
{ACAD_REACTORS
330
C
102
}
100
AcDbDictionary
280
0
281
1
  3
Standard
350
18
  0
DICTIONARY
  5
19
102
{ACAD_REACTORS
330
C
102
}
100
AcDbDictionary
281
1
  0
DICTIONARY
  5
1A
102
{ACAD_REACTORS
330
C
102
}
100
AcDbDictionary
281
1
  3
Model
350
350
  3
Layout1
350
351
  0
ACDBPLACEHOLDER
  5
F
102
{ACAD_REACTORS
330
E
102
}
  0
MLINESTYLE
  5
18
102
{ACAD_REACTORS
330
17
102
}
100
AcDbMlineStyle
  2
STANDARD
 70
0
  3

 62
256
 51
90.0
 52
90.0
 71
2
 49
0.5
 62
256
  6
BYLAYER
 49
-0.5
 62
256
  6
BYLAYER
  0
LAYOUT
  5
350
102
{ACAD_REACTORS
330
1A
102
}
100
AcDbPlotSettings
  1

  2
none_device
  4

  6

 40
0.0
 41
0.0
 42
0.0
 43
0.0
 44
210.0
 45
297.0
 46
0.0
 47
0.0
 48
0.0
 49
0.0
140
0.0
141
0.0
142
1.0
143
1.0
 70
1024
 72
1
 73
0
 74
0
  7

 75
0
147
1.0
148
0.0
149
0.0
100
AcDbLayout
  1
Model
 70
0
 71
0
 10
0.0
 20
0.0
 11
210.0
 21
297.0
 12
0.0
 22
0.0
 32
0.0
 14
0.0
 24
0.0
 34
0.0
 15
0.0
 25
0.0
 35
0.0
146
0.0
 13
0.0
 23
0.0
 33
0.0
 16
1.0
 26
0.0
 36
0.0
 17
0.0
 27
1.0
 37
0.0
 76
0
330
210
345
0
346
0
  0
LAYOUT
  5
351
102
{ACAD_REACTORS
330
1A
102
}
100
AcDbPlotSettings
  1

  2
none_device
  4

  6

 40
0.0
 41
0.0
 42
0.0
 43
0.0
 44
210.0
 45
297.0
 46
0.0
 47
0.0
 48
0.0
 49
0.0
140
0.0
141
0.0
142
1.0
143
1.0
 70
0
 72
1
 73
0
 74
0
  7

 75
0
147
1.0
148
0.0
149
0.0
100
AcDbLayout
  1
Layout1
 70
0
 71
1
 10
0.0
 20
0.0
 11
210.0
 21
297.0
 12
0.0
 22
0.0
 32
0.0
 14
0.0
 24
0.0
 34
0.0
 15
0.0
 25
0.0
 35
0.0
146
0.0
 13
0.0
 23
0.0
 33
0.0
 16
1.0
 26
0.0
 36
0.0
 17
0.0
 27
1.0
 37
0.0
 76
0
330
211
345
0
346
0
  0
ENDSEC
  0
EOF
