999
DXF file: C:\Users\sesa63760\Dev\_Creo\CAD\MCADID0003659_3D-CAD\drw0001_1.dxf
999
Pro/ENGINEER 2019471 by Parametric Technology Corporation
  0
SECTION
  2
HEADER
  9
$ACADVER
  1
AC1024
  9
$DWGCODEPAGE
  3
ANSI_1252
  9
$EXTMAX
 10
91.4519484134
 20
129.3391841846
 30
0.0
  9
$EXTMIN
 10
0.0
 20
0.0
 30
0.0
  9
$LIMMIN
 10
0.0
 20
0.0
  9
$LIMMAX
 10
91.4519484134
 20
129.3391841846
  9
$VIEWCTR
 10
45.7259742067
 20
64.6695920923
  9
$VIEWSIZE
 40
129.3391841846
  9
$CLAYER
  8
0
  9
$LTSCALE
 40
8.4309986728
  9
$CELTYPE
  6
BYLAYER
  9
$DIMSCALE
 40
1.0
  9
$DIMASZ
 40
1.0887136716
  9
$DIMEXO
 40
1.0
  9
$DIMDLI
 40
5.8250536285
  9
$DIMEXE
 40
1.0
  9
$DIMCEN
 40
1.3796179646
  9
$DIMLFAC
 40
1.0
  9
$DIMBLK
  1
_FILLED
  9
$DIMALT
 70
0
  9
$DIMALTF
 40
0.0393700787
  9
$DIMTXT
 40
1.5241991402
  9
$DIMTOL
 70
1
  9
$DIMLIM
 70
0
  9
$DIMTFAC
 40
1.0
  9
$DIMTP
 40
0.01
  9
$DIMTM
 40
0.01
  9
$DIMGAP
 40
0.625
  9
$DIMDSEP
 70
46
  9
$AUNITS
 70
0
  9
$PDMODE
 70
3
  9
$PDSIZE
 40
0.3125
  9
$HANDSEED
  5
2DE
  9
$TILEMODE
 70
1
  9
$MEASUREMENT
 70
1
  9
$INSUNITS
 70
4
  0
ENDSEC
  0
SECTION
  2
CLASSES
  0
CLASS
  1
ACDBDICTIONARYWDFLT
  2
AcDbDictionaryWithDefault
  3
AutoCAD 2000
 90
0
 91
1
280
0
281
0
  0
CLASS
  1
ACDBPLACEHOLDER
  2
AcDbPlaceHolder
  3
AutoCAD 2000
 90
0
 91
1
280
0
281
0
  0
CLASS
  1
LAYOUT
  2
AcDbLayout
  3
AutoCAD 2000
 90
0
 91
0
280
0
281
0
  0
ENDSEC
  0
SECTION
  2
TABLES
  0
TABLE
  2
VPORT
  5
8
100
AcDbSymbolTable
 70
2
  0
VPORT
  5
1F4
100
AcDbSymbolTableRecord
100
AcDbViewportTableRecord
  2
*ACTIVE
 70
0
 10
0.0
 20
0.0
 11
1.0
 21
1.0
 12
45.7259742067
 22
64.6695920923
 13
0.0
 23
0.0
 14
1.0
 24
1.0
 15
0.0
 25
0.0
 16
0.0
 26
0.0
 36
1.0
 17
0.0
 27
0.0
 37
0.0
 40
129.3391841846
 41
0.7070707071
 42
50.0
 43
0.0
 44
0.0
 50
0.0
 51
0.0
 71
0
 72
100
 73
1
 74
1
 75
0
 76
0
 77
0
 78
0
  0
ENDTAB
  0
TABLE
  2
LTYPE
  5
5
100
AcDbSymbolTable
 70
6
  0
LTYPE
  5
14
100
AcDbSymbolTableRecord
100
AcDbLinetypeTableRecord
  2
BYBLOCK
 70
0
  3

 72
65
 73
0
 40
0.0
  0
LTYPE
  5
15
100
AcDbSymbolTableRecord
100
AcDbLinetypeTableRecord
  2
BYLAYER
 70
0
  3

 72
65
 73
0
 40
0.0
  0
LTYPE
  5
16
100
AcDbSymbolTableRecord
100
AcDbLinetypeTableRecord
  2
CONTINUOUS
 70
64
  3
Solid line
 72
65
 73
0
 40
0.0
  0
LTYPE
  5
1F5
100
AcDbSymbolTableRecord
100
AcDbLinetypeTableRecord
  2
CENTER
 70
64
  3
____ _ ____ _ ____ _ ____ _ ____ _ ____ _ ____
 72
65
 73
4
 40
0.6
 49
0.375
 74
0
 49
-0.075
 74
0
 49
0.075
 74
0
 49
-0.075
 74
0
  0
LTYPE
  5
1F6
100
AcDbSymbolTableRecord
100
AcDbLinetypeTableRecord
  2
HIDDEN
 70
64
  3
- - - - - - - - - - - - - - - - - - - -
 72
65
 73
2
 40
0.2
 49
0.1
 74
0
 49
-0.1
 74
0
  0
LTYPE
  5
1F7
100
AcDbSymbolTableRecord
100
AcDbLinetypeTableRecord
  2
PHANTOM
 70
64
  3
_____ _ _ _____ _ _ _____ _ _ _____
 72
65
 73
6
 40
0.8
 49
0.45
 74
0
 49
-0.05
 74
0
 49
0.1
 74
0
 49
-0.05
 74
0
 49
0.1
 74
0
 49
-0.05
 74
0
  0
LTYPE
  5
1F8
100
AcDbSymbolTableRecord
100
AcDbLinetypeTableRecord
  2
DOT
 70
64
  3
. . . . . . . . . . . . . . . . . . . .
 72
65
 73
2
 40
0.2
 49
0.1
 74
0
 49
-0.1
 74
0
  0
LTYPE
  5
1F9
100
AcDbSymbolTableRecord
100
AcDbLinetypeTableRecord
  2
DASHED
 70
64
  3
- - - - - - - - - - - - - - - - - - - -
 72
65
 73
2
 40
0.2
 49
0.1
 74
0
 49
-0.1
 74
0
  0
ENDTAB
  0
TABLE
  2
LAYER
  5
2
100
AcDbSymbolTable
 70
36
  0
LAYER
  5
10
100
AcDbSymbolTableRecord
100
AcDbLayerTableRecord
  2
0
 70
0
 62
7
  6
CONTINUOUS
370
-3
390
F
  0
LAYER
  5
1FA
100
AcDbSymbolTableRecord
100
AcDbLayerTableRecord
  2
DEFAULT_1
 70
0
 62
7
  6
CENTER
370
-3
390
F
  0
LAYER
  5
1FB
100
AcDbSymbolTableRecord
100
AcDbLayerTableRecord
  2
DEFAULT_2
 70
0
 62
7
  6
HIDDEN
370
-3
390
F
  0
LAYER
  5
1FC
100
AcDbSymbolTableRecord
100
AcDbLayerTableRecord
  2
DEFAULT_3
 70
0
 62
7
  6
PHANTOM
370
-3
390
F
  0
LAYER
  5
1FD
100
AcDbSymbolTableRecord
100
AcDbLayerTableRecord
  2
00_COMPONENTS
 70
0
 62
7
  6
CONTINUOUS
370
-3
390
F
  0
LAYER
  5
1FE
100
AcDbSymbolTableRecord
100
AcDbLayerTableRecord
  2
01_1_DEFAULT_DATUMS
 70
0
 62
7
  6
CONTINUOUS
370
-3
390
F
  0
LAYER
  5
1FF
100
AcDbSymbolTableRecord
100
AcDbLayerTableRecord
  2
01_PLANES
 70
0
 62
7
  6
CONTINUOUS
370
-3
390
F
  0
LAYER
  5
200
100
AcDbSymbolTableRecord
100
AcDbLayerTableRecord
  2
02_COORD_SYS
 70
0
 62
7
  6
CONTINUOUS
370
-3
390
F
  0
LAYER
  5
201
100
AcDbSymbolTableRecord
100
AcDbLayerTableRecord
  2
03_AXES
 70
0
 62
7
  6
CONTINUOUS
370
-3
390
F
  0
LAYER
  5
202
100
AcDbSymbolTableRecord
100
AcDbLayerTableRecord
  2
04_POINTS
 70
0
 62
7
  6
CONTINUOUS
370
-3
390
F
  0
LAYER
  5
203
100
AcDbSymbolTableRecord
100
AcDbLayerTableRecord
  2
05_CURVES
 70
0
 62
7
  6
CONTINUOUS
370
-3
390
F
  0
LAYER
  5
204
100
AcDbSymbolTableRecord
100
AcDbLayerTableRecord
  2
06_SURFS
 70
0
 62
7
  6
CONTINUOUS
370
-3
390
F
  0
LAYER
  5
205
100
AcDbSymbolTableRecord
100
AcDbLayerTableRecord
  2
07_COSMETICS
 70
0
 62
7
  6
CONTINUOUS
370
-3
390
F
  0
LAYER
  5
206
100
AcDbSymbolTableRecord
100
AcDbLayerTableRecord
  2
10_NOTES
 70
0
 62
7
  6
CONTINUOUS
370
-3
390
F
  0
LAYER
  5
207
100
AcDbSymbolTableRecord
100
AcDbLayerTableRecord
  2
11_NOTES_PUB
 70
0
 62
7
  6
CONTINUOUS
370
-3
390
F
  0
LAYER
  5
208
100
AcDbSymbolTableRecord
100
AcDbLayerTableRecord
  2
13_REF_GTOL
 70
0
 62
7
  6
CONTINUOUS
370
-3
390
F
  0
LAYER
  5
209
100
AcDbSymbolTableRecord
100
AcDbLayerTableRecord
  2
16_MISC
 70
0
 62
7
  6
CONTINUOUS
370
-3
390
F
  0
LAYER
  5
20A
100
AcDbSymbolTableRecord
100
AcDbLayerTableRecord
  2
17_NO_PRINT
 70
0
 62
7
  6
CONTINUOUS
370
-3
390
F
  0
LAYER
  5
20B
100
AcDbSymbolTableRecord
100
AcDbLayerTableRecord
  2
18_DATUM_CAMS_JOINTS
 70
0
 62
7
  6
CONTINUOUS
370
-3
390
F
  0
LAYER
  5
20C
100
AcDbSymbolTableRecord
100
AcDbLayerTableRecord
  2
19_DATUM_FUNCTIONAL
 70
0
 62
7
  6
CONTINUOUS
370
-3
390
F
  0
LAYER
  5
20D
100
AcDbSymbolTableRecord
100
AcDbLayerTableRecord
  2
20_DATUM_KINEMATIC_SCHEME
 70
0
 62
7
  6
CONTINUOUS
370
-3
390
F
  0
ENDTAB
  0
TABLE
  2
STYLE
  5
3
100
AcDbSymbolTable
 70
1
  0
STYLE
  5
11
100
AcDbSymbolTableRecord
100
AcDbTextStyleTableRecord
  2
STANDARD
 70
0
 40
0.0
 41
1.0
 50
0.0
 71
0
 42
0.2
  3
ARIAL.TTF
  4

  0
STYLE
  5
20E
100
AcDbSymbolTableRecord
100
AcDbTextStyleTableRecord
  2
TEXTSTYLE_1
 70
0
 40
0.0
 41
0.8
 50
0.0
 71
0
 42
0.2
  3
gdt
  4

  0
ENDTAB
  0
TABLE
  2
VIEW
  5
6
100
AcDbSymbolTable
 70
0
  0
ENDTAB
  0
TABLE
  2
UCS
  5
7
100
AcDbSymbolTable
 70
0
  0
ENDTAB
  0
TABLE
  2
APPID
  5
9
100
AcDbSymbolTable
 70
1
  0
APPID
  5
20F
100
AcDbSymbolTableRecord
100
AcDbRegAppTableRecord
  2
ACAD
 70
0
  0
ENDTAB
  0
TABLE
  2
BLOCK_RECORD
  5
1
100
AcDbSymbolTable
 70
0
  0
BLOCK_RECORD
  5
210
100
AcDbSymbolTableRecord
100
AcDbBlockTableRecord
  2
*Model_Space
  0
BLOCK_RECORD
  5
211
100
AcDbSymbolTableRecord
100
AcDbBlockTableRecord
  2
*Paper_Space
  0
BLOCK_RECORD
  5
212
100
AcDbSymbolTableRecord
100
AcDbBlockTableRecord
  2
_FILLED
  0
ENDTAB
  0
TABLE
  2
DIMSTYLE
  5
A
100
AcDbSymbolTable
 70
1
100
AcDbDimStyleTable
 71
0
  0
DIMSTYLE
105
213
100
AcDbSymbolTableRecord
100
AcDbDimStyleTableRecord
  2
STANDARD
 70
0
  3

  4

 40
1.0
 41
1.0887136716
 42
1.0
 43
0.38
 44
1.0
 45
0.0
 46
0.0
 47
0.01
 48
0.01
140
1.5241991402
141
0.09
142
0.0
143
25.4
144
1.0
145
0.0
146
1.0
147
0.625
 71
1
 72
0
 73
0
 74
0
 75
0
 76
0
 77
1
 78
8
 79
2
170
0
171
1
172
0
173
0
174
0
175
0
176
0
177
0
178
0
270
2
179
2
271
2
272
2
273
2
274
2
275
0
280
0
281
0
282
0
283
1
284
8
285
0
286
0
287
3
288
0
340
11
278
46
341
212
342
212
343
212
344
212
  0
ENDTAB
  0
ENDSEC
  0
SECTION
  2
BLOCKS
  0
BLOCK
  5
20
100
AcDbEntity
  8
0
100
AcDbBlockBegin
  2
*Model_Space
 70
0
 10
0.0
 20
0.0
 30
0.0
  3
*Model_Space
  1

  0
ENDBLK
  5
21
100
AcDbEntity
  8
0
100
AcDbBlockEnd
  0
BLOCK
  5
1C
100
AcDbEntity
  8
0
100
AcDbBlockBegin
  2
*Paper_Space
 70
0
 10
0.0
 20
0.0
 30
0.0
  3
*Paper_Space
  1

  0
ENDBLK
  5
1D
100
AcDbEntity
  8
0
100
AcDbBlockEnd
  0
BLOCK
  5
214
100
AcDbEntity
  8
0
100
AcDbBlockBegin
  2
_FILLED
 70
64
 10
0.0
 20
0.0
  3
_FILLED
  1

  0
SOLID
  5
215
100
AcDbEntity
  8
0
  6
BYBLOCK
 62
0
100
AcDbTrace
 10
0.0
 20
0.0
 11
-1.0
 21
0.25
 12
-1.0
 22
-0.25
 13
-1.0
 23
-0.25
  0
ENDBLK
  5
216
100
AcDbEntity
  8
0
  6
BYBLOCK
 62
0
100
AcDbBlockEnd
  0
ENDSEC
  0
SECTION
  2
ENTITIES
  0
LINE
  5
217
100
AcDbEntity
  8
0
100
AcDbLine
 62
7
  6
BYLAYER
 10
40.3672766602
 20
10.0580757293
 11
31.4444261328
 21
11.4384027884
  0
LINE
  5
218
100
AcDbEntity
  8
0
100
AcDbLine
 62
7
  6
BYLAYER
 10
35.4194558672
 20
117.2248150886
 11
17.7984282439
 21
107.0513707741
  0
LINE
  5
219
100
AcDbEntity
  8
0
100
AcDbLine
 62
7
  6
BYLAYER
 10
42.603660764
 20
117.2248323573
 11
40.779332864
 21
116.1715624403
  0
LINE
  5
21A
100
AcDbEntity
  8
0
100
AcDbLine
 62
7
  6
BYLAYER
 10
20.6410018613
 20
27.8588211259
 11
37.9651901274
 21
17.8569226401
  0
LINE
  5
21B
100
AcDbEntity
  8
0
100
AcDbLine
 62
7
  6
BYLAYER
 10
41.8401353471
 20
20.9052950712
 11
45.2991644441
 21
19.8458265647
  0
LINE
  5
21C
100
AcDbEntity
  8
0
100
AcDbLine
 62
7
  6
BYLAYER
 10
40.9896860095
 20
17.8276019523
 11
39.3737209355
 21
18.7605587165
  0
LINE
  5
21D
100
AcDbEntity
  8
0
100
AcDbLine
 62
7
  6
BYLAYER
 10
20.6410018613
 20
29.5756544465
 11
19.8928480077
 21
30.0075915035
  0
LINE
  5
21E
100
AcDbEntity
  8
0
100
AcDbLine
 62
7
  6
BYLAYER
 10
40.9994234541
 20
17.8444680826
 11
39.2670046275
 21
18.8446579311
  0
LINE
  5
21F
100
AcDbEntity
  8
0
100
AcDbLine
 62
7
  6
BYLAYER
 10
20.6410018613
 20
29.5981423658
 11
19.7861316997
 21
30.0916907182
  0
LINE
  5
220
100
AcDbEntity
  8
0
100
AcDbLine
 62
7
  6
BYLAYER
 10
17.7984282439
 20
31.9697892683
 11
19.5308470705
 21
30.9695994197
  0
LINE
  5
221
100
AcDbEntity
  8
0
100
AcDbLine
 62
7
  6
BYLAYER
 10
37.2793011717
 20
20.7227564813
 11
39.0117199983
 21
19.7225666327
  0
LINE
  5
222
100
AcDbEntity
  8
0
100
AcDbLine
 62
7
  6
BYLAYER
 10
19.5308470705
 20
31.5453353624
 11
37.2793011717
 21
21.298492424
  0
LINE
  5
223
100
AcDbEntity
  8
0
100
AcDbLine
 62
7
  6
BYLAYER
 10
19.8930556663
 20
30.0079501279
 11
19.7861316997
 21
30.0916907181
  0
LINE
  5
224
100
AcDbEntity
  8
0
100
AcDbLine
 62
7
  6
BYLAYER
 10
19.7861316997
 20
30.0916907181
 11
17.7984282439
 21
31.9697892683
  0
LINE
  5
225
100
AcDbEntity
  8
0
100
AcDbLine
 62
7
  6
BYLAYER
 10
19.5308470705
 20
30.9695994197
 11
20.6410018613
 21
29.9206602045
  0
LINE
  5
226
100
AcDbEntity
  8
0
100
AcDbLine
 62
7
  6
BYLAYER
 10
42.5085199972
 20
20.1894176378
 11
41.8073298796
 21
20.5942407826
  0
LINE
  5
227
100
AcDbEntity
  8
0
100
AcDbLine
 62
7
  6
BYLAYER
 10
41.8073298796
 20
20.9242348882
 11
41.8401353471
 21
20.9052950712
  0
LINE
  5
228
100
AcDbEntity
  8
0
100
AcDbLine
 62
7
  6
BYLAYER
 10
39.3739285941
 20
18.7609173409
 11
39.2670046275
 21
18.8446579311
  0
LINE
  5
229
100
AcDbEntity
  8
0
100
AcDbLine
 62
7
  6
BYLAYER
 10
40.9994234541
 20
17.8444680826
 11
41.1063478328
 21
17.7607282034
  0
LINE
  5
22A
100
AcDbEntity
  8
0
100
AcDbLine
 62
7
  6
BYLAYER
 10
39.2670046275
 20
18.8446579311
 11
37.2793011717
 21
20.7227564813
  0
LINE
  5
22B
100
AcDbEntity
  8
0
100
AcDbLine
 62
7
  6
BYLAYER
 10
39.0117199983
 20
19.7225666327
 11
40.9994234541
 21
17.8444680826
  0
LINE
  5
22C
100
AcDbEntity
  8
0
100
AcDbLine
 62
7
  6
BYLAYER
 10
28.6159872323
 20
13.0713658065
 11
26.2250821572
 21
18.2228908198
  0
LINE
  5
22D
100
AcDbEntity
  8
0
100
AcDbLine
 62
7
  6
BYLAYER
 10
53.3410391504
 20
111.0257442976
 11
67.8313177845
 21
119.3916606299
  0
LINE
  5
22E
100
AcDbEntity
  8
0
100
AcDbLine
 62
7
  6
BYLAYER
 10
56.6327177109
 20
109.1253357876
 11
54.8083898109
 21
108.0720658706
  0
LINE
  5
22F
100
AcDbEntity
  8
0
100
AcDbLine
 62
7
  6
BYLAYER
 10
17.7984282439
 20
107.0513707741
 11
17.7984282439
 21
80.9232934259
  0
LINE
  5
230
100
AcDbEntity
  8
0
100
AcDbLine
 62
7
  6
BYLAYER
 10
17.7984282439
 20
80.7599929425
 11
17.7984282439
 21
78.2696605703
  0
LINE
  5
231
100
AcDbEntity
  8
0
100
AcDbLine
 62
7
  6
BYLAYER
 10
17.7984282439
 20
68.4716315647
 11
17.7984282439
 21
31.9697892683
  0
LINE
  5
232
100
AcDbEntity
  8
0
100
AcDbLine
 62
7
  6
BYLAYER
 10
56.6327476216
 20
104.977592453
 11
39.0117199983
 21
94.8041481385
  0
LINE
  5
233
100
AcDbEntity
  8
0
100
AcDbLine
 62
7
  6
BYLAYER
 10
26.2250821572
 20
18.2228908198
 11
26.0888880258
 21
18.8206085034
  0
LINE
  5
234
100
AcDbEntity
  8
0
100
AcDbLine
 62
7
  6
BYLAYER
 10
19.5308470705
 20
31.5453353624
 11
19.5308470705
 21
30.9695994197
  0
LINE
  5
235
100
AcDbEntity
  8
0
100
AcDbLine
 62
7
  6
BYLAYER
 10
20.6268435927
 20
70.0667282308
 11
20.6268435927
 21
70.1046081802
  0
LINE
  5
236
100
AcDbEntity
  8
0
100
AcDbLine
 62
7
  6
BYLAYER
 10
20.6410018613
 20
27.8588211259
 11
20.6410018613
 21
30.904401695
  0
LINE
  5
237
100
AcDbEntity
  8
0
100
AcDbLine
 62
7
  6
BYLAYER
 10
21.4824392358
 20
70.5985836064
 11
21.4824392358
 21
76.1427439497
  0
LINE
  5
238
100
AcDbEntity
  8
0
100
AcDbLine
 62
7
  6
BYLAYER
 10
17.9337838819
 20
80.8381400901
 11
17.7984282439
 21
80.7599929425
  0
LINE
  5
239
100
AcDbEntity
  8
0
100
AcDbLine
 62
7
  6
BYLAYER
 10
60.2248351147
 20
104.6019655032
 11
56.6327476216
 21
102.5280852016
  0
LINE
  5
23A
100
AcDbEntity
  8
0
100
AcDbLine
 62
7
  6
BYLAYER
 10
60.2248351147
 20
101.1436962443
 11
73.8312909233
 21
108.9993402762
  0
LINE
  5
23B
100
AcDbEntity
  8
0
100
AcDbLine
 62
7
  6
BYLAYER
 10
23.2539847581
 20
75.1199648038
 11
23.2539847581
 21
72.1732289298
  0
LINE
  5
23C
100
AcDbEntity
  8
0
100
AcDbLine
 62
7
  6
BYLAYER
 10
24.0563493114
 20
81.7603009218
 11
24.0563493114
 21
78.4942912533
  0
LINE
  5
23D
100
AcDbEntity
  8
0
100
AcDbLine
 62
7
  6
BYLAYER
 10
24.1270596951
 20
81.7194771863
 11
24.1270596951
 21
78.5351156687
  0
LINE
  5
23E
100
AcDbEntity
  8
0
100
AcDbLine
 62
7
  6
BYLAYER
 10
24.5159706328
 20
74.3505482815
 11
24.5159706328
 21
66.6346004396
  0
LINE
  5
23F
100
AcDbEntity
  8
0
100
AcDbLine
 62
7
  6
BYLAYER
 10
26.088781152
 20
18.8206085435
 11
26.088781152
 21
24.7136154399
  0
LINE
  5
240
100
AcDbEntity
  8
0
100
AcDbLine
 62
7
  6
BYLAYER
 10
26.2250821572
 20
18.2228908197
 11
26.2250821572
 21
24.6349237982
  0
LINE
  5
241
100
AcDbEntity
  8
0
100
AcDbLine
 62
7
  6
BYLAYER
 10
24.1270596951
 20
78.5351156687
 11
24.0563493114
 21
78.4942912533
  0
LINE
  5
242
100
AcDbEntity
  8
0
100
AcDbLine
 62
7
  6
BYLAYER
 10
28.6159872323
 20
23.2545653373
 11
28.6159872323
 21
13.0713658065
  0
LINE
  5
243
100
AcDbEntity
  8
0
100
AcDbLine
 62
7
  6
BYLAYER
 10
24.55132673
 20
74.3709610119
 11
24.5159706328
 21
74.3505482815
  0
LINE
  5
244
100
AcDbEntity
  8
0
100
AcDbLine
 62
7
  6
BYLAYER
 10
24.5159706328
 20
72.901832465
 11
23.2539847581
 21
72.1732289298
  0
LINE
  5
245
100
AcDbEntity
  8
0
100
AcDbLine
 62
7
  6
BYLAYER
 10
20.5940381252
 20
70.0856680478
 11
17.7984282439
 21
68.4716315647
  0
LINE
  5
246
100
AcDbEntity
  8
0
100
AcDbLine
 62
7
  6
BYLAYER
 10
20.6268435927
 20
70.1046081802
 11
21.4824392358
 21
70.5985836064
  0
LINE
  5
247
100
AcDbEntity
  8
0
100
AcDbLine
 62
7
  6
BYLAYER
 10
31.4444261328
 20
11.4384027884
 11
31.4444261328
 21
21.6216023192
  0
LINE
  5
248
100
AcDbEntity
  8
0
100
AcDbLine
 62
7
  6
BYLAYER
 10
32.2941776094
 20
62.1439521399
 11
32.2941776094
 21
69.8598999817
  0
LINE
  5
249
100
AcDbEntity
  8
0
100
AcDbLine
 62
7
  6
BYLAYER
 10
32.7537989307
 20
73.4729299727
 11
32.7537989307
 21
76.7389396412
  0
LINE
  5
24A
100
AcDbEntity
  8
0
100
AcDbLine
 62
7
  6
BYLAYER
 10
33.1921994826
 20
62.6624222153
 11
33.1921994826
 21
69.3822636615
  0
LINE
  5
24B
100
AcDbEntity
  8
0
100
AcDbLine
 62
7
  6
BYLAYER
 10
33.2111018608
 20
69.3713506153
 11
33.2111018608
 21
62.6515091691
  0
LINE
  5
24C
100
AcDbEntity
  8
0
100
AcDbLine
 62
7
  6
BYLAYER
 10
27.1965002359
 20
66.9912880365
 11
27.0576272386
 21
66.9052263625
  0
LINE
  5
24D
100
AcDbEntity
  8
0
100
AcDbLine
 62
7
  6
BYLAYER
 10
22.5173765776
 20
68.9752531955
 11
22.5501820451
 21
68.9941933279
  0
LINE
  5
24E
100
AcDbEntity
  8
0
100
AcDbLine
 62
7
  6
BYLAYER
 10
24.5159859065
 20
66.6345739845
 11
22.7481963199
 21
65.6139462831
  0
LINE
  5
24F
100
AcDbEntity
  8
0
100
AcDbLine
 62
7
  6
BYLAYER
 10
27.1493175422
 20
66.7473749643
 11
27.0608207417
 21
66.9006559147
  0
LINE
  5
250
100
AcDbEntity
  8
0
100
AcDbLine
 62
7
  6
BYLAYER
 10
27.4087020573
 20
67.1138238598
 11
27.5086993952
 21
66.9406243514
  0
LINE
  5
251
100
AcDbEntity
  8
0
100
AcDbLine
 62
7
  6
BYLAYER
 10
29.6608251584
 20
68.3999052319
 11
29.7483892976
 21
68.2482413656
  0
LINE
  5
252
100
AcDbEntity
  8
0
100
AcDbLine
 62
7
  6
BYLAYER
 10
35.9970909794
 20
67.7628954358
 11
35.9970909794
 21
64.2599911353
  0
LINE
  5
253
100
AcDbEntity
  8
0
100
AcDbLine
 62
7
  6
BYLAYER
 10
37.2793011717
 20
21.298492424
 11
37.2793011717
 21
20.7227564813
  0
LINE
  5
254
100
AcDbEntity
  8
0
100
AcDbLine
 62
7
  6
BYLAYER
 10
37.9651901274
 20
17.8569226401
 11
37.9651901274
 21
20.0746884561
  0
LINE
  5
255
100
AcDbEntity
  8
0
100
AcDbLine
 62
7
  6
BYLAYER
 10
27.1974614826
 20
66.9918430284
 11
29.654675363
 21
68.4105566856
  0
LINE
  5
256
100
AcDbEntity
  8
0
100
AcDbLine
 62
7
  6
BYLAYER
 10
32.3295337066
 20
69.8803127121
 11
32.2941776094
 21
69.8598999817
  0
LINE
  5
257
100
AcDbEntity
  8
0
100
AcDbLine
 62
7
  6
BYLAYER
 10
29.7546544174
 20
68.23739017
 11
27.2974423081
 21
66.8186775354
  0
LINE
  5
258
100
AcDbEntity
  8
0
100
AcDbLine
 62
7
  6
BYLAYER
 10
27.2964787163
 20
66.8181211895
 11
27.1525254047
 21
66.7408588297
  0
LINE
  5
259
100
AcDbEntity
  8
0
100
AcDbLine
 62
7
  6
BYLAYER
 10
39.0117199983
 20
56.2244089291
 11
34.0619520798
 21
59.0820941198
  0
LINE
  5
25A
100
AcDbEntity
  8
0
100
AcDbLine
 62
7
  6
BYLAYER
 10
22.7481963199
 20
65.6139462831
 11
17.7984282439
 21
68.4716315647
  0
LINE
  5
25B
100
AcDbEntity
  8
0
100
AcDbLine
 62
7
  6
BYLAYER
 10
34.9599744033
 20
59.6005639353
 11
34.9788761737
 21
59.5896512399
  0
LINE
  5
25C
100
AcDbEntity
  8
0
100
AcDbLine
 62
7
  6
BYLAYER
 10
41.8073298796
 20
57.8384454122
 11
39.8839914272
 21
58.9488602645
  0
LINE
  5
25D
100
AcDbEntity
  8
0
100
AcDbLine
 62
7
  6
BYLAYER
 10
22.5173765776
 20
68.9752531955
 11
20.5940381252
 21
70.0856680478
  0
LINE
  5
25E
100
AcDbEntity
  8
0
100
AcDbLine
 62
7
  6
BYLAYER
 10
41.8401353471
 20
57.8573855446
 11
39.9167968947
 21
58.9678003969
  0
LINE
  5
25F
100
AcDbEntity
  8
0
100
AcDbLine
 62
7
  6
BYLAYER
 10
20.6268435927
 20
70.1046081802
 11
22.5501820451
 21
68.9941933279
  0
LINE
  5
260
100
AcDbEntity
  8
0
100
AcDbLine
 62
7
  6
BYLAYER
 10
39.0117199983
 20
56.2244089291
 11
39.0117199983
 21
19.7225666327
  0
LINE
  5
261
100
AcDbEntity
  8
0
100
AcDbLine
 62
7
  6
BYLAYER
 10
39.0117199983
 20
66.0224379347
 11
39.0117199983
 21
94.8041481385
  0
LINE
  5
262
100
AcDbEntity
  8
0
100
AcDbLine
 62
7
  6
BYLAYER
 10
39.9167968947
 20
58.9678003969
 11
39.9167968947
 21
58.9299204474
  0
LINE
  5
263
100
AcDbEntity
  8
0
100
AcDbLine
 62
7
  6
BYLAYER
 10
40.3672766601
 20
18.1869420284
 11
40.3672766601
 21
10.0580757293
  0
LINE
  5
264
100
AcDbEntity
  8
0
100
AcDbLine
 62
7
  6
BYLAYER
 10
40.9241854678
 20
65.6251305475
 11
40.9241854678
 21
61.9715645859
  0
LINE
  5
265
100
AcDbEntity
  8
0
100
AcDbLine
 62
7
  6
BYLAYER
 10
41.8073298796
 20
57.8384454122
 11
41.8073298796
 21
20.119959533
  0
LINE
  5
266
100
AcDbEntity
  8
0
100
AcDbLine
 62
7
  6
BYLAYER
 10
41.8401353471
 20
20.9052950712
 11
41.8401353471
 21
57.8573855446
  0
LINE
  5
267
100
AcDbEntity
  8
0
100
AcDbLine
 62
7
  6
BYLAYER
 10
42.6957309902
 20
58.3513609708
 11
42.6957309902
 21
68.1493899763
  0
LINE
  5
268
100
AcDbEntity
  8
0
100
AcDbLine
 62
7
  6
BYLAYER
 10
60.2248351147
 20
80.9233954065
 11
39.0117199983
 21
68.6760707903
  0
LINE
  5
269
100
AcDbEntity
  8
0
100
AcDbLine
 62
7
  6
BYLAYER
 10
39.0117199983
 20
68.5127703069
 11
60.2248351147
 21
80.7600949231
  0
LINE
  5
26A
100
AcDbEntity
  8
0
100
AcDbLine
 62
7
  6
BYLAYER
 10
39.0117199983
 20
66.0224379347
 11
42.6957309902
 21
68.1493899763
  0
LINE
  5
26B
100
AcDbEntity
  8
0
100
AcDbLine
 62
7
  6
BYLAYER
 10
33.1921994826
 20
62.6624222153
 11
32.2941776094
 21
62.1439521399
  0
LINE
  5
26C
100
AcDbEntity
  8
0
100
AcDbLine
 62
7
  6
BYLAYER
 10
35.9970909794
 20
64.2599911353
 11
33.2111018608
 21
62.6515091691
  0
LINE
  5
26D
100
AcDbEntity
  8
0
100
AcDbLine
 62
7
  6
BYLAYER
 10
21.4824392358
 20
70.5985836064
 11
24.5159706328
 21
68.847213059
  0
LINE
  5
26E
100
AcDbEntity
  8
0
100
AcDbLine
 62
7
  6
BYLAYER
 10
37.7648652923
 20
61.1981332062
 11
42.6957309902
 21
58.3513609708
  0
LINE
  5
26F
100
AcDbEntity
  8
0
100
AcDbLine
 62
7
  6
BYLAYER
 10
44.230975655
 20
10.6557934531
 11
44.230975655
 21
20.1730028761
  0
LINE
  5
270
100
AcDbEntity
  8
0
100
AcDbLine
 62
7
  6
BYLAYER
 10
38.5494652022
 20
63.4223936967
 11
40.9241854678
 21
64.7934308973
  0
LINE
  5
271
100
AcDbEntity
  8
0
100
AcDbLine
 62
7
  6
BYLAYER
 10
34.0619520798
 20
59.0820941198
 11
34.9599744033
 21
59.6005639353
  0
LINE
  5
272
100
AcDbEntity
  8
0
100
AcDbLine
 62
7
  6
BYLAYER
 10
34.9788761737
 20
59.5896512399
 11
37.7648652923
 21
61.1981332062
  0
LINE
  5
273
100
AcDbEntity
  8
0
100
AcDbLine
 62
7
  6
BYLAYER
 10
32.2941776094
 20
69.8598999817
 11
24.5159706328
 21
74.3505482815
  0
LINE
  5
274
100
AcDbEntity
  8
0
100
AcDbLine
 62
7
  6
BYLAYER
 10
17.7984282439
 20
78.2696605703
 11
39.0117199983
 21
66.0224379347
  0
LINE
  5
275
100
AcDbEntity
  8
0
100
AcDbLine
 62
7
  6
BYLAYER
 10
17.7984282439
 20
80.7599929425
 11
39.0117199983
 21
68.5127703069
  0
LINE
  5
276
100
AcDbEntity
  8
0
100
AcDbLine
 62
7
  6
BYLAYER
 10
39.0117199983
 20
68.6760707903
 11
17.7984282439
 21
80.9232934259
  0
LINE
  5
277
100
AcDbEntity
  8
0
100
AcDbLine
 62
7
  6
BYLAYER
 10
50.7629211071
 20
23.0003091151
 11
50.7629211071
 21
14.4269914072
  0
LINE
  5
278
100
AcDbEntity
  8
0
100
AcDbLine
 62
7
  6
BYLAYER
 10
39.8839914272
 20
58.9488602645
 11
39.9167968947
 21
58.9678003969
  0
LINE
  5
279
100
AcDbEntity
  8
0
100
AcDbLine
 62
7
  6
BYLAYER
 10
41.8073298796
 20
57.8384454122
 11
39.0117199983
 21
56.2244089291
  0
LINE
  5
27A
100
AcDbEntity
  8
0
100
AcDbLine
 62
7
  6
BYLAYER
 10
41.8401353471
 20
57.8573855446
 11
42.6957309902
 21
58.3513609708
  0
LINE
  5
27B
100
AcDbEntity
  8
0
100
AcDbLine
 62
7
  6
BYLAYER
 10
24.0563493114
 20
78.4942912533
 11
32.7537989307
 21
73.4729299727
  0
LINE
  5
27C
100
AcDbEntity
  8
0
100
AcDbLine
 62
7
  6
BYLAYER
 10
24.1270596951
 20
78.5351156687
 11
32.7537989307
 21
73.5545781236
  0
LINE
  5
27D
100
AcDbEntity
  8
0
100
AcDbLine
 62
7
  6
BYLAYER
 10
32.7537989307
 20
76.7389396412
 11
24.0563493114
 21
81.7603009218
  0
LINE
  5
27E
100
AcDbEntity
  8
0
100
AcDbLine
 62
7
  6
BYLAYER
 10
51.9344822065
 20
16.0599544253
 11
51.9344822065
 21
23.6767061937
  0
LINE
  5
27F
100
AcDbEntity
  8
0
100
AcDbLine
 62
7
  6
BYLAYER
 10
54.8083898109
 20
106.76135566
 11
54.8083898109
 21
108.0720658706
  0
LINE
  5
280
100
AcDbEntity
  8
0
100
AcDbLine
 62
7
  6
BYLAYER
 10
56.6327177109
 20
109.1253357876
 11
56.6327177109
 21
107.3742592533
  0
LINE
  5
281
100
AcDbEntity
  8
0
100
AcDbLine
 62
7
  6
BYLAYER
 10
56.6327476216
 20
104.977592453
 11
56.6327476216
 21
102.5280852016
  0
LINE
  5
282
100
AcDbEntity
  8
0
100
AcDbLine
 62
7
  6
BYLAYER
 10
58.5761641238
 20
106.2349615672
 11
58.5761641238
 21
104.6019567329
  0
LINE
  5
283
100
AcDbEntity
  8
0
100
AcDbLine
 62
7
  6
BYLAYER
 10
60.2248351147
 20
28.4631151059
 11
60.2248351147
 21
80.7600949231
  0
LINE
  5
284
100
AcDbEntity
  8
0
100
AcDbLine
 62
7
  6
BYLAYER
 10
60.2248351147
 20
80.9233954065
 11
60.2248351147
 21
104.6019655032
  0
LINE
  5
285
100
AcDbEntity
  8
0
100
AcDbLine
 62
7
  6
BYLAYER
 10
60.1248349792
 20
80.784009563
 11
60.2248351147
 21
80.7600949231
  0
LINE
  5
286
100
AcDbEntity
  8
0
100
AcDbLine
 62
7
  6
BYLAYER
 10
60.2248351147
 20
80.7600949231
 11
60.0894779176
 21
80.8382416693
  0
LINE
  5
287
100
AcDbEntity
  8
0
100
AcDbLine
 62
7
  6
BYLAYER
 10
17.8984287785
 20
80.7839035683
 11
17.7984282439
 21
80.7599929425
  0
LINE
  5
288
100
AcDbEntity
  8
0
100
AcDbLine
 62
7
  6
BYLAYER
 10
39.0117199983
 20
94.8041481385
 11
17.7984282439
 21
107.0513707741
  0
LINE
  5
289
100
AcDbEntity
  8
0
100
AcDbLine
 62
7
  6
BYLAYER
 10
37.9651901274
 20
17.8569226401
 11
39.4520326528
 21
18.7153464483
  0
LINE
  5
28A
100
AcDbEntity
  8
0
100
AcDbLine
 62
7
  6
BYLAYER
 10
42.2568649468
 20
20.334707462
 11
42.7581419752
 21
20.6241181617
  0
LINE
  5
28B
100
AcDbEntity
  8
0
100
AcDbLine
 62
7
  6
BYLAYER
 10
60.2248351147
 20
28.4631151059
 11
45.2991644441
 21
19.8458265647
  0
LINE
  5
28C
100
AcDbEntity
  8
0
100
AcDbLine
 62
7
  6
BYLAYER
 10
56.6327476216
 20
104.977592453
 11
54.8084045308
 21
106.0308535996
  0
LINE
  5
28D
100
AcDbEntity
  8
0
100
AcDbLine
 62
7
  6
BYLAYER
 10
35.4194558672
 20
117.2248150886
 11
37.2437989581
 21
116.1715539419
  0
LINE
  5
28E
100
AcDbEntity
  8
0
100
AcDbLine
 62
7
  6
BYLAYER
 10
60.2248351147
 20
104.6019655032
 11
58.5761641238
 21
105.5538046102
  0
LINE
  5
28F
100
AcDbEntity
  8
0
100
AcDbLine
 62
7
  6
BYLAYER
 10
44.230975655
 20
10.6557934531
 11
50.7629211071
 21
14.4269914072
  0
LINE
  5
290
100
AcDbEntity
  8
0
100
AcDbLine
 62
7
  6
BYLAYER
 10
56.6327177109
 20
109.1253357876
 11
42.603660764
 21
117.2248323573
  0
ARC
  5
291
100
AcDbEntity
  8
0
100
AcDbCircle
 62
7
  6
BYLAYER
 10
31.0366655907
 20
69.1023763886
 40
4.5450529765
100
AcDbArc
 50
211.2079767771
 51
211.715475977
  0
ARC
  5
292
100
AcDbEntity
  8
0
100
AcDbCircle
 62
7
  6
BYLAYER
 10
71.3225275381
 20
115.8438425401
 40
3.3193263087
100
AcDbArc
 50
174.125720525
 51
178.1110010908
  0
ARC
  5
293
100
AcDbEntity
  8
0
100
AcDbCircle
 62
7
  6
BYLAYER
 10
67.6723394115
 20
117.6168660036
 40
1.7140332222
100
AcDbArc
 50
296.7908915891
 51
297.6776440728
  0
ARC
  5
294
100
AcDbEntity
  8
0
100
AcDbCircle
 62
7
  6
BYLAYER
 10
67.6985575575
 20
117.5673714428
 40
1.6580238573
100
AcDbArc
 50
297.669762373
 51
299.9903662941
  0
ARC
  5
295
100
AcDbEntity
  8
0
100
AcDbCircle
 62
7
  6
BYLAYER
 10
40.0745278499
 20
63.344030665
 40
1.5270746032
100
AcDbArc
 50
177.0585301804
 51
180.0108864231
  0
ARC
  5
296
100
AcDbEntity
  8
0
100
AcDbCircle
 62
7
  6
BYLAYER
 10
27.690310087
 20
69.1419572462
 40
0.884487935
100
AcDbArc
 50
125.2073478113
 51
130.2886692472
  0
ARC
  5
297
100
AcDbEntity
  8
0
100
AcDbCircle
 62
7
  6
BYLAYER
 10
27.5435497917
 20
69.0643237832
 40
0.8782535911
100
AcDbArc
 50
109.6323705984
 51
119.9501162186
  0
ARC
  5
298
100
AcDbEntity
  8
0
100
AcDbCircle
 62
7
  6
BYLAYER
 10
29.2658833657
 20
66.0812346847
 40
0.8771276176
100
AcDbArc
 50
300.0464521424
 51
310.3023862509
  0
ARC
  5
299
100
AcDbEntity
  8
0
100
AcDbCircle
 62
7
  6
BYLAYER
 10
29.3724301501
 20
88.3554368712
 40
0.8512546527
100
AcDbArc
 50
290.034274537
 51
291.3246726286
  0
ARC
  5
29A
100
AcDbEntity
  8
0
100
AcDbCircle
 62
7
  6
BYLAYER
 10
29.2315888212
 20
88.267572426
 40
0.845444644
100
AcDbArc
 50
300.0576097215
 51
309.5538602985
  0
ARC
  5
29B
100
AcDbEntity
  8
0
100
AcDbCircle
 62
7
  6
BYLAYER
 10
27.5752148653
 20
91.1381486474
 40
0.8402917024
100
AcDbArc
 50
110.1270194752
 51
119.9974718664
  0
ARC
  5
29C
100
AcDbEntity
  8
0
100
AcDbCircle
 62
7
  6
BYLAYER
 10
40.3372909243
 20
116.3761834322
 40
0.6742320532
100
AcDbArc
 50
351.7954420331
 51
359.9556867925
  0
ARC
  5
29D
100
AcDbEntity
  8
0
100
AcDbCircle
 62
7
  6
BYLAYER
 10
37.6798438994
 20
116.3754483878
 40
0.668249607
100
AcDbArc
 50
179.9816981301
 51
186.2183765713
  0
ARC
  5
29E
100
AcDbEntity
  8
0
100
AcDbCircle
 62
7
  6
BYLAYER
 10
55.2441798339
 20
106.2346891432
 40
0.6679799903
100
AcDbArc
 50
178.293127622
 51
179.9766384089
  0
SPLINE
  5
29F
100
AcDbEntity
  8
0
100
AcDbSpline
 62
7
  6
BYLAYER
 70
0
 71
3
 72
12
 73
8
 74
0
 42
0.0000001
 43
0.0000001
 44
0.0000000001
 40
0.0
 40
0.0
 40
0.0
 40
0.0
 40
0.1081583478
 40
0.2183513804
 40
0.4513521427
 40
0.7104248422
 40
1.0
 40
1.0
 40
1.0
 40
1.0
 10
51.9344843449
 20
16.0599544641
 30
0.0
 10
51.9344816675
 20
15.9842326326
 30
0.0
 10
51.9213172028
 20
15.8310462596
 30
0.0
 10
51.8417056139
 20
15.5239459689
 30
0.0
 10
51.6374698792
 20
15.1473373539
 30
0.0
 10
51.2569612135
 20
14.74771248
 30
0.0
 10
50.9384924565
 20
14.528356968
 30
0.0
 10
50.7629211071
 20
14.4269914072
 30
0.0
  0
SPLINE
  5
2A0
100
AcDbEntity
  8
0
100
AcDbSpline
 62
7
  6
BYLAYER
 70
0
 71
3
 72
10
 73
6
 74
0
 42
0.0000001
 43
0.0000001
 44
0.0000000001
 40
0.0
 40
0.0
 40
0.0
 40
0.0
 40
0.52455989
 40
0.7720032313
 40
1.0
 40
1.0
 40
1.0
 40
1.0
 10
40.515498067
 20
66.8965998136
 30
0.0
 10
40.6416200593
 20
66.6970976737
 30
0.0
 10
40.7936015451
 20
66.3792175747
 30
0.0
 10
40.9035267217
 20
65.9418975456
 30
0.0
 10
40.9241854678
 20
65.7277174349
 30
0.0
 10
40.9241854678
 20
65.6251305475
 30
0.0
  0
SPLINE
  5
2A1
100
AcDbEntity
  8
0
100
AcDbSpline
 62
7
  6
BYLAYER
 70
0
 71
3
 72
17
 73
13
 74
0
 42
0.0000001
 43
0.0000001
 44
0.0000000001
 40
0.0
 40
0.0
 40
0.0
 40
0.0
 40
0.0432260492
 40
0.0890329499
 40
0.1384545554
 40
0.1920406423
 40
0.3117856681
 40
0.4461454946
 40
0.5894335944
 40
0.7343724878
 40
0.8734187392
 40
1.0
 40
1.0
 40
1.0
 40
1.0
 10
27.2860683786
 20
91.9271254876
 30
0.0
 10
27.3515194696
 20
91.9511241736
 30
0.0
 10
27.4928636467
 20
91.9839982328
 30
0.0
 10
27.7176328685
 20
91.9857331065
 30
0.0
 10
27.9548476987
 20
91.9416768764
 30
0.0
 10
28.294048597
 20
91.8196014964
 30
0.0
 10
28.719891481
 20
91.5544643165
 30
0.0
 10
29.1862997078
 20
91.1101596504
 30
0.0
 10
29.5941324841
 20
90.5602267735
 30
0.0
 10
29.9126925608
 20
89.9457870666
 30
0.0
 10
30.1182263311
 20
89.3132657804
 30
0.0
 10
30.1728484339
 20
88.8843912934
 30
0.0
 10
30.1728484339
 20
88.6802493345
 30
0.0
  0
SPLINE
  5
2A2
100
AcDbEntity
  8
0
100
AcDbSpline
 62
7
  6
BYLAYER
 70
0
 71
3
 72
9
 73
5
 74
0
 42
0.0000001
 43
0.0000001
 44
0.0000000001
 40
0.0
 40
0.0
 40
0.0
 40
0.0
 40
0.2390383737
 40
1.0
 40
1.0
 40
1.0
 40
1.0
 10
65.881578369
 20
116.2368200894
 30
0.0
 10
65.9021065324
 20
116.2249697475
 30
0.0
 10
65.9889129403
 20
116.1770086072
 30
0.0
 10
66.0790459303
 20
116.1351696033
 30
0.0
 10
66.1487649307
 20
116.1063073319
 30
0.0
  0
SPLINE
  5
2A3
100
AcDbEntity
  8
0
100
AcDbSpline
 62
7
  6
BYLAYER
 70
0
 71
3
 72
11
 73
7
 74
0
 42
0.0000001
 43
0.0000001
 44
0.0000000001
 40
0.0
 40
0.0
 40
0.0
 40
0.0
 40
0.2560999131
 40
0.5191398557
 40
0.7696963263
 40
1.0
 40
1.0
 40
1.0
 40
1.0
 10
66.1487649307
 20
116.1063073319
 30
0.0
 10
66.334636225
 20
116.0293603346
 30
0.0
 10
66.7285839104
 20
115.9135863451
 30
0.0
 10
67.3320939315
 20
115.84377194
 30
0.0
 10
67.9188170227
 20
115.887372398
 30
0.0
 10
68.2834302561
 20
116.0052769043
 30
0.0
 10
68.4449152713
 20
116.0868214201
 30
0.0
  0
SPLINE
  5
2A4
100
AcDbEntity
  8
0
100
AcDbSpline
 62
7
  6
BYLAYER
 70
0
 71
3
 72
9
 73
5
 74
0
 42
0.0000001
 43
0.0000001
 44
0.0000000001
 40
0.0
 40
0.0
 40
0.0
 40
0.0
 40
0.2632039633
 40
1.0
 40
1.0
 40
1.0
 40
1.0
 10
66.0702451308
 20
116.1312982086
 30
0.0
 10
66.0491672173
 20
116.1453600179
 30
0.0
 10
65.9706120147
 20
116.2009796029
 30
0.0
 10
65.8982907205
 20
116.2658494118
 30
0.0
 10
65.8513552805
 20
116.3190288699
 30
0.0
  0
SPLINE
  5
2A5
100
AcDbEntity
  8
0
100
AcDbSpline
 62
7
  6
BYLAYER
 70
0
 71
3
 72
10
 73
6
 74
0
 42
0.0000001
 43
0.0000001
 44
0.0000000001
 40
0.0
 40
0.0
 40
0.0
 40
0.0
 40
0.5221874489
 40
0.7642591505
 40
1.0
 40
1.0
 40
1.0
 40
1.0
 10
65.8513552805
 20
116.3190288699
 30
0.0
 10
65.7973254716
 20
116.3802464905
 30
0.0
 10
65.7294368814
 20
116.4821647403
 30
0.0
 10
65.6824196363
 20
116.632132033
 30
0.0
 10
65.6747171417
 20
116.7070807831
 30
0.0
 10
65.6747188976
 20
116.7439418322
 30
0.0
  0
SPLINE
  5
2A6
100
AcDbEntity
  8
0
100
AcDbSpline
 62
7
  6
BYLAYER
 70
0
 71
3
 72
11
 73
7
 74
0
 42
0.0000001
 43
0.0000001
 44
0.0000000001
 40
0.0
 40
0.0
 40
0.0
 40
0.0
 40
0.2222543714
 40
0.4573048447
 40
0.7149781861
 40
1.0
 40
1.0
 40
1.0
 40
1.0
 10
68.9168514381
 20
116.7439418341
 30
0.0
 10
68.9168488081
 20
116.6887314734
 30
0.0
 10
68.8989727145
 20
116.5744691904
 30
0.0
 10
68.8209761742
 20
116.4125888808
 30
0.0
 10
68.6962371449
 20
116.2630059984
 30
0.0
 10
68.5903282489
 20
116.1782425752
 30
0.0
 10
68.5318093383
 20
116.1383862576
 30
0.0
  0
SPLINE
  5
2A7
100
AcDbEntity
  8
0
100
AcDbSpline
 62
7
  6
BYLAYER
 70
0
 71
3
 72
21
 73
17
 74
0
 42
0.0000001
 43
0.0000001
 44
0.0000000001
 40
0.0
 40
0.0
 40
0.0
 40
0.0
 40
0.0428245059
 40
0.0874190343
 40
0.1352158034
 40
0.1871381588
 40
0.243600697
 40
0.3045747473
 40
0.3696887837
 40
0.4383157918
 40
0.5825458152
 40
0.7295848744
 40
0.8015930162
 40
0.8712101604
 40
0.937609684
 40
1.0
 40
1.0
 40
1.0
 40
1.0
 10
67.8313385324
 20
119.3916246932
 30
0.0
 10
67.9792566659
 20
119.477023202
 30
0.0
 10
68.305312627
 20
119.6125696699
 30
0.0
 10
68.8435703445
 20
119.6914570106
 30
0.0
 10
69.4215629565
 20
119.6488675154
 30
0.0
 10
70.0264882493
 20
119.4882038571
 30
0.0
 10
70.6464327231
 20
119.2141979733
 30
0.0
 10
71.2690456275
 20
118.8332547266
 30
0.0
 10
71.8818006229
 20
118.3536302544
 30
0.0
 10
72.6813689564
 20
117.5833578859
 30
0.0
 10
73.5697619503
 20
116.4457430179
 30
0.0
 10
74.2628288323
 20
115.165131922
 30
0.0
 10
74.6758500704
 20
114.0890710793
 30
0.0
 10
74.901514099
 20
113.2892995496
 30
0.0
 10
75.0401472723
 20
112.5088901284
 30
0.0
 10
75.0739627048
 20
111.9948917962
 30
0.0
 10
75.0739627048
 20
111.7460559259
 30
0.0
  0
SPLINE
  5
2A8
100
AcDbEntity
  8
0
100
AcDbSpline
 62
7
  6
BYLAYER
 70
0
 71
3
 72
17
 73
13
 74
0
 42
0.0000001
 43
0.0000001
 44
0.0000000001
 40
0.0
 40
0.0
 40
0.0
 40
0.0
 40
0.0428571351
 40
0.0874839364
 40
0.1353160071
 40
0.1872791416
 40
0.3045400115
 40
0.4382081091
 40
0.5825513186
 40
0.7297108723
 40
0.8713103985
 40
1.0
 40
1.0
 40
1.0
 40
1.0
 10
41.0115227758
 20
116.3756619735
 30
0.0
 10
41.0115456467
 20
116.4325932483
 30
0.0
 10
40.996301813
 20
116.5493027273
 30
0.0
 10
40.9293879798
 20
116.7178221937
 30
0.0
 10
40.8207569954
 20
116.8775767876
 30
0.0
 10
40.6163128002
 20
117.082796894
 30
0.0
 10
40.2679039382
 20
117.2948769124
 30
0.0
 10
39.7669609107
 20
117.4622135881
 30
0.0
 10
39.2047810815
 20
117.5412174786
 30
0.0
 10
38.6269358966
 20
117.5252320915
 30
0.0
 10
38.0806038942
 20
117.4159261221
 30
0.0
 10
37.7453871002
 20
117.2776184606
 30
0.0
 10
37.5973391009
 20
117.1921434185
 30
0.0
  0
SPLINE
  5
2A9
100
AcDbEntity
  8
0
100
AcDbSpline
 62
7
  6
BYLAYER
 70
0
 71
3
 72
17
 73
13
 74
0
 42
0.0000001
 43
0.0000001
 44
0.0000000001
 40
0.0
 40
0.0
 40
0.0
 40
0.0
 40
0.0428571351
 40
0.0874839364
 40
0.1353160071
 40
0.1872791416
 40
0.3045400115
 40
0.4382081091
 40
0.5825513186
 40
0.7297108723
 40
0.8713103985
 40
1.0
 40
1.0
 40
1.0
 40
1.0
 10
58.5761283485
 20
106.2349616312
 30
0.0
 10
58.5761512194
 20
106.291892906
 30
0.0
 10
58.5609073857
 20
106.4086023851
 30
0.0
 10
58.4939935525
 20
106.5771218514
 30
0.0
 10
58.385362568
 20
106.7368764453
 30
0.0
 10
58.1809183729
 20
106.9420965517
 30
0.0
 10
57.8325095108
 20
107.1541765701
 30
0.0
 10
57.3315664834
 20
107.3215132458
 30
0.0
 10
56.7693866542
 20
107.4005171363
 30
0.0
 10
56.1915414692
 20
107.3845317492
 30
0.0
 10
55.6452094669
 20
107.2752257798
 30
0.0
 10
55.3099926729
 20
107.1369181183
 30
0.0
 10
55.1619446735
 20
107.0514430762
 30
0.0
  0
SPLINE
  5
2AA
100
AcDbEntity
  8
0
100
AcDbSpline
 62
7
  6
BYLAYER
 70
0
 71
3
 72
11
 73
7
 74
0
 42
0.0000001
 43
0.0000001
 44
0.0000000001
 40
0.0
 40
0.0
 40
0.0
 40
0.0
 40
0.2895453772
 40
0.5491366158
 40
0.7822776227
 40
1.0
 40
1.0
 40
1.0
 40
1.0
 10
40.9241854678
 20
61.9715645859
 30
0.0
 10
40.9241854678
 20
61.8864594735
 30
0.0
 10
40.9111904273
 20
61.7245171598
 30
0.0
 10
40.8457241709
 20
61.5019771106
 30
0.0
 10
40.7352835573
 20
61.3213586665
 30
0.0
 10
40.631499604
 20
61.2342691071
 30
0.0
 10
40.5760793179
 20
61.2022710259
 30
0.0
  0
SPLINE
  5
2AB
100
AcDbEntity
  8
0
100
AcDbSpline
 62
7
  6
BYLAYER
 70
0
 71
3
 72
14
 73
10
 74
0
 42
0.0000001
 43
0.0000001
 44
0.0000000001
 40
0.0
 40
0.0
 40
0.0
 40
0.0
 40
0.091866904
 40
0.1915891657
 40
0.3019500257
 40
0.4238601938
 40
0.5567182409
 40
0.6988021319
 40
1.0
 40
1.0
 40
1.0
 40
1.0
 10
27.2484708535
 20
69.8915225444
 30
0.0
 10
27.3358002561
 20
69.9227114126
 30
0.0
 10
27.5290336936
 20
69.9590645245
 30
0.0
 10
27.8355601017
 20
69.9328555937
 30
0.0
 10
28.1573294864
 20
69.8315737586
 30
0.0
 10
28.4850671259
 20
69.6595594754
 30
0.0
 10
28.809568236
 20
69.4224802888
 30
0.0
 10
29.2327542428
 20
69.0220121689
 30
0.0
 10
29.503291569
 20
68.6599425086
 30
0.0
 10
29.6608251584
 20
68.3999052319
 30
0.0
  0
SPLINE
  5
2AC
100
AcDbEntity
  8
0
100
AcDbSpline
 62
7
  6
BYLAYER
 70
0
 71
3
 72
11
 73
7
 74
0
 42
0.0000001
 43
0.0000001
 44
0.0000000001
 40
0.0
 40
0.0
 40
0.0
 40
0.0
 40
0.2897033281
 40
0.5490895198
 40
0.7822165953
 40
1.0
 40
1.0
 40
1.0
 40
1.0
 10
24.5159706328
 20
66.6346004396
 30
0.0
 10
24.5159706328
 20
66.5079300786
 30
0.0
 10
24.4967655424
 20
66.2670298986
 30
0.0
 10
24.3992038597
 20
65.9360456753
 30
0.0
 10
24.2349423875
 20
65.6674706958
 30
0.0
 10
24.0806510068
 20
65.537758136
 30
0.0
 10
23.9981844865
 20
65.4901463889
 30
0.0
  0
SPLINE
  5
2AD
100
AcDbEntity
  8
0
100
AcDbSpline
 62
7
  6
BYLAYER
 70
0
 71
3
 72
11
 73
7
 74
0
 42
0.0000001
 43
0.0000001
 44
0.0000000001
 40
0.0
 40
0.0
 40
0.0
 40
0.0
 40
0.2856484636
 40
0.5455055235
 40
0.7814216939
 40
1.0
 40
1.0
 40
1.0
 40
1.0
 10
30.2435594065
 20
66.512209747
 30
0.0
 10
30.2435594065
 20
66.3971198112
 30
0.0
 10
30.2281254823
 20
66.1768043113
 30
0.0
 10
30.1514203612
 20
65.869459438
 30
0.0
 10
30.0228684112
 20
65.6091070474
 30
0.0
 10
29.9004139403
 20
65.4692383284
 30
0.0
 10
29.8332284043
 20
65.4123008579
 30
0.0
  0
SPLINE
  5
2AE
100
AcDbEntity
  8
0
100
AcDbSpline
 62
7
  6
BYLAYER
 70
0
 71
3
 72
10
 73
6
 74
0
 42
0.0000001
 43
0.0000001
 44
0.0000000001
 40
0.0
 40
0.0
 40
0.0
 40
0.0
 40
0.5249056195
 40
0.7712599003
 40
1.0
 40
1.0
 40
1.0
 40
1.0
 10
29.7483892976
 20
68.2482413656
 30
0.0
 10
29.901838187
 20
67.9690353109
 30
0.0
 10
30.0867563903
 20
67.5332011675
 30
0.0
 10
30.2191992199
 20
66.9397086123
 30
0.0
 10
30.2435594065
 20
66.6510449598
 30
0.0
 10
30.2435594065
 20
66.512209747
 30
0.0
  0
SPLINE
  5
2AF
100
AcDbEntity
  8
0
100
AcDbSpline
 62
7
  6
BYLAYER
 70
0
 71
3
 72
17
 73
13
 74
0
 42
0.0000001
 43
0.0000001
 44
0.0000000001
 40
0.0
 40
0.0
 40
0.0
 40
0.0
 40
0.0429118406
 40
0.0875587559
 40
0.1353802677
 40
0.1873450936
 40
0.3046062746
 40
0.438264428
 40
0.5825986827
 40
0.7297329408
 40
0.8713337954
 40
1.0
 40
1.0
 40
1.0
 40
1.0
 10
41.1061830629
 20
17.7604427983
 30
0.0
 10
41.1407998946
 20
17.7404590493
 30
0.0
 10
41.2170347326
 20
17.7086564112
 30
0.0
 10
41.3429178715
 20
17.6903123829
 30
0.0
 10
41.478020662
 20
17.7002528339
 30
0.0
 10
41.6742731032
 20
17.7526158274
 30
0.0
 10
41.9252091128
 20
17.8897717863
 30
0.0
 10
42.2024144112
 20
18.1353460615
 30
0.0
 10
42.447433525
 20
18.4490129126
 30
0.0
 10
42.6403202524
 20
18.8054827383
 30
0.0
 10
42.7654249103
 20
19.1755408712
 30
0.0
 10
42.7989751504
 20
19.4275682754
 30
0.0
 10
42.7989751504
 20
19.5474164994
 30
0.0
  0
SPLINE
  5
2B0
100
AcDbEntity
  8
0
100
AcDbSpline
 62
7
  6
BYLAYER
 70
0
 71
3
 72
11
 73
7
 74
0
 42
0.0000001
 43
0.0000001
 44
0.0000000001
 40
0.0
 40
0.0
 40
0.0
 40
0.0
 40
0.2895411595
 40
0.5491183966
 40
0.7822559144
 40
1.0
 40
1.0
 40
1.0
 40
1.0
 10
42.7989751504
 20
19.5474164994
 30
0.0
 10
42.7989751504
 20
19.6184326294
 30
0.0
 10
42.7881317043
 20
19.7535638674
 30
0.0
 10
42.7335037085
 20
19.9392578162
 30
0.0
 10
42.6413565575
 20
20.0899897958
 30
0.0
 10
42.5547323022
 20
20.1626469555
 30
0.0
 10
42.508480764
 20
20.1893496814
 30
0.0
  0
SPLINE
  5
2B1
100
AcDbEntity
  8
0
100
AcDbSpline
 62
7
  6
BYLAYER
 70
0
 71
3
 72
13
 73
9
 74
0
 42
0.0000001
 43
0.0000001
 44
0.0000000001
 40
0.0
 40
0.0
 40
0.0
 40
0.0
 40
0.2933244093
 40
0.4311936172
 40
0.5615662141
 40
0.6837005638
 40
0.7972899117
 40
1.0
 40
1.0
 40
1.0
 40
1.0
 10
31.4444261328
 20
11.4384027884
 30
0.0
 10
31.1176531286
 20
11.4889531836
 30
0.0
 10
30.6412627892
 20
11.5999279485
 30
0.0
 10
30.0493648001
 20
11.8265947121
 30
0.0
 10
29.6554320538
 20
12.0244787823
 30
0.0
 10
29.3087565693
 20
12.250685585
 30
0.0
 10
28.932575413
 20
12.5718284718
 30
0.0
 10
28.71218719
 20
12.8640901208
 30
0.0
 10
28.6159872323
 20
13.0713658065
 30
0.0
  0
SPLINE
  5
2B2
100
AcDbEntity
  8
0
100
AcDbSpline
 62
7
  6
BYLAYER
 70
0
 71
3
 72
11
 73
7
 74
0
 42
0.0000001
 43
0.0000001
 44
0.0000000001
 40
0.0
 40
0.0
 40
0.0
 40
0.0
 40
0.2279843853
 40
0.4775437832
 40
0.7387563792
 40
1.0
 40
1.0
 40
1.0
 40
1.0
 10
44.230975655
 20
10.6557934531
 30
0.0
 10
43.9693981726
 20
10.5047725247
 30
0.0
 10
43.3834979551
 20
10.2528186007
 30
0.0
 10
42.4264459757
 20
10.0298201666
 30
0.0
 10
41.4027204763
 20
9.9536014322
 30
0.0
 10
40.7093146685
 20
10.0051639029
 30
0.0
 10
40.3672766602
 20
10.0580757293
 30
0.0
  0
SPLINE
  5
2B3
100
AcDbEntity
  8
0
100
AcDbSpline
 62
7
  6
BYLAYER
 70
0
 71
3
 72
9
 73
5
 74
0
 42
0.0000001
 43
0.0000001
 44
0.0000000001
 40
0.0
 40
0.0
 40
0.0
 40
0.0
 40
0.2400045426
 40
1.0
 40
1.0
 40
1.0
 40
1.0
 10
60.0857615929
 20
80.827175299
 30
0.0
 10
60.087194344
 20
80.8226712236
 30
0.0
 10
60.0956128243
 20
80.8046300299
 30
0.0
 10
60.1118700861
 20
80.7914840385
 30
0.0
 10
60.1248365201
 20
80.7840090344
 30
0.0
  0
SPLINE
  5
2B4
100
AcDbEntity
  8
0
100
AcDbSpline
 62
7
  6
BYLAYER
 70
0
 71
3
 72
9
 73
5
 74
0
 42
0.0000001
 43
0.0000001
 44
0.0000000001
 40
0.0
 40
0.0
 40
0.0
 40
0.0
 40
0.2400552242
 40
1.0
 40
1.0
 40
1.0
 40
1.0
 10
17.9375040855
 20
80.8270789275
 30
0.0
 10
17.9360718554
 20
80.8225731073
 30
0.0
 10
17.927657258
 20
80.8045275648
 30
0.0
 10
17.9113957954
 20
80.7913801925
 30
0.0
 10
17.8984272415
 20
80.7839076532
 30
0.0
  0
SPLINE
  5
2B5
100
AcDbEntity
  8
0
100
AcDbSpline
 62
7
  6
BYLAYER
 70
0
 71
3
 72
11
 73
7
 74
0
 42
0.0000001
 43
0.0000001
 44
0.0000000001
 40
0.0
 40
0.0
 40
0.0
 40
0.0
 40
0.2858855959
 40
0.5458372722
 40
0.7815798934
 40
1.0
 40
1.0
 40
1.0
 40
1.0
 10
30.1728484339
 20
88.6802493345
 30
0.0
 10
30.1728484339
 20
88.5684709133
 30
0.0
 10
30.1576578518
 20
88.3545366229
 30
0.0
 10
30.0823920862
 20
88.0563708516
 30
0.0
 10
29.9560501093
 20
87.8045235413
 30
0.0
 10
29.8358317996
 20
87.6700768587
 30
0.0
 10
29.7699707577
 20
87.615712367
 30
0.0
  0
SPLINE
  5
2B6
100
AcDbEntity
  8
0
100
AcDbSpline
 62
7
  6
BYLAYER
 70
0
 71
3
 72
9
 73
5
 74
0
 42
0.0000001
 43
0.0000001
 44
0.0000000001
 40
0.0
 40
0.0
 40
0.0
 40
0.0
 40
0.2584857609
 40
1.0
 40
1.0
 40
1.0
 40
1.0
 10
54.8084045308
 20
106.0308535996
 30
0.0
 10
54.7829917112
 20
106.0455253659
 30
0.0
 10
54.6857678493
 20
106.1041335749
 30
0.0
 10
54.5930020326
 20
106.1702907091
 30
0.0
 10
54.5280543755
 20
106.2238431987
 30
0.0
  0
SPLINE
  5
2B7
100
AcDbEntity
  8
0
100
AcDbSpline
 62
7
  6
BYLAYER
 70
0
 71
3
 72
11
 73
7
 74
0
 42
0.0000001
 43
0.0000001
 44
0.0000000001
 40
0.0
 40
0.0
 40
0.0
 40
0.0
 40
0.2790806408
 40
0.534791697
 40
0.7723971245
 40
1.0
 40
1.0
 40
1.0
 40
1.0
 10
54.5280543755
 20
106.2238431987
 30
0.0
 10
54.4582370118
 20
106.2814109973
 30
0.0
 10
54.3324288509
 20
106.4021931712
 30
0.0
 10
54.1867119879
 20
106.6080505513
 30
0.0
 10
54.0967625316
 20
106.8261531609
 30
0.0
 10
54.0761765778
 20
106.9776649588
 30
0.0
 10
54.0761765985
 20
107.0514639843
 30
0.0
  0
SPLINE
  5
2B8
100
AcDbEntity
  8
0
100
AcDbSpline
 62
7
  6
BYLAYER
 70
0
 71
3
 72
15
 73
11
 74
0
 42
0.0000001
 43
0.0000001
 44
0.0000000001
 40
0.0
 40
0.0
 40
0.0
 40
0.0
 40
0.1141231812
 40
0.2373468278
 40
0.366971913
 40
0.4999994099
 40
0.6330269884
 40
0.76265231
 40
0.885876356
 40
1.0
 40
1.0
 40
1.0
 40
1.0
 10
40.779332864
 20
116.1715624403
 30
0.0
 10
40.6583491769
 20
116.1017128929
 30
0.0
 10
40.3936800822
 20
115.9785260905
 30
0.0
 10
39.9627809034
 20
115.8474739468
 30
0.0
 10
39.4961854158
 20
115.7669047073
 30
0.0
 10
39.0115691359
 20
115.739655823
 30
0.0
 10
38.5269524358
 20
115.7669023518
 30
0.0
 10
38.0603556719
 20
115.8474693424
 30
0.0
 10
37.6294544898
 20
115.9785194891
 30
0.0
 10
37.3647836396
 20
116.1017049837
 30
0.0
 10
37.2437989581
 20
116.1715539419
 30
0.0
  0
SPLINE
  5
2B9
100
AcDbEntity
  8
0
100
AcDbSpline
 62
7
  6
BYLAYER
 70
0
 71
3
 72
11
 73
7
 74
0
 42
0.0000001
 43
0.0000001
 44
0.0000000001
 40
0.0
 40
0.0
 40
0.0
 40
0.0
 40
0.289056008
 40
0.5486762645
 40
0.782262719
 40
1.0
 40
1.0
 40
1.0
 40
1.0
 10
55.1619446735
 20
107.0514430762
 30
0.0
 10
55.076003603
 20
107.0018252722
 30
0.0
 10
54.9197543986
 20
106.8945177836
 30
0.0
 10
54.7316873903
 20
106.6996675425
 30
0.0
 10
54.6102181187
 20
106.4843517333
 30
0.0
 10
54.5787224597
 20
106.329304091
 30
0.0
 10
54.5764962299
 20
106.2545856865
 30
0.0
  0
SPLINE
  5
2BA
100
AcDbEntity
  8
0
100
AcDbSpline
 62
7
  6
BYLAYER
 70
0
 71
3
 72
11
 73
7
 74
0
 42
0.0000001
 43
0.0000001
 44
0.0000000001
 40
0.0
 40
0.0
 40
0.0
 40
0.0
 40
0.2896428702
 40
0.5491125874
 40
0.7822368
 40
1.0
 40
1.0
 40
1.0
 40
1.0
 10
37.5973391009
 20
117.1921434185
 30
0.0
 10
37.5096008049
 20
117.1414879921
 30
0.0
 10
37.3504015915
 20
117.0317935779
 30
0.0
 10
37.1600876981
 20
116.8318509806
 30
0.0
 10
37.0396621807
 20
116.610608416
 30
0.0
 10
37.0116249258
 20
116.4518310689
 30
0.0
 10
37.0115943265
 20
116.3756618454
 30
0.0
  0
SPLINE
  5
2BB
100
AcDbEntity
  8
0
100
AcDbSpline
 62
7
  6
BYLAYER
 70
0
 71
3
 72
13
 73
9
 74
0
 42
0.0000001
 43
0.0000001
 44
0.0000000001
 40
0.0
 40
0.0
 40
0.0
 40
0.0
 40
0.2893749272
 40
0.5483115486
 40
0.6677415806
 40
0.7817668627
 40
0.8919062309
 40
1.0
 40
1.0
 40
1.0
 40
1.0
 10
75.0739627048
 20
111.7460559259
 30
0.0
 10
75.0739627048
 20
111.4419707587
 30
0.0
 10
75.0281254329
 20
110.8640599307
 30
0.0
 10
74.8273666567
 20
110.1841997219
 30
0.0
 10
74.5836241064
 20
109.7259891078
 30
0.0
 10
74.3686524669
 20
109.4341250245
 30
0.0
 10
74.1188210468
 20
109.1880962385
 30
0.0
 10
73.9296414402
 20
109.0561695156
 30
0.0
 10
73.8312701754
 20
108.9993762129
 30
0.0
  0
SPLINE
  5
2BC
100
AcDbEntity
  8
0
100
AcDbSpline
 62
7
  6
BYLAYER
 70
0
 71
3
 72
11
 73
7
 74
0
 42
0.0000001
 43
0.0000001
 44
0.0000000001
 40
0.0
 40
0.0
 40
0.0
 40
0.0
 40
0.2613749405
 40
0.5237790088
 40
0.7725072305
 40
1.0
 40
1.0
 40
1.0
 40
1.0
 10
66.5733760096
 20
116.0074369363
 30
0.0
 10
66.7271720003
 20
116.0702084741
 30
0.0
 10
67.0435591684
 20
116.1770639641
 30
0.0
 10
67.52886962
 20
116.2654921385
 30
0.0
 10
68.0022339641
 20
116.2560106032
 30
0.0
 10
68.2971777187
 20
116.162269906
 30
0.0
 10
68.4237752954
 20
116.0924394237
 30
0.0
  0
SPLINE
  5
2BD
100
AcDbEntity
  8
0
100
AcDbSpline
 62
7
  6
BYLAYER
 70
0
 71
3
 72
14
 73
10
 74
0
 42
0.0000001
 43
0.0000001
 44
0.0000000001
 40
0.0
 40
0.0
 40
0.0
 40
0.0
 40
0.0914665617
 40
0.1890349964
 40
0.2970202334
 40
0.4173781003
 40
0.5500124636
 40
0.6932618689
 40
1.0
 40
1.0
 40
1.0
 40
1.0
 10
29.7050628825
 20
65.3219756976
 30
0.0
 10
29.6220275679
 20
65.2740402622
 30
0.0
 10
29.4322498722
 20
65.2038762573
 30
0.0
 10
29.1170956729
 20
65.191327496
 30
0.0
 10
28.7805367777
 20
65.2656641252
 30
0.0
 10
28.4335823396
 20
65.4218477492
 30
0.0
 10
28.0869348817
 20
65.6536390651
 30
0.0
 10
27.6303951326
 20
66.0613371033
 30
0.0
 10
27.3393596992
 20
66.4395167372
 30
0.0
 10
27.1703292615
 20
66.7130354861
 30
0.0
  0
SPLINE
  5
2BE
100
AcDbEntity
  8
0
100
AcDbSpline
 62
7
  6
BYLAYER
 70
0
 71
3
 72
11
 73
7
 74
0
 42
0.0000001
 43
0.0000001
 44
0.0000000001
 40
0.0
 40
0.0
 40
0.0
 40
0.0
 40
0.218578235
 40
0.4544936805
 40
0.7143497193
 40
1.0
 40
1.0
 40
1.0
 40
1.0
 10
27.1183657442
 20
69.8166413025
 30
0.0
 10
27.0511764361
 20
69.7597045912
 30
0.0
 10
26.9287146676
 20
69.6198356183
 30
0.0
 10
26.8001546619
 20
69.3594789572
 30
0.0
 10
26.7234439186
 20
69.0521263089
 30
0.0
 10
26.7080096031
 20
68.8318043337
 30
0.0
 10
26.7080096031
 20
68.7167105091
 30
0.0
  0
SPLINE
  5
2BF
100
AcDbEntity
  8
0
100
AcDbSpline
 62
7
  6
BYLAYER
 70
0
 71
3
 72
11
 73
7
 74
0
 42
0.0000001
 43
0.0000001
 44
0.0000000001
 40
0.0
 40
0.0
 40
0.0
 40
0.0
 40
0.2177648073
 40
0.4508950352
 40
0.7103684932
 40
1.0
 40
1.0
 40
1.0
 40
1.0
 10
58.5761222001
 20
104.6019568679
 30
0.0
 10
58.5760919443
 20
104.5257871906
 30
0.0
 10
58.5480628777
 20
104.3670056294
 30
0.0
 10
58.4276282327
 20
104.1457622707
 30
0.0
 10
58.2373150736
 20
103.9458216237
 30
0.0
 10
58.0781183029
 20
103.8361285908
 30
0.0
 10
57.9903835741
 20
103.7854752239
 30
0.0
  0
SPLINE
  5
2C0
100
AcDbEntity
  8
0
100
AcDbSpline
 62
7
  6
BYLAYER
 70
0
 71
3
 72
13
 73
9
 74
0
 42
0.0000001
 43
0.0000001
 44
0.0000000001
 40
0.0
 40
0.0
 40
0.0
 40
0.0
 40
0.1116994363
 40
0.2334470371
 40
0.495739235
 40
0.7603564761
 40
0.8849511786
 40
1.0
 40
1.0
 40
1.0
 40
1.0
 10
24.5196128324
 20
70.0732571752
 30
0.0
 10
24.4346299336
 20
70.1159019135
 30
0.0
 10
24.2656598802
 20
70.2227101269
 30
0.0
 10
23.9466155723
 20
70.5007030657
 30
0.0
 10
23.6070978813
 20
70.9435293714
 30
0.0
 10
23.3737583177
 20
71.452771324
 30
0.0
 10
23.272805448
 20
71.8710999693
 30
0.0
 10
23.2539847581
 20
72.0752953964
 30
0.0
 10
23.2539847581
 20
72.1732289298
 30
0.0
  0
SPLINE
  5
2C1
100
AcDbEntity
  8
0
100
AcDbSpline
 62
7
  6
BYLAYER
 70
0
 71
3
 72
17
 73
13
 74
0
 42
0.0000001
 43
0.0000001
 44
0.0000000001
 40
0.0
 40
0.0
 40
0.0
 40
0.0
 40
0.0428585704
 40
0.0874862281
 40
0.1353182527
 40
0.1872810694
 40
0.3045394382
 40
0.4382031601
 40
0.5825455014
 40
0.7297077436
 40
0.871310042
 40
1.0
 40
1.0
 40
1.0
 40
1.0
 10
29.6550471177
 20
87.5358212953
 30
0.0
 10
29.5934305492
 20
87.5002109587
 30
0.0
 10
29.4575603719
 20
87.4437601125
 30
0.0
 10
29.2333069875
 20
87.4108698794
 30
0.0
 10
28.9924712621
 20
87.4286143895
 30
0.0
 10
28.6425409168
 20
87.5216730651
 30
0.0
 10
28.1952080873
 20
87.7662714169
 30
0.0
 10
27.7009657217
 20
88.203950542
 30
0.0
 10
27.2640728738
 20
88.7631442536
 30
0.0
 10
26.9202259506
 20
89.3986833686
 30
0.0
 10
26.6970937667
 20
90.0584321581
 30
0.0
 10
26.6372998082
 20
90.5077633339
 30
0.0
 10
26.6372998082
 20
90.7214531071
 30
0.0
  0
SPLINE
  5
2C2
100
AcDbEntity
  8
0
100
AcDbSpline
 62
7
  6
BYLAYER
 70
0
 71
3
 72
11
 73
7
 74
0
 42
0.0000001
 43
0.0000001
 44
0.0000000001
 40
0.0
 40
0.0
 40
0.0
 40
0.0
 40
0.2177843137
 40
0.4509117637
 40
0.7102976701
 40
1.0
 40
1.0
 40
1.0
 40
1.0
 10
23.9981844865
 20
65.4901463889
 30
0.0
 10
23.9157198267
 20
65.4425357161
 30
0.0
 10
23.7262444504
 20
65.3737735502
 30
0.0
 10
23.411529079
 20
65.3658050176
 30
0.0
 10
23.0761162501
 20
65.4468012364
 30
0.0
 10
22.8578933801
 20
65.5506140886
 30
0.0
 10
22.7481963199
 20
65.6139462831
 30
0.0
  0
SPLINE
  5
2C3
100
AcDbEntity
  8
0
100
AcDbSpline
 62
7
  6
BYLAYER
 70
0
 71
3
 72
17
 73
13
 74
0
 42
0.0000001
 43
0.0000001
 44
0.0000000001
 40
0.0
 40
0.0
 40
0.0
 40
0.0
 40
0.0428570455
 40
0.087485165
 40
0.1353123244
 40
0.1872781392
 40
0.3045378316
 40
0.4381995438
 40
0.5825378192
 40
0.7296849502
 40
0.8713141218
 40
1.0
 40
1.0
 40
1.0
 40
1.0
 10
40.5760793179
 20
61.2022710259
 30
0.0
 10
40.5346500852
 20
61.1783509771
 30
0.0
 10
40.4433548153
 20
61.1403044464
 30
0.0
 10
40.2925872574
 20
61.1183141597
 30
0.0
 10
40.1306910381
 20
61.1301286144
 30
0.0
 10
39.8954765224
 20
61.1928024136
 30
0.0
 10
39.5947490797
 20
61.3571562285
 30
0.0
 10
39.2625037687
 20
61.6513937959
 30
0.0
 10
38.9688414987
 20
62.0272852603
 30
0.0
 10
38.7376377091
 20
62.454495419
 30
0.0
 10
38.5876732915
 20
62.8980206245
 30
0.0
 10
38.5474532742
 20
63.2000960584
 30
0.0
 10
38.5474532742
 20
63.3437405149
 30
0.0
  0
SPLINE
  5
2C4
100
AcDbEntity
  8
0
100
AcDbSpline
 62
7
  6
BYLAYER
 70
0
 71
3
 72
10
 73
6
 74
0
 42
0.0000001
 43
0.0000001
 44
0.0000000001
 40
0.0
 40
0.0
 40
0.0
 40
0.0
 40
0.2287814682
 40
0.4750934293
 40
1.0
 40
1.0
 40
1.0
 40
1.0
 10
26.7080096031
 20
68.7167105091
 30
0.0
 10
26.7080096031
 20
68.5788057293
 30
0.0
 10
26.7320400663
 20
68.2921274332
 30
0.0
 10
26.8628398134
 20
67.7025875606
 30
0.0
 10
27.0453827984
 20
67.2693009221
 30
0.0
 10
27.1974614826
 20
66.9918430284
 30
0.0
  0
SPLINE
  5
2C5
100
AcDbEntity
  8
0
100
AcDbSpline
 62
7
  6
BYLAYER
 70
0
 71
3
 72
15
 73
11
 74
0
 42
0.0000001
 43
0.0000001
 44
0.0000000001
 40
0.0
 40
0.0
 40
0.0
 40
0.0
 40
0.1141232743
 40
0.2373467887
 40
0.366971619
 40
0.4999988438
 40
0.6330262289
 40
0.7626515261
 40
0.8858758009
 40
1.0
 40
1.0
 40
1.0
 40
1.0
 10
34.0619520798
 20
59.0820941198
 30
0.0
 10
33.9409675486
 20
59.151942961
 30
0.0
 10
33.7019478087
 20
59.3195574294
 30
0.0
 10
33.3730009692
 20
59.6271988409
 30
0.0
 10
33.0699264803
 20
59.9909965087
 30
0.0
 10
32.8040194735
 20
60.397061761
 30
0.0
 10
32.5853077703
 20
60.8303760436
 30
0.0
 10
32.4217839942
 20
61.2747457804
 30
0.0
 10
32.3198287438
 20
61.7134447049
 30
0.0
 10
32.2941776094
 20
62.0042509098
 30
0.0
 10
32.2941776094
 20
62.1439521399
 30
0.0
  0
SPLINE
  5
2C6
100
AcDbEntity
  8
0
100
AcDbSpline
 62
7
  6
BYLAYER
 70
0
 71
3
 72
10
 73
6
 74
0
 42
0.0000001
 43
0.0000001
 44
0.0000000001
 40
0.0
 40
0.0
 40
0.0
 40
0.0
 40
0.5248728477
 40
0.7714427494
 40
1.0
 40
1.0
 40
1.0
 40
1.0
 10
56.6177027777
 20
105.0805558128
 30
0.0
 10
56.8672193482
 20
105.0835747867
 30
0.0
 10
57.2357909194
 20
105.1268347414
 30
0.0
 10
57.6907290588
 20
105.2679250802
 30
0.0
 10
57.8962805987
 20
105.3641500043
 30
0.0
 10
57.9903835741
 20
105.4184800581
 30
0.0
  0
SPLINE
  5
2C7
100
AcDbEntity
  8
0
100
AcDbSpline
 62
7
  6
BYLAYER
 70
0
 71
3
 72
14
 73
10
 74
0
 42
0.0000001
 43
0.0000001
 44
0.0000000001
 40
0.0
 40
0.0
 40
0.0
 40
0.0
 40
0.3012627981
 40
0.4433008155
 40
0.5761047552
 40
0.6979735345
 40
0.8083232028
 40
0.9080733605
 40
1.0
 40
1.0
 40
1.0
 40
1.0
 10
27.2974423081
 20
66.8186775354
 30
0.0
 10
27.4546578329
 20
66.5598235277
 30
0.0
 10
27.7250970571
 20
66.19990977
 30
0.0
 10
28.1473772832
 20
65.8020267005
 30
0.0
 10
28.4709248743
 20
65.5666674469
 30
0.0
 10
28.797550378
 20
65.3960298756
 30
0.0
 10
29.1181449231
 20
65.2957109493
 30
0.0
 10
29.4235158347
 20
65.2699906765
 30
0.0
 10
29.6160104701
 20
65.3063011652
 30
0.0
 10
29.7030416287
 20
65.3373774269
 30
0.0
  0
SPLINE
  5
2C8
100
AcDbEntity
  8
0
100
AcDbSpline
 62
7
  6
BYLAYER
 70
0
 71
3
 72
11
 73
7
 74
0
 42
0.0000001
 43
0.0000001
 44
0.0000000001
 40
0.0
 40
0.0
 40
0.0
 40
0.0
 40
0.2897118544
 40
0.5490876946
 40
0.7822171962
 40
1.0
 40
1.0
 40
1.0
 40
1.0
 10
26.5665888357
 20
68.6350616783
 30
0.0
 10
26.5665888357
 20
68.766802911
 30
0.0
 10
26.5865567106
 20
69.0173387768
 30
0.0
 10
26.6880231191
 20
69.3615643703
 30
0.0
 10
26.8588617833
 20
69.6408714108
 30
0.0
 10
27.0193181942
 20
69.7757832315
 30
0.0
 10
27.1050853596
 20
69.8252957355
 30
0.0
  0
SPLINE
  5
2C9
100
AcDbEntity
  8
0
100
AcDbSpline
 62
7
  6
BYLAYER
 70
0
 71
3
 72
10
 73
6
 74
0
 42
0.0000001
 43
0.0000001
 44
0.0000000001
 40
0.0
 40
0.0
 40
0.0
 40
0.0
 40
0.5249043975
 40
0.7712518897
 40
1.0
 40
1.0
 40
1.0
 40
1.0
 10
27.0608207417
 20
66.9006559147
 30
0.0
 10
26.907529763
 20
67.1795750142
 30
0.0
 10
26.7231626446
 20
67.6151141009
 30
0.0
 10
26.5908826659
 20
68.2079911076
 30
0.0
 10
26.5665888357
 20
68.4963640167
 30
0.0
 10
26.5665888357
 20
68.6350616783
 30
0.0
  0
SPLINE
  5
2CA
100
AcDbEntity
  8
0
100
AcDbSpline
 62
7
  6
BYLAYER
 70
0
 71
3
 72
11
 73
7
 74
0
 42
0.0000001
 43
0.0000001
 44
0.0000000001
 40
0.0
 40
0.0
 40
0.0
 40
0.0
 40
0.2177416576
 40
0.4508857691
 40
0.7104589349
 40
1.0
 40
1.0
 40
1.0
 40
1.0
 10
65.6747188976
 20
116.7439418322
 30
0.0
 10
65.6747218384
 20
116.8056753443
 30
0.0
 10
65.6974165779
 20
116.934382073
 30
0.0
 10
65.7950491448
 20
117.1137428736
 30
0.0
 10
65.9493680944
 20
117.2757573987
 30
0.0
 10
66.0783798858
 20
117.3647063694
 30
0.0
 10
66.1494719147
 20
117.4057511263
 30
0.0
  0
SPLINE
  5
2CB
100
AcDbEntity
  8
0
100
AcDbSpline
 62
7
  6
BYLAYER
 70
0
 71
3
 72
15
 73
11
 74
0
 42
0.0000001
 43
0.0000001
 44
0.0000000001
 40
0.0
 40
0.0
 40
0.0
 40
0.0
 40
0.1141241598
 40
0.2373483675
 40
0.3669736385
 40
0.5000010132
 40
0.6330282465
 40
0.7626531028
 40
0.8858766831
 40
1.0
 40
1.0
 40
1.0
 40
1.0
 10
35.9970909794
 20
64.2599911353
 30
0.0
 10
35.9970909794
 20
64.1202899603
 30
0.0
 10
36.0227420557
 20
63.8294838965
 30
0.0
 10
36.1246972655
 20
63.3907851514
 30
0.0
 10
36.2882209291
 20
62.9464155364
 30
0.0
 10
36.506932545
 20
62.5131012745
 30
0.0
 10
36.7728394967
 20
62.1070359808
 30
0.0
 10
37.0759139904
 20
61.7432381848
 30
0.0
 10
37.4048609279
 20
61.4355966683
 30
0.0
 10
37.643880735
 20
61.2679820927
 30
0.0
 10
37.7648652923
 20
61.1981332062
 30
0.0
  0
SPLINE
  5
2CC
100
AcDbEntity
  8
0
100
AcDbSpline
 62
7
  6
BYLAYER
 70
0
 71
3
 72
11
 73
7
 74
0
 42
0.0000001
 43
0.0000001
 44
0.0000000001
 40
0.0
 40
0.0
 40
0.0
 40
0.0
 40
0.2896359344
 40
0.5491027565
 40
0.7822319971
 40
1.0
 40
1.0
 40
1.0
 40
1.0
 10
26.6372998082
 20
90.7214531071
 30
0.0
 10
26.6372998082
 20
90.848093362
 30
0.0
 10
26.6565499574
 20
91.088994556
 30
0.0
 10
26.754059226
 20
91.4199852173
 30
0.0
 10
26.9182982662
 20
91.6886393768
 30
0.0
 10
27.0726618519
 20
91.8182366519
 30
0.0
 10
27.1551011244
 20
91.8658811462
 30
0.0
  0
SPLINE
  5
2CD
100
AcDbEntity
  8
0
100
AcDbSpline
 62
7
  6
BYLAYER
 70
0
 71
3
 72
11
 73
7
 74
0
 42
0.0000001
 43
0.0000001
 44
0.0000000001
 40
0.0
 40
0.0
 40
0.0
 40
0.0
 40
0.2184237507
 40
0.4541738492
 40
0.7141272206
 40
1.0
 40
1.0
 40
1.0
 40
1.0
 10
27.1815703969
 20
91.8676168079
 30
0.0
 10
27.1157106317
 20
91.8132526168
 30
0.0
 10
26.9955027783
 20
91.6787974377
 30
0.0
 10
26.8691669413
 20
91.4269522686
 30
0.0
 10
26.7939108998
 20
91.1287949284
 30
0.0
 10
26.7787205757
 20
90.914871944
 30
0.0
 10
26.7787205757
 20
90.8031019378
 30
0.0
  0
SPLINE
  5
2CE
100
AcDbEntity
  8
0
100
AcDbSpline
 62
7
  6
BYLAYER
 70
0
 71
3
 72
15
 73
11
 74
0
 42
0.0000001
 43
0.0000001
 44
0.0000000001
 40
0.0
 40
0.0
 40
0.0
 40
0.0
 40
0.1145394244
 40
0.2380058095
 40
0.3677030449
 40
0.500667661
 40
0.6335397321
 40
0.7629691296
 40
0.8860070482
 40
1.0
 40
1.0
 40
1.0
 40
1.0
 10
34.9599751461
 20
59.6006218432
 30
0.0
 10
34.8399168297
 20
59.6714182927
 30
0.0
 10
34.6029986377
 20
59.8403277089
 30
0.0
 10
34.2771388986
 20
60.1486099277
 30
0.0
 10
33.9772608492
 20
60.5117818217
 30
0.0
 10
33.7144309359
 20
60.9161869989
 30
0.0
 10
33.4984076906
 20
61.3470511769
 30
0.0
 10
33.3369887411
 20
61.7884893087
 30
0.0
 10
33.2363889219
 20
62.2241040051
 30
0.0
 10
33.2111018608
 20
62.5127964699
 30
0.0
 10
33.2111018608
 20
62.6515091691
 30
0.0
  0
SPLINE
  5
2CF
100
AcDbEntity
  8
0
100
AcDbSpline
 62
7
  6
BYLAYER
 70
0
 71
3
 72
15
 73
11
 74
0
 42
0.0000001
 43
0.0000001
 44
0.0000000001
 40
0.0
 40
0.0
 40
0.0
 40
0.0
 40
0.1141249629
 40
0.2373499772
 40
0.3669762337
 40
0.5000044763
 40
0.6330322943
 40
0.7626597315
 40
0.8858808198
 40
1.0
 40
1.0
 40
1.0
 40
1.0
 10
33.1921994826
 20
62.6624222153
 30
0.0
 10
33.1921994826
 20
62.5227213076
 30
0.0
 10
33.2178504218
 20
62.2319158747
 30
0.0
 10
33.3198053722
 20
61.7932179136
 30
0.0
 10
33.4833284058
 20
61.3488492242
 30
0.0
 10
33.7020380931
 20
60.9155352123
 30
0.0
 10
33.9679496605
 20
60.5094725796
 30
0.0
 10
34.271010287
 20
60.1456684992
 30
0.0
 10
34.5999601576
 20
59.838038115
 30
0.0
 10
34.8389960441
 20
59.6704675499
 30
0.0
 10
34.9599751461
 20
59.6006218432
 30
0.0
  0
SPLINE
  5
2D0
100
AcDbEntity
  8
0
100
AcDbSpline
 62
7
  6
BYLAYER
 70
0
 71
3
 72
11
 73
7
 74
0
 42
0.0000001
 43
0.0000001
 44
0.0000000001
 40
0.0
 40
0.0
 40
0.0
 40
0.0
 40
0.2849073876
 40
0.5447916814
 40
0.781128306
 40
1.0
 40
1.0
 40
1.0
 40
1.0
 10
37.3289496276
 20
65.8880318981
 30
0.0
 10
37.3289496276
 20
65.9837061562
 30
0.0
 10
37.341544496
 20
66.1670627752
 30
0.0
 10
37.4037910125
 20
66.4234396912
 30
0.0
 10
37.5081436322
 20
66.6419086753
 30
0.0
 10
37.6076630673
 20
66.7607868133
 30
0.0
 10
37.6624632967
 20
66.8097666761
 30
0.0
  0
SPLINE
  5
2D1
100
AcDbEntity
  8
0
100
AcDbSpline
 62
7
  6
BYLAYER
 70
0
 71
3
 72
17
 73
13
 74
0
 42
0.0000001
 43
0.0000001
 44
0.0000000001
 40
0.0
 40
0.0
 40
0.0
 40
0.0
 40
0.1265583418
 40
0.2655695379
 40
0.4104777305
 40
0.5537519048
 40
0.6881218533
 40
0.8078952779
 40
0.8614995515
 40
0.9109401687
 40
0.9567636605
 40
1.0
 40
1.0
 40
1.0
 40
1.0
 10
26.7787205757
 20
90.8031019378
 30
0.0
 10
26.7787205757
 20
90.5990613095
 30
0.0
 10
26.833285951
 20
90.1704153697
 30
0.0
 10
27.0386286831
 20
89.5382058685
 30
0.0
 10
27.3569037812
 20
88.9240130679
 30
0.0
 10
27.7644155996
 20
88.3741850674
 30
0.0
 10
28.2305253274
 20
87.9298113235
 30
0.0
 10
28.6561436012
 20
87.6644599093
 30
0.0
 10
28.995227782
 20
87.5420967671
 30
0.0
 10
29.2323992838
 20
87.4977636876
 30
0.0
 10
29.4571688145
 20
87.4991920313
 30
0.0
 10
29.5985666062
 20
87.5318120896
 30
0.0
 10
29.66405485
 20
87.5556934634
 30
0.0
  0
SPLINE
  5
2D2
100
AcDbEntity
  8
0
100
AcDbSpline
 62
7
  6
BYLAYER
 70
0
 71
3
 72
10
 73
6
 74
0
 42
0.0000001
 43
0.0000001
 44
0.0000000001
 40
0.0
 40
0.0
 40
0.0
 40
0.0
 40
0.2286333251
 40
0.475143725
 40
1.0
 40
1.0
 40
1.0
 40
1.0
 10
57.9903835741
 20
103.7854752239
 30
0.0
 10
57.8973281428
 20
103.7317499663
 30
0.0
 10
57.6942323477
 20
103.6364456369
 30
0.0
 10
57.2448228263
 20
103.4960051546
 30
0.0
 10
56.880744339
 20
103.4519371088
 30
0.0
 10
56.634112141
 20
103.447785065
 30
0.0
  0
SPLINE
  5
2D3
100
AcDbEntity
  8
0
100
AcDbSpline
 62
7
  6
BYLAYER
 70
0
 71
3
 72
11
 73
7
 74
0
 42
0.0000001
 43
0.0000001
 44
0.0000000001
 40
0.0
 40
0.0
 40
0.0
 40
0.0
 40
0.2896428702
 40
0.5491125874
 40
0.7822368
 40
1.0
 40
1.0
 40
1.0
 40
1.0
 10
57.9903835741
 20
105.4184800581
 30
0.0
 10
58.0781218701
 20
105.4691354845
 30
0.0
 10
58.2373210834
 20
105.5788298987
 30
0.0
 10
58.4276349769
 20
105.778772496
 30
0.0
 10
58.5480604942
 20
106.0000150606
 30
0.0
 10
58.5760977491
 20
106.1587924078
 30
0.0
 10
58.5761283485
 20
106.2349616312
 30
0.0
  0
SPLINE
  5
2D4
100
AcDbEntity
  8
0
100
AcDbSpline
 62
7
  6
BYLAYER
 70
0
 71
3
 72
11
 73
7
 74
0
 42
0.0000001
 43
0.0000001
 44
0.0000000001
 40
0.0
 40
0.0
 40
0.0
 40
0.0
 40
0.249552821
 40
0.5121160566
 40
0.7682401795
 40
1.0
 40
1.0
 40
1.0
 40
1.0
 10
38.5494652022
 20
63.4223936967
 30
0.0
 10
38.3692920565
 20
63.5731426977
 30
0.0
 10
38.0372487173
 20
63.9287749786
 30
0.0
 10
37.6535885933
 20
64.5466543716
 30
0.0
 10
37.3991411134
 20
65.2101156987
 30
0.0
 10
37.3289496276
 20
65.6698611557
 30
0.0
 10
37.3289496276
 20
65.8880318981
 30
0.0
  0
SPLINE
  5
2D5
100
AcDbEntity
  8
0
100
AcDbSpline
 62
7
  6
BYLAYER
 70
0
 71
3
 72
11
 73
7
 74
0
 42
0.0000001
 43
0.0000001
 44
0.0000000001
 40
0.0
 40
0.0
 40
0.0
 40
0.0
 40
0.2177821605
 40
0.4509085882
 40
0.7102951949
 40
1.0
 40
1.0
 40
1.0
 40
1.0
 10
54.0761765985
 20
107.0514639843
 30
0.0
 10
54.0761766252
 20
107.1466839931
 30
0.0
 10
54.1113646866
 20
107.3451524813
 30
0.0
 10
54.2618228554
 20
107.6216830975
 30
0.0
 10
54.4996761184
 20
107.8716559969
 30
0.0
 10
54.69869328
 20
108.008732927
 30
0.0
 10
54.8083898109
 20
108.0720658706
 30
0.0
  0
SPLINE
  5
2D6
100
AcDbEntity
  8
0
100
AcDbSpline
 62
7
  6
BYLAYER
 70
0
 71
3
 72
11
 73
7
 74
0
 42
0.0000001
 43
0.0000001
 44
0.0000000001
 40
0.0
 40
0.0
 40
0.0
 40
0.0
 40
0.2177456295
 40
0.4508837762
 40
0.7104602913
 40
1.0
 40
1.0
 40
1.0
 40
1.0
 10
42.508480764
 20
20.1893496814
 30
0.0
 10
42.4622307293
 20
20.2160515392
 30
0.0
 10
42.3559989808
 20
20.2547389549
 30
0.0
 10
42.179394405
 20
20.2591737493
 30
0.0
 10
41.9912725638
 20
20.2136380391
 30
0.0
 10
41.8688290005
 20
20.155465855
 30
0.0
 10
41.8073298796
 20
20.119959533
 30
0.0
  0
SPLINE
  5
2D7
100
AcDbEntity
  8
0
100
AcDbSpline
 62
7
  6
BYLAYER
 70
0
 71
3
 72
14
 73
10
 74
0
 42
0.0000001
 43
0.0000001
 44
0.0000000001
 40
0.0
 40
0.0
 40
0.0
 40
0.0
 40
0.3213921822
 40
0.4603036083
 40
0.5844557696
 40
0.6956466017
 40
0.797549603
 40
0.896323834
 40
1.0
 40
1.0
 40
1.0
 40
1.0
 10
66.0642422918
 20
117.553372344
 30
0.0
 10
65.952741232
 20
117.4889975614
 30
0.0
 10
65.7977331347
 20
117.3869823047
 30
0.0
 10
65.6238759437
 20
117.2294895557
 30
0.0
 10
65.5266382614
 20
117.1146119003
 30
0.0
 10
65.4582907579
 20
116.9970262081
 30
0.0
 10
65.421804626
 20
116.8759991659
 30
0.0
 10
65.4215888162
 20
116.752249057
 30
0.0
 10
65.446282111
 20
116.6736159091
 30
0.0
 10
65.4635841324
 20
116.6358585982
 30
0.0
  0
SPLINE
  5
2D8
100
AcDbEntity
  8
0
100
AcDbSpline
 62
7
  6
BYLAYER
 70
0
 71
3
 72
10
 73
6
 74
0
 42
0.0000001
 43
0.0000001
 44
0.0000000001
 40
0.0
 40
0.0
 40
0.0
 40
0.0
 40
0.4376859714
 40
0.7027986985
 40
1.0
 40
1.0
 40
1.0
 40
1.0
 10
65.4635841324
 20
116.6358585982
 30
0.0
 10
65.4991359612
 20
116.5582756719
 30
0.0
 10
65.5879701882
 20
116.4484672257
 30
0.0
 10
65.7387109446
 20
116.3250755997
 30
0.0
 10
65.8313915357
 20
116.2657915625
 30
0.0
 10
65.881578369
 20
116.2368200894
 30
0.0
  0
SPLINE
  5
2D9
100
AcDbEntity
  8
0
100
AcDbSpline
 62
7
  6
BYLAYER
 70
0
 71
3
 72
17
 73
13
 74
0
 42
0.0000001
 43
0.0000001
 44
0.0000000001
 40
0.0
 40
0.0
 40
0.0
 40
0.0
 40
0.1286716799
 40
0.2702804158
 40
0.417430084
 40
0.5617786111
 40
0.6954471434
 40
0.8127098309
 40
0.8646773246
 40
0.9125077759
 40
0.9571394868
 40
1.0
 40
1.0
 40
1.0
 40
1.0
 10
66.1494719147
 20
117.4057511263
 30
0.0
 10
66.2694572286
 20
117.4750242662
 30
0.0
 10
66.5411660693
 20
117.5871128467
 30
0.0
 10
66.9839728129
 20
117.675756063
 30
0.0
 10
67.4523603933
 20
117.6886836313
 30
0.0
 10
67.9080340471
 20
117.6246710984
 30
0.0
 10
68.3141066204
 20
117.4890429858
 30
0.0
 10
68.5964690374
 20
117.3170976624
 30
0.0
 10
68.7622842933
 20
117.1508311474
 30
0.0
 10
68.8502488329
 20
117.0212803106
 30
0.0
 10
68.9046073141
 20
116.8847173294
 30
0.0
 10
68.9168536365
 20
116.7900917812
 30
0.0
 10
68.9168514381
 20
116.7439418341
 30
0.0
  0
SPLINE
  5
2DA
100
AcDbEntity
  8
0
100
AcDbSpline
 62
7
  6
BYLAYER
 70
0
 71
3
 72
9
 73
5
 74
0
 42
0.0000001
 43
0.0000001
 44
0.0000000001
 40
0.0
 40
0.0
 40
0.0
 40
0.0
 40
0.5177547654
 40
1.0
 40
1.0
 40
1.0
 40
1.0
 10
68.5273280439
 20
116.1313412926
 30
0.0
 10
68.6453465476
 20
116.1994789008
 30
0.0
 10
68.8582653009
 20
116.3604525278
 30
0.0
 10
69.0146638414
 20
116.5786741376
 30
0.0
 10
69.0695054362
 20
116.6931446775
 30
0.0
  0
SPLINE
  5
2DB
100
AcDbEntity
  8
0
100
AcDbSpline
 62
7
  6
BYLAYER
 70
0
 71
3
 72
19
 73
15
 74
0
 42
0.0000001
 43
0.0000001
 44
0.0000000001
 40
0.0
 40
0.0
 40
0.0
 40
0.0
 40
0.0515558978
 40
0.1020841596
 40
0.1523569279
 40
0.2034043147
 40
0.2566085567
 40
0.313296362
 40
0.3744133708
 40
0.4400039194
 40
0.5810925249
 40
0.7278523081
 40
0.8704976392
 40
1.0
 40
1.0
 40
1.0
 40
1.0
 10
69.0695054362
 20
116.6931446775
 30
0.0
 10
69.1001250167
 20
116.7570567487
 30
0.0
 10
69.1484937364
 20
116.8900197781
 30
0.0
 10
69.1766000718
 20
117.0992840739
 30
0.0
 10
69.1550184127
 20
117.3090036368
 30
0.0
 10
69.0803224115
 20
117.5104138597
 30
0.0
 10
68.9502698863
 20
117.6925143462
 30
0.0
 10
68.7682427491
 20
117.8448857144
 30
0.0
 10
68.541489778
 20
117.9593610569
 30
0.0
 10
68.1853425951
 20
118.0593694229
 30
0.0
 10
67.6936760631
 20
118.0775518092
 30
0.0
 10
67.1076462283
 20
117.9798802032
 30
0.0
 10
66.5580398006
 20
117.8026496654
 30
0.0
 10
66.2184061022
 20
117.6423783302
 30
0.0
 10
66.0642422918
 20
117.553372344
 30
0.0
  0
ENDSEC
  0
SECTION
  2
OBJECTS
  0
DICTIONARY
  5
C
100
AcDbDictionary
280
0
281
1
  3
ACAD_GROUP
350
D
  3
ACAD_MLINESTYLE
350
17
  3
ACAD_LAYOUT
350
1A
  3
ACAD_PLOTSETTINGS
350
19
  3
ACAD_PLOTSTYLENAME
350
E
  0
DICTIONARY
  5
D
102
{ACAD_REACTORS
330
C
102
}
100
AcDbDictionary
280
0
281
1
  0
ACDBDICTIONARYWDFLT
  5
E
102
{ACAD_REACTORS
330
C
102
}
100
AcDbDictionary
281
1
  3
Normal
350
F
100
AcDbDictionaryWithDefault
340
F
  0
DICTIONARY
  5
17
102
{ACAD_REACTORS
330
C
102
}
100
AcDbDictionary
280
0
281
1
  3
Standard
350
18
  0
DICTIONARY
  5
19
102
{ACAD_REACTORS
330
C
102
}
100
AcDbDictionary
281
1
  0
DICTIONARY
  5
1A
102
{ACAD_REACTORS
330
C
102
}
100
AcDbDictionary
281
1
  3
Model
350
2DC
  3
Layout1
350
2DD
  0
ACDBPLACEHOLDER
  5
F
102
{ACAD_REACTORS
330
E
102
}
  0
MLINESTYLE
  5
18
102
{ACAD_REACTORS
330
17
102
}
100
AcDbMlineStyle
  2
STANDARD
 70
0
  3

 62
256
 51
90.0
 52
90.0
 71
2
 49
0.5
 62
256
  6
BYLAYER
 49
-0.5
 62
256
  6
BYLAYER
  0
LAYOUT
  5
2DC
102
{ACAD_REACTORS
330
1A
102
}
100
AcDbPlotSettings
  1

  2
none_device
  4

  6

 40
0.0
 41
0.0
 42
0.0
 43
0.0
 44
210.0
 45
297.0
 46
0.0
 47
0.0
 48
0.0
 49
0.0
140
0.0
141
0.0
142
1.0
143
1.0
 70
1024
 72
1
 73
0
 74
0
  7

 75
0
147
1.0
148
0.0
149
0.0
100
AcDbLayout
  1
Model
 70
0
 71
0
 10
0.0
 20
0.0
 11
210.0
 21
297.0
 12
0.0
 22
0.0
 32
0.0
 14
0.0
 24
0.0
 34
0.0
 15
0.0
 25
0.0
 35
0.0
146
0.0
 13
0.0
 23
0.0
 33
0.0
 16
1.0
 26
0.0
 36
0.0
 17
0.0
 27
1.0
 37
0.0
 76
0
330
210
345
0
346
0
  0
LAYOUT
  5
2DD
102
{ACAD_REACTORS
330
1A
102
}
100
AcDbPlotSettings
  1

  2
none_device
  4

  6

 40
0.0
 41
0.0
 42
0.0
 43
0.0
 44
210.0
 45
297.0
 46
0.0
 47
0.0
 48
0.0
 49
0.0
140
0.0
141
0.0
142
1.0
143
1.0
 70
0
 72
1
 73
0
 74
0
  7

 75
0
147
1.0
148
0.0
149
0.0
100
AcDbLayout
  1
Layout1
 70
0
 71
1
 10
0.0
 20
0.0
 11
210.0
 21
297.0
 12
0.0
 22
0.0
 32
0.0
 14
0.0
 24
0.0
 34
0.0
 15
0.0
 25
0.0
 35
0.0
146
0.0
 13
0.0
 23
0.0
 33
0.0
 16
1.0
 26
0.0
 36
0.0
 17
0.0
 27
1.0
 37
0.0
 76
0
330
211
345
0
346
0
  0
ENDSEC
  0
EOF
