999
DXF file: C:\Users\sesa63760\Dev\_Creo\CAD\MCADID0003647_3D-CAD\drw0001_1.dxf
999
Pro/ENGINEER 2019471 by Parametric Technology Corporation
  0
SECTION
  2
HEADER
  9
$ACADVER
  1
AC1024
  9
$DWGCODEPAGE
  3
ANSI_1252
  9
$EXTMAX
 10
110.4646434705
 20
156.228567194
 30
0.0
  9
$EXTMIN
 10
0.0
 20
0.0
 30
0.0
  9
$LIMMIN
 10
0.0
 20
0.0
  9
$LIMMAX
 10
110.4646434705
 20
156.228567194
  9
$VIEWCTR
 10
55.2323217352
 20
78.114283597
  9
$VIEWSIZE
 40
156.228567194
  9
$CLAYER
  8
0
  9
$LTSCALE
 40
10.1837880838
  9
$CELTYPE
  6
BYLAYER
  9
$DIMSCALE
 40
1.0
  9
$DIMASZ
 40
1.3150552794
  9
$DIMEXO
 40
1.0
  9
$DIMDLI
 40
7.036071767
  9
$DIMEXE
 40
1.0
  9
$DIMCEN
 40
1.6664380501
  9
$DIMLFAC
 40
1.0
  9
$DIMBLK
  1
_FILLED
  9
$DIMALT
 70
0
  9
$DIMALTF
 40
0.0393700787
  9
$DIMTXT
 40
1.8410773912
  9
$DIMTOL
 70
1
  9
$DIMLIM
 70
0
  9
$DIMTFAC
 40
1.0
  9
$DIMTP
 40
0.01
  9
$DIMTM
 40
0.01
  9
$DIMGAP
 40
0.625
  9
$DIMDSEP
 70
46
  9
$AUNITS
 70
0
  9
$PDMODE
 70
3
  9
$PDSIZE
 40
0.3125
  9
$HANDSEED
  5
2FB
  9
$TILEMODE
 70
1
  9
$MEASUREMENT
 70
1
  9
$INSUNITS
 70
4
  0
ENDSEC
  0
SECTION
  2
CLASSES
  0
CLASS
  1
ACDBDICTIONARYWDFLT
  2
AcDbDictionaryWithDefault
  3
AutoCAD 2000
 90
0
 91
1
280
0
281
0
  0
CLASS
  1
ACDBPLACEHOLDER
  2
AcDbPlaceHolder
  3
AutoCAD 2000
 90
0
 91
1
280
0
281
0
  0
CLASS
  1
LAYOUT
  2
AcDbLayout
  3
AutoCAD 2000
 90
0
 91
0
280
0
281
0
  0
ENDSEC
  0
SECTION
  2
TABLES
  0
TABLE
  2
VPORT
  5
8
100
AcDbSymbolTable
 70
2
  0
VPORT
  5
1F4
100
AcDbSymbolTableRecord
100
AcDbViewportTableRecord
  2
*ACTIVE
 70
0
 10
0.0
 20
0.0
 11
1.0
 21
1.0
 12
55.2323217352
 22
78.114283597
 13
0.0
 23
0.0
 14
1.0
 24
1.0
 15
0.0
 25
0.0
 16
0.0
 26
0.0
 36
1.0
 17
0.0
 27
0.0
 37
0.0
 40
156.228567194
 41
0.7070707071
 42
50.0
 43
0.0
 44
0.0
 50
0.0
 51
0.0
 71
0
 72
100
 73
1
 74
1
 75
0
 76
0
 77
0
 78
0
  0
ENDTAB
  0
TABLE
  2
LTYPE
  5
5
100
AcDbSymbolTable
 70
6
  0
LTYPE
  5
14
100
AcDbSymbolTableRecord
100
AcDbLinetypeTableRecord
  2
BYBLOCK
 70
0
  3

 72
65
 73
0
 40
0.0
  0
LTYPE
  5
15
100
AcDbSymbolTableRecord
100
AcDbLinetypeTableRecord
  2
BYLAYER
 70
0
  3

 72
65
 73
0
 40
0.0
  0
LTYPE
  5
16
100
AcDbSymbolTableRecord
100
AcDbLinetypeTableRecord
  2
CONTINUOUS
 70
64
  3
Solid line
 72
65
 73
0
 40
0.0
  0
LTYPE
  5
1F5
100
AcDbSymbolTableRecord
100
AcDbLinetypeTableRecord
  2
CENTER
 70
64
  3
____ _ ____ _ ____ _ ____ _ ____ _ ____ _ ____
 72
65
 73
4
 40
0.6
 49
0.375
 74
0
 49
-0.075
 74
0
 49
0.075
 74
0
 49
-0.075
 74
0
  0
LTYPE
  5
1F6
100
AcDbSymbolTableRecord
100
AcDbLinetypeTableRecord
  2
HIDDEN
 70
64
  3
- - - - - - - - - - - - - - - - - - - -
 72
65
 73
2
 40
0.2
 49
0.1
 74
0
 49
-0.1
 74
0
  0
LTYPE
  5
1F7
100
AcDbSymbolTableRecord
100
AcDbLinetypeTableRecord
  2
PHANTOM
 70
64
  3
_____ _ _ _____ _ _ _____ _ _ _____
 72
65
 73
6
 40
0.8
 49
0.45
 74
0
 49
-0.05
 74
0
 49
0.1
 74
0
 49
-0.05
 74
0
 49
0.1
 74
0
 49
-0.05
 74
0
  0
LTYPE
  5
1F8
100
AcDbSymbolTableRecord
100
AcDbLinetypeTableRecord
  2
DOT
 70
64
  3
. . . . . . . . . . . . . . . . . . . .
 72
65
 73
2
 40
0.2
 49
0.1
 74
0
 49
-0.1
 74
0
  0
LTYPE
  5
1F9
100
AcDbSymbolTableRecord
100
AcDbLinetypeTableRecord
  2
DASHED
 70
64
  3
- - - - - - - - - - - - - - - - - - - -
 72
65
 73
2
 40
0.2
 49
0.1
 74
0
 49
-0.1
 74
0
  0
ENDTAB
  0
TABLE
  2
LAYER
  5
2
100
AcDbSymbolTable
 70
36
  0
LAYER
  5
10
100
AcDbSymbolTableRecord
100
AcDbLayerTableRecord
  2
0
 70
0
 62
7
  6
CONTINUOUS
370
-3
390
F
  0
LAYER
  5
1FA
100
AcDbSymbolTableRecord
100
AcDbLayerTableRecord
  2
DEFAULT_1
 70
0
 62
7
  6
CENTER
370
-3
390
F
  0
LAYER
  5
1FB
100
AcDbSymbolTableRecord
100
AcDbLayerTableRecord
  2
DEFAULT_2
 70
0
 62
7
  6
HIDDEN
370
-3
390
F
  0
LAYER
  5
1FC
100
AcDbSymbolTableRecord
100
AcDbLayerTableRecord
  2
DEFAULT_3
 70
0
 62
7
  6
PHANTOM
370
-3
390
F
  0
LAYER
  5
1FD
100
AcDbSymbolTableRecord
100
AcDbLayerTableRecord
  2
00_COMPONENTS
 70
0
 62
7
  6
CONTINUOUS
370
-3
390
F
  0
LAYER
  5
1FE
100
AcDbSymbolTableRecord
100
AcDbLayerTableRecord
  2
01_1_DEFAULT_DATUMS
 70
0
 62
7
  6
CONTINUOUS
370
-3
390
F
  0
LAYER
  5
1FF
100
AcDbSymbolTableRecord
100
AcDbLayerTableRecord
  2
01_PLANES
 70
0
 62
7
  6
CONTINUOUS
370
-3
390
F
  0
LAYER
  5
200
100
AcDbSymbolTableRecord
100
AcDbLayerTableRecord
  2
02_COORD_SYS
 70
0
 62
7
  6
CONTINUOUS
370
-3
390
F
  0
LAYER
  5
201
100
AcDbSymbolTableRecord
100
AcDbLayerTableRecord
  2
03_AXES
 70
0
 62
7
  6
CONTINUOUS
370
-3
390
F
  0
LAYER
  5
202
100
AcDbSymbolTableRecord
100
AcDbLayerTableRecord
  2
04_POINTS
 70
0
 62
7
  6
CONTINUOUS
370
-3
390
F
  0
LAYER
  5
203
100
AcDbSymbolTableRecord
100
AcDbLayerTableRecord
  2
05_CURVES
 70
0
 62
7
  6
CONTINUOUS
370
-3
390
F
  0
LAYER
  5
204
100
AcDbSymbolTableRecord
100
AcDbLayerTableRecord
  2
06_SURFS
 70
0
 62
7
  6
CONTINUOUS
370
-3
390
F
  0
LAYER
  5
205
100
AcDbSymbolTableRecord
100
AcDbLayerTableRecord
  2
07_COSMETICS
 70
0
 62
7
  6
CONTINUOUS
370
-3
390
F
  0
LAYER
  5
206
100
AcDbSymbolTableRecord
100
AcDbLayerTableRecord
  2
10_NOTES
 70
0
 62
7
  6
CONTINUOUS
370
-3
390
F
  0
LAYER
  5
207
100
AcDbSymbolTableRecord
100
AcDbLayerTableRecord
  2
11_NOTES_PUB
 70
0
 62
7
  6
CONTINUOUS
370
-3
390
F
  0
LAYER
  5
208
100
AcDbSymbolTableRecord
100
AcDbLayerTableRecord
  2
13_REF_GTOL
 70
0
 62
7
  6
CONTINUOUS
370
-3
390
F
  0
LAYER
  5
209
100
AcDbSymbolTableRecord
100
AcDbLayerTableRecord
  2
16_MISC
 70
0
 62
7
  6
CONTINUOUS
370
-3
390
F
  0
LAYER
  5
20A
100
AcDbSymbolTableRecord
100
AcDbLayerTableRecord
  2
17_NO_PRINT
 70
0
 62
7
  6
CONTINUOUS
370
-3
390
F
  0
LAYER
  5
20B
100
AcDbSymbolTableRecord
100
AcDbLayerTableRecord
  2
18_DATUM_CAMS_JOINTS
 70
0
 62
7
  6
CONTINUOUS
370
-3
390
F
  0
LAYER
  5
20C
100
AcDbSymbolTableRecord
100
AcDbLayerTableRecord
  2
19_DATUM_FUNCTIONAL
 70
0
 62
7
  6
CONTINUOUS
370
-3
390
F
  0
LAYER
  5
20D
100
AcDbSymbolTableRecord
100
AcDbLayerTableRecord
  2
20_DATUM_KINEMATIC_SCHEME
 70
0
 62
7
  6
CONTINUOUS
370
-3
390
F
  0
ENDTAB
  0
TABLE
  2
STYLE
  5
3
100
AcDbSymbolTable
 70
1
  0
STYLE
  5
11
100
AcDbSymbolTableRecord
100
AcDbTextStyleTableRecord
  2
STANDARD
 70
0
 40
0.0
 41
1.0
 50
0.0
 71
0
 42
0.2
  3
ARIAL.TTF
  4

  0
STYLE
  5
20E
100
AcDbSymbolTableRecord
100
AcDbTextStyleTableRecord
  2
TEXTSTYLE_1
 70
0
 40
0.0
 41
0.8
 50
0.0
 71
0
 42
0.2
  3
gdt
  4

  0
ENDTAB
  0
TABLE
  2
VIEW
  5
6
100
AcDbSymbolTable
 70
0
  0
ENDTAB
  0
TABLE
  2
UCS
  5
7
100
AcDbSymbolTable
 70
0
  0
ENDTAB
  0
TABLE
  2
APPID
  5
9
100
AcDbSymbolTable
 70
1
  0
APPID
  5
20F
100
AcDbSymbolTableRecord
100
AcDbRegAppTableRecord
  2
ACAD
 70
0
  0
ENDTAB
  0
TABLE
  2
BLOCK_RECORD
  5
1
100
AcDbSymbolTable
 70
0
  0
BLOCK_RECORD
  5
210
100
AcDbSymbolTableRecord
100
AcDbBlockTableRecord
  2
*Model_Space
  0
BLOCK_RECORD
  5
211
100
AcDbSymbolTableRecord
100
AcDbBlockTableRecord
  2
*Paper_Space
  0
BLOCK_RECORD
  5
212
100
AcDbSymbolTableRecord
100
AcDbBlockTableRecord
  2
_FILLED
  0
ENDTAB
  0
TABLE
  2
DIMSTYLE
  5
A
100
AcDbSymbolTable
 70
1
100
AcDbDimStyleTable
 71
0
  0
DIMSTYLE
105
213
100
AcDbSymbolTableRecord
100
AcDbDimStyleTableRecord
  2
STANDARD
 70
0
  3

  4

 40
1.0
 41
1.3150552794
 42
1.0
 43
0.38
 44
1.0
 45
0.0
 46
0.0
 47
0.01
 48
0.01
140
1.8410773912
141
0.09
142
0.0
143
25.4
144
1.0
145
0.0
146
1.0
147
0.625
 71
1
 72
0
 73
0
 74
0
 75
0
 76
0
 77
1
 78
8
 79
2
170
0
171
1
172
0
173
0
174
0
175
0
176
0
177
0
178
0
270
2
179
2
271
2
272
2
273
2
274
2
275
0
280
0
281
0
282
0
283
1
284
8
285
0
286
0
287
3
288
0
340
11
278
46
341
212
342
212
343
212
344
212
  0
ENDTAB
  0
ENDSEC
  0
SECTION
  2
BLOCKS
  0
BLOCK
  5
20
100
AcDbEntity
  8
0
100
AcDbBlockBegin
  2
*Model_Space
 70
0
 10
0.0
 20
0.0
 30
0.0
  3
*Model_Space
  1

  0
ENDBLK
  5
21
100
AcDbEntity
  8
0
100
AcDbBlockEnd
  0
BLOCK
  5
1C
100
AcDbEntity
  8
0
100
AcDbBlockBegin
  2
*Paper_Space
 70
0
 10
0.0
 20
0.0
 30
0.0
  3
*Paper_Space
  1

  0
ENDBLK
  5
1D
100
AcDbEntity
  8
0
100
AcDbBlockEnd
  0
BLOCK
  5
214
100
AcDbEntity
  8
0
100
AcDbBlockBegin
  2
_FILLED
 70
64
 10
0.0
 20
0.0
  3
_FILLED
  1

  0
SOLID
  5
215
100
AcDbEntity
  8
0
  6
BYBLOCK
 62
0
100
AcDbTrace
 10
0.0
 20
0.0
 11
-1.0
 21
0.25
 12
-1.0
 22
-0.25
 13
-1.0
 23
-0.25
  0
ENDBLK
  5
216
100
AcDbEntity
  8
0
  6
BYBLOCK
 62
0
100
AcDbBlockEnd
  0
ENDSEC
  0
SECTION
  2
ENTITIES
  0
LINE
  5
217
100
AcDbEntity
  8
0
100
AcDbLine
 62
7
  6
BYLAYER
 10
30.4361971919
 20
128.2027955183
 11
24.1995413476
 21
124.6020820811
  0
LINE
  5
218
100
AcDbEntity
  8
0
100
AcDbLine
 62
7
  6
BYLAYER
 10
22.4317817546
 20
123.5814716964
 11
12.8151695685
 21
118.0293512038
  0
LINE
  5
219
100
AcDbEntity
  8
0
100
AcDbLine
 62
7
  6
BYLAYER
 10
27.2884533739
 20
123.3346552987
 11
29.0562129669
 21
124.3552656833
  0
LINE
  5
21A
100
AcDbEntity
  8
0
100
AcDbLine
 62
7
  6
BYLAYER
 10
37.6204020886
 20
128.202812787
 11
35.7960741886
 21
127.14954287
  0
LINE
  5
21B
100
AcDbEntity
  8
0
100
AcDbLine
 62
7
  6
BYLAYER
 10
35.3840179848
 20
28.1804523089
 11
26.4611674575
 21
29.560779368
  0
LINE
  5
21C
100
AcDbEntity
  8
0
100
AcDbLine
 62
7
  6
BYLAYER
 10
15.6577431859
 20
45.9811977054
 11
32.981931452
 21
35.9792992197
  0
LINE
  5
21D
100
AcDbEntity
  8
0
100
AcDbLine
 62
7
  6
BYLAYER
 10
14.9097969909
 20
48.1303267075
 11
14.8028730243
 21
48.2140672977
  0
LINE
  5
21E
100
AcDbEntity
  8
0
100
AcDbLine
 62
7
  6
BYLAYER
 10
14.8028730243
 20
48.2140672977
 11
12.8151695685
 21
50.0921658479
  0
LINE
  5
21F
100
AcDbEntity
  8
0
100
AcDbLine
 62
7
  6
BYLAYER
 10
14.5475883951
 20
49.0919759993
 11
15.6577431859
 21
48.0430367841
  0
LINE
  5
220
100
AcDbEntity
  8
0
100
AcDbLine
 62
7
  6
BYLAYER
 10
23.6327285569
 20
31.1937423861
 11
21.2418234818
 21
36.3452673993
  0
LINE
  5
221
100
AcDbEntity
  8
0
100
AcDbLine
 62
7
  6
BYLAYER
 10
36.0064273341
 20
35.9499785319
 11
34.3904622601
 21
36.8829352961
  0
LINE
  5
222
100
AcDbEntity
  8
0
100
AcDbLine
 62
7
  6
BYLAYER
 10
15.6577431859
 20
47.6980310261
 11
14.9095893323
 21
48.1299680831
  0
LINE
  5
223
100
AcDbEntity
  8
0
100
AcDbLine
 62
7
  6
BYLAYER
 10
36.0161647787
 20
35.9668446621
 11
34.2837459521
 21
36.9670345107
  0
LINE
  5
224
100
AcDbEntity
  8
0
100
AcDbLine
 62
7
  6
BYLAYER
 10
15.6577431859
 20
47.7205189454
 11
14.8028730243
 21
48.2140672977
  0
LINE
  5
225
100
AcDbEntity
  8
0
100
AcDbLine
 62
7
  6
BYLAYER
 10
12.8151695685
 20
50.0921658479
 11
14.5475883951
 21
49.0919759993
  0
LINE
  5
226
100
AcDbEntity
  8
0
100
AcDbLine
 62
7
  6
BYLAYER
 10
32.2960424963
 20
38.8451330609
 11
34.0284613229
 21
37.8449432123
  0
LINE
  5
227
100
AcDbEntity
  8
0
100
AcDbLine
 62
7
  6
BYLAYER
 10
14.5475883951
 20
49.667711942
 11
32.2960424963
 21
39.4208690036
  0
LINE
  5
228
100
AcDbEntity
  8
0
100
AcDbLine
 62
7
  6
BYLAYER
 10
37.5252613218
 20
38.3117942174
 11
36.8240712043
 21
38.7166173622
  0
LINE
  5
229
100
AcDbEntity
  8
0
100
AcDbLine
 62
7
  6
BYLAYER
 10
36.8240712043
 20
39.0466114678
 11
36.8568766717
 21
39.0276716507
  0
LINE
  5
22A
100
AcDbEntity
  8
0
100
AcDbLine
 62
7
  6
BYLAYER
 10
34.3906699187
 20
36.8832939205
 11
34.2837459521
 21
36.9670345107
  0
LINE
  5
22B
100
AcDbEntity
  8
0
100
AcDbLine
 62
7
  6
BYLAYER
 10
36.0161647787
 20
35.9668446621
 11
36.1230891575
 21
35.883104783
  0
LINE
  5
22C
100
AcDbEntity
  8
0
100
AcDbLine
 62
7
  6
BYLAYER
 10
34.2837459521
 20
36.9670345107
 11
32.2960424963
 21
38.8451330609
  0
LINE
  5
22D
100
AcDbEntity
  8
0
100
AcDbLine
 62
7
  6
BYLAYER
 10
34.0284613229
 20
37.8449432123
 11
36.0161647787
 21
35.9668446621
  0
LINE
  5
22E
100
AcDbEntity
  8
0
100
AcDbLine
 62
7
  6
BYLAYER
 10
12.8151695685
 20
118.0293512038
 11
12.8151695685
 21
99.0456700055
  0
LINE
  5
22F
100
AcDbEntity
  8
0
100
AcDbLine
 62
7
  6
BYLAYER
 10
12.8151695685
 20
98.8823695221
 11
12.8151695685
 21
96.3920371499
  0
LINE
  5
230
100
AcDbEntity
  8
0
100
AcDbLine
 62
7
  6
BYLAYER
 10
12.8151695685
 20
86.5940081443
 11
12.8151695685
 21
50.0921658479
  0
LINE
  5
231
100
AcDbEntity
  8
0
100
AcDbLine
 62
7
  6
BYLAYER
 10
14.5475883951
 20
49.667711942
 11
14.5475883951
 21
49.0919759993
  0
LINE
  5
232
100
AcDbEntity
  8
0
100
AcDbLine
 62
7
  6
BYLAYER
 10
15.6435849173
 20
88.1891048103
 11
15.6435849173
 21
88.2269847598
  0
LINE
  5
233
100
AcDbEntity
  8
0
100
AcDbLine
 62
7
  6
BYLAYER
 10
15.6577431859
 20
45.9811977054
 11
15.6577431859
 21
49.0267782746
  0
LINE
  5
234
100
AcDbEntity
  8
0
100
AcDbLine
 62
7
  6
BYLAYER
 10
16.4991805604
 20
88.720960186
 11
16.4991805604
 21
94.2651205293
  0
LINE
  5
235
100
AcDbEntity
  8
0
100
AcDbLine
 62
7
  6
BYLAYER
 10
38.8801126757
 20
116.5347454963
 11
40.6478722687
 21
117.555355881
  0
LINE
  5
236
100
AcDbEntity
  8
0
100
AcDbLine
 62
7
  6
BYLAYER
 10
12.9505258067
 20
98.9605170162
 11
12.8151695685
 21
98.8823695221
  0
LINE
  5
237
100
AcDbEntity
  8
0
100
AcDbLine
 62
7
  6
BYLAYER
 10
36.8568766717
 20
39.0276716507
 11
40.3159057687
 21
37.9682031443
  0
LINE
  5
238
100
AcDbEntity
  8
0
100
AcDbLine
 62
7
  6
BYLAYER
 10
21.2418234818
 20
36.3452673993
 11
21.1056293504
 21
36.942985083
  0
LINE
  5
239
100
AcDbEntity
  8
0
100
AcDbLine
 62
7
  6
BYLAYER
 10
18.2707260827
 20
93.2423413834
 11
18.2707260827
 21
90.2956055093
  0
LINE
  5
23A
100
AcDbEntity
  8
0
100
AcDbLine
 62
7
  6
BYLAYER
 10
19.073090636
 20
99.8826775014
 11
19.073090636
 21
96.6166678329
  0
LINE
  5
23B
100
AcDbEntity
  8
0
100
AcDbLine
 62
7
  6
BYLAYER
 10
19.1438010198
 20
99.8418537659
 11
19.1438010198
 21
96.6574922482
  0
LINE
  5
23C
100
AcDbEntity
  8
0
100
AcDbLine
 62
7
  6
BYLAYER
 10
19.5327119574
 20
92.4729248611
 11
19.5327119574
 21
84.7569770192
  0
LINE
  5
23D
100
AcDbEntity
  8
0
100
AcDbLine
 62
7
  6
BYLAYER
 10
21.1055224766
 20
36.9429851231
 11
21.1055224766
 21
42.8359920195
  0
LINE
  5
23E
100
AcDbEntity
  8
0
100
AcDbLine
 62
7
  6
BYLAYER
 10
21.2418234818
 20
36.3452673993
 11
21.2418234818
 21
42.7573003777
  0
LINE
  5
23F
100
AcDbEntity
  8
0
100
AcDbLine
 62
7
  6
BYLAYER
 10
51.6494590356
 20
120.1033162173
 11
49.8251311355
 21
119.0500463003
  0
LINE
  5
240
100
AcDbEntity
  8
0
100
AcDbLine
 62
7
  6
BYLAYER
 10
51.6494889463
 20
115.9555728827
 11
47.5341989352
 21
113.5796232695
  0
LINE
  5
241
100
AcDbEntity
  8
0
100
AcDbLine
 62
7
  6
BYLAYER
 10
43.645073509
 20
111.3342490608
 11
34.0284613229
 21
105.7821285682
  0
LINE
  5
242
100
AcDbEntity
  8
0
100
AcDbLine
 62
7
  6
BYLAYER
 10
23.6327285569
 20
41.3769419169
 11
23.6327285569
 21
31.1937423861
  0
LINE
  5
243
100
AcDbEntity
  8
0
100
AcDbLine
 62
7
  6
BYLAYER
 10
24.1995413476
 20
124.6020820811
 11
24.1995413476
 21
122.5608783085
  0
LINE
  5
244
100
AcDbEntity
  8
0
100
AcDbLine
 62
7
  6
BYLAYER
 10
19.1438010198
 20
96.6574922482
 11
19.073090636
 21
96.6166678329
  0
LINE
  5
245
100
AcDbEntity
  8
0
100
AcDbLine
 62
7
  6
BYLAYER
 10
48.4534031538
 20
113.293876925
 11
56.5850972817
 21
117.9886846945
  0
LINE
  5
246
100
AcDbEntity
  8
0
100
AcDbLine
 62
7
  6
BYLAYER
 10
57.7871885248
 20
116.6414874851
 11
49.6554943969
 21
111.9466797156
  0
LINE
  5
247
100
AcDbEntity
  8
0
100
AcDbLine
 62
7
  6
BYLAYER
 10
19.5680680546
 20
92.4933375915
 11
19.5327119574
 21
92.4729248611
  0
LINE
  5
248
100
AcDbEntity
  8
0
100
AcDbLine
 62
7
  6
BYLAYER
 10
26.4611674575
 20
29.560779368
 11
26.4611674575
 21
39.7439788988
  0
LINE
  5
249
100
AcDbEntity
  8
0
100
AcDbLine
 62
7
  6
BYLAYER
 10
27.310918934
 20
80.2663287195
 11
27.310918934
 21
87.9822765613
  0
LINE
  5
24A
100
AcDbEntity
  8
0
100
AcDbLine
 62
7
  6
BYLAYER
 10
27.7705402553
 20
91.5953065523
 11
27.7705402553
 21
94.8613162208
  0
LINE
  5
24B
100
AcDbEntity
  8
0
100
AcDbLine
 62
7
  6
BYLAYER
 10
28.2089408073
 20
80.7847987949
 11
28.2089408073
 21
87.5046402411
  0
LINE
  5
24C
100
AcDbEntity
  8
0
100
AcDbLine
 62
7
  6
BYLAYER
 10
28.2278431854
 20
87.4937271949
 11
28.2278431854
 21
80.7738857486
  0
LINE
  5
24D
100
AcDbEntity
  8
0
100
AcDbLine
 62
7
  6
BYLAYER
 10
19.5327119574
 20
91.0242090446
 11
18.2707260827
 21
90.2956055093
  0
LINE
  5
24E
100
AcDbEntity
  8
0
100
AcDbLine
 62
7
  6
BYLAYER
 10
15.6107794498
 20
88.2080446274
 11
12.8151695685
 21
86.5940081443
  0
LINE
  5
24F
100
AcDbEntity
  8
0
100
AcDbLine
 62
7
  6
BYLAYER
 10
15.6435849173
 20
88.2269847598
 11
16.4991805604
 21
88.720960186
  0
LINE
  5
250
100
AcDbEntity
  8
0
100
AcDbLine
 62
7
  6
BYLAYER
 10
17.5341179022
 20
87.0976297751
 11
17.5669233697
 21
87.1165699075
  0
LINE
  5
251
100
AcDbEntity
  8
0
100
AcDbLine
 62
7
  6
BYLAYER
 10
22.1691301855
 20
84.8642675615
 11
22.0739517919
 21
85.0291306551
  0
LINE
  5
252
100
AcDbEntity
  8
0
100
AcDbLine
 62
7
  6
BYLAYER
 10
31.013832304
 20
85.8852720154
 11
31.013832304
 21
82.3823677149
  0
LINE
  5
253
100
AcDbEntity
  8
0
100
AcDbLine
 62
7
  6
BYLAYER
 10
32.2960424963
 20
39.4208690036
 11
32.2960424963
 21
38.8451330609
  0
LINE
  5
254
100
AcDbEntity
  8
0
100
AcDbLine
 62
7
  6
BYLAYER
 10
32.981931452
 20
35.9792992197
 11
32.981931452
 21
38.1970650357
  0
LINE
  5
255
100
AcDbEntity
  8
0
100
AcDbLine
 62
7
  6
BYLAYER
 10
34.0284613229
 20
74.3467855087
 11
34.0284613229
 21
37.8449432123
  0
LINE
  5
256
100
AcDbEntity
  8
0
100
AcDbLine
 62
7
  6
BYLAYER
 10
34.0284613229
 20
84.1448145142
 11
34.0284613229
 21
105.7821285682
  0
LINE
  5
257
100
AcDbEntity
  8
0
100
AcDbLine
 62
7
  6
BYLAYER
 10
22.2132398279
 20
85.1136676167
 11
22.0734295157
 21
85.0292294112
  0
LINE
  5
258
100
AcDbEntity
  8
0
100
AcDbLine
 62
7
  6
BYLAYER
 10
19.5327272312
 20
84.7569505641
 11
17.7649376445
 21
83.7363228627
  0
LINE
  5
259
100
AcDbEntity
  8
0
100
AcDbLine
 62
7
  6
BYLAYER
 10
22.2142002078
 20
85.1142221082
 11
24.6714858391
 21
86.5329771919
  0
LINE
  5
25A
100
AcDbEntity
  8
0
100
AcDbLine
 62
7
  6
BYLAYER
 10
27.3462750312
 20
88.0026892917
 11
27.310918934
 21
87.9822765613
  0
LINE
  5
25B
100
AcDbEntity
  8
0
100
AcDbLine
 62
7
  6
BYLAYER
 10
24.7714647515
 20
86.3598025923
 11
22.3141857325
 21
84.9410513263
  0
LINE
  5
25C
100
AcDbEntity
  8
0
100
AcDbLine
 62
7
  6
BYLAYER
 10
22.3132217738
 20
84.9404947685
 11
22.1701909244
 21
84.8616346654
  0
LINE
  5
25D
100
AcDbEntity
  8
0
100
AcDbLine
 62
7
  6
BYLAYER
 10
22.4253617437
 20
85.2361568589
 11
22.5253621601
 21
85.0629520185
  0
LINE
  5
25E
100
AcDbEntity
  8
0
100
AcDbLine
 62
7
  6
BYLAYER
 10
24.6744980729
 20
86.5277599992
 11
24.7696797189
 21
86.3628942709
  0
LINE
  5
25F
100
AcDbEntity
  8
0
100
AcDbLine
 62
7
  6
BYLAYER
 10
34.9335382193
 20
77.0901769765
 11
34.9335382193
 21
77.052297027
  0
LINE
  5
260
100
AcDbEntity
  8
0
100
AcDbLine
 62
7
  6
BYLAYER
 10
35.3840179847
 20
36.309318608
 11
35.3840179847
 21
28.1804523089
  0
LINE
  5
261
100
AcDbEntity
  8
0
100
AcDbLine
 62
7
  6
BYLAYER
 10
35.9409267924
 20
83.7475071271
 11
35.9409267924
 21
80.0939411655
  0
LINE
  5
262
100
AcDbEntity
  8
0
100
AcDbLine
 62
7
  6
BYLAYER
 10
36.8240712043
 20
75.9608219917
 11
36.8240712043
 21
38.2423361125
  0
LINE
  5
263
100
AcDbEntity
  8
0
100
AcDbLine
 62
7
  6
BYLAYER
 10
36.8568766717
 20
39.0276716507
 11
36.8568766717
 21
75.9797621242
  0
LINE
  5
264
100
AcDbEntity
  8
0
100
AcDbLine
 62
7
  6
BYLAYER
 10
37.7124723148
 20
76.4737375504
 11
37.7124723148
 21
86.2717665559
  0
LINE
  5
265
100
AcDbEntity
  8
0
100
AcDbLine
 62
7
  6
BYLAYER
 10
57.7871885248
 20
103.577448811
 11
49.6554943969
 21
98.8826410415
  0
LINE
  5
266
100
AcDbEntity
  8
0
100
AcDbLine
 62
7
  6
BYLAYER
 10
61.8884231643
 20
105.822885839
 11
63.6561827573
 21
106.8434962237
  0
LINE
  5
267
100
AcDbEntity
  8
0
100
AcDbLine
 62
7
  6
BYLAYER
 10
55.2415764393
 20
99.0457719861
 11
34.0284613229
 21
86.7984473699
  0
LINE
  5
268
100
AcDbEntity
  8
0
100
AcDbLine
 62
7
  6
BYLAYER
 10
34.0284613229
 20
86.6351468865
 11
55.2415764393
 21
98.8824715026
  0
LINE
  5
269
100
AcDbEntity
  8
0
100
AcDbLine
 62
7
  6
BYLAYER
 10
39.2477169796
 20
28.7781700327
 11
39.2477169796
 21
38.2953794557
  0
LINE
  5
26A
100
AcDbEntity
  8
0
100
AcDbLine
 62
7
  6
BYLAYER
 10
34.0284613229
 20
84.1448145142
 11
37.7124723148
 21
86.2717665559
  0
LINE
  5
26B
100
AcDbEntity
  8
0
100
AcDbLine
 62
7
  6
BYLAYER
 10
28.2089408073
 20
80.7847987949
 11
27.310918934
 21
80.2663287195
  0
LINE
  5
26C
100
AcDbEntity
  8
0
100
AcDbLine
 62
7
  6
BYLAYER
 10
31.013832304
 20
82.3823677149
 11
28.2278431854
 21
80.7738857486
  0
LINE
  5
26D
100
AcDbEntity
  8
0
100
AcDbLine
 62
7
  6
BYLAYER
 10
33.5662065268
 20
81.5447702762
 11
35.9409267924
 21
82.9158074768
  0
LINE
  5
26E
100
AcDbEntity
  8
0
100
AcDbLine
 62
7
  6
BYLAYER
 10
34.0284613229
 20
74.3467855087
 11
29.0786934044
 21
77.2044706994
  0
LINE
  5
26F
100
AcDbEntity
  8
0
100
AcDbLine
 62
7
  6
BYLAYER
 10
17.7649376445
 20
83.7363228627
 11
12.8151695685
 21
86.5940081443
  0
LINE
  5
270
100
AcDbEntity
  8
0
100
AcDbLine
 62
7
  6
BYLAYER
 10
29.9767156688
 20
77.722940549
 11
29.9956174983
 21
77.7120278195
  0
LINE
  5
271
100
AcDbEntity
  8
0
100
AcDbLine
 62
7
  6
BYLAYER
 10
43.645073509
 20
111.3342490608
 11
43.645073509
 21
100.7197176381
  0
LINE
  5
272
100
AcDbEntity
  8
0
100
AcDbLine
 62
7
  6
BYLAYER
 10
45.7796624317
 20
41.1226856947
 11
45.7796624317
 21
32.5493679868
  0
LINE
  5
273
100
AcDbEntity
  8
0
100
AcDbLine
 62
7
  6
BYLAYER
 10
46.8270672722
 20
111.9466729169
 11
46.8270672722
 21
98.8826342428
  0
LINE
  5
274
100
AcDbEntity
  8
0
100
AcDbLine
 62
7
  6
BYLAYER
 10
46.9512235312
 20
34.1823310049
 11
46.9512235312
 21
41.7990827733
  0
LINE
  5
275
100
AcDbEntity
  8
0
100
AcDbLine
 62
7
  6
BYLAYER
 10
29.0786934044
 20
77.2044706994
 11
29.9767156688
 21
77.722940549
  0
LINE
  5
276
100
AcDbEntity
  8
0
100
AcDbLine
 62
7
  6
BYLAYER
 10
29.9956174983
 20
77.7120278195
 11
32.7816066169
 21
79.3205097858
  0
LINE
  5
277
100
AcDbEntity
  8
0
100
AcDbLine
 62
7
  6
BYLAYER
 10
34.9007327519
 20
77.071236844
 11
34.9335382193
 21
77.0901769765
  0
LINE
  5
278
100
AcDbEntity
  8
0
100
AcDbLine
 62
7
  6
BYLAYER
 10
36.8240712043
 20
75.9608219917
 11
34.9007327519
 21
77.071236844
  0
LINE
  5
279
100
AcDbEntity
  8
0
100
AcDbLine
 62
7
  6
BYLAYER
 10
17.5341179022
 20
87.0976297751
 11
15.6107794498
 21
88.2080446274
  0
LINE
  5
27A
100
AcDbEntity
  8
0
100
AcDbLine
 62
7
  6
BYLAYER
 10
36.8568766717
 20
75.9797621242
 11
34.9335382193
 21
77.0901769765
  0
LINE
  5
27B
100
AcDbEntity
  8
0
100
AcDbLine
 62
7
  6
BYLAYER
 10
15.6435849173
 20
88.2269847598
 11
17.5669233697
 21
87.1165699075
  0
LINE
  5
27C
100
AcDbEntity
  8
0
100
AcDbLine
 62
7
  6
BYLAYER
 10
16.4991805604
 20
88.720960186
 11
19.5327119574
 21
86.9695896386
  0
LINE
  5
27D
100
AcDbEntity
  8
0
100
AcDbLine
 62
7
  6
BYLAYER
 10
32.7816066169
 20
79.3205097858
 11
37.7124723148
 21
76.4737375504
  0
LINE
  5
27E
100
AcDbEntity
  8
0
100
AcDbLine
 62
7
  6
BYLAYER
 10
49.6554943969
 20
98.8826410415
 11
49.6554943969
 21
111.9466797156
  0
LINE
  5
27F
100
AcDbEntity
  8
0
100
AcDbLine
 62
7
  6
BYLAYER
 10
49.8251311355
 20
117.7393360897
 11
49.8251311355
 21
119.0500463003
  0
LINE
  5
280
100
AcDbEntity
  8
0
100
AcDbLine
 62
7
  6
BYLAYER
 10
51.6494590356
 20
120.1033162173
 11
51.6494590356
 21
118.352239683
  0
LINE
  5
281
100
AcDbEntity
  8
0
100
AcDbLine
 62
7
  6
BYLAYER
 10
51.6494889463
 20
115.9555728827
 11
51.6494889463
 21
115.139126903
  0
LINE
  5
282
100
AcDbEntity
  8
0
100
AcDbLine
 62
7
  6
BYLAYER
 10
36.8240712043
 20
75.9608219917
 11
34.0284613229
 21
74.3467855087
  0
LINE
  5
283
100
AcDbEntity
  8
0
100
AcDbLine
 62
7
  6
BYLAYER
 10
36.8568766717
 20
75.9797621242
 11
37.7124723148
 21
76.4737375504
  0
LINE
  5
284
100
AcDbEntity
  8
0
100
AcDbLine
 62
7
  6
BYLAYER
 10
27.310918934
 20
87.9822765613
 11
19.5327119574
 21
92.4729248611
  0
LINE
  5
285
100
AcDbEntity
  8
0
100
AcDbLine
 62
7
  6
BYLAYER
 10
12.8151695685
 20
96.3920371499
 11
34.0284613229
 21
84.1448145142
  0
LINE
  5
286
100
AcDbEntity
  8
0
100
AcDbLine
 62
7
  6
BYLAYER
 10
53.5929054484
 20
117.2129419969
 11
53.5929054484
 21
116.261152246
  0
LINE
  5
287
100
AcDbEntity
  8
0
100
AcDbLine
 62
7
  6
BYLAYER
 10
55.2415764393
 20
46.5854916855
 11
55.2415764393
 21
98.8824715026
  0
LINE
  5
288
100
AcDbEntity
  8
0
100
AcDbLine
 62
7
  6
BYLAYER
 10
55.2415764393
 20
99.0457719861
 11
55.2415764393
 21
102.1077477611
  0
LINE
  5
289
100
AcDbEntity
  8
0
100
AcDbLine
 62
7
  6
BYLAYER
 10
12.8151695685
 20
98.8823695221
 11
34.0284613229
 21
86.6351468865
  0
LINE
  5
28A
100
AcDbEntity
  8
0
100
AcDbLine
 62
7
  6
BYLAYER
 10
34.0284613229
 20
86.7984473699
 11
12.8151695685
 21
99.0456700055
  0
LINE
  5
28B
100
AcDbEntity
  8
0
100
AcDbLine
 62
7
  6
BYLAYER
 10
19.073090636
 20
96.6166678329
 11
27.7705402553
 21
91.5953065523
  0
LINE
  5
28C
100
AcDbEntity
  8
0
100
AcDbLine
 62
7
  6
BYLAYER
 10
19.1438010198
 20
96.6574922482
 11
27.7705402553
 21
91.6769547032
  0
LINE
  5
28D
100
AcDbEntity
  8
0
100
AcDbLine
 62
7
  6
BYLAYER
 10
27.7705402553
 20
94.8613162208
 11
19.073090636
 21
99.8826775014
  0
LINE
  5
28E
100
AcDbEntity
  8
0
100
AcDbLine
 62
7
  6
BYLAYER
 10
57.7871885248
 20
116.6414874851
 11
57.7871885248
 21
103.577448811
  0
LINE
  5
28F
100
AcDbEntity
  8
0
100
AcDbLine
 62
7
  6
BYLAYER
 10
58.2114525936
 20
103.5774498308
 11
58.2114525936
 21
116.6414885049
  0
LINE
  5
290
100
AcDbEntity
  8
0
100
AcDbLine
 62
7
  6
BYLAYER
 10
97.1279166636
 20
96.2147695632
 11
95.3601570705
 21
95.1941591785
  0
LINE
  5
291
100
AcDbEntity
  8
0
100
AcDbLine
 62
7
  6
BYLAYER
 10
94.0619009387
 20
89.2891437793
 11
92.2941413456
 21
88.2685333946
  0
LINE
  5
292
100
AcDbEntity
  8
0
100
AcDbLine
 62
7
  6
BYLAYER
 10
99.3652238773
 20
92.3469728128
 11
97.5974642842
 21
91.3263624281
  0
LINE
  5
293
100
AcDbEntity
  8
0
100
AcDbLine
 62
7
  6
BYLAYER
 10
34.0284613229
 20
105.7821285682
 11
12.8151695685
 21
118.0293512038
  0
LINE
  5
294
100
AcDbEntity
  8
0
100
AcDbLine
 62
7
  6
BYLAYER
 10
43.645073509
 20
100.7197176381
 11
46.8270672722
 21
98.8826342428
  0
LINE
  5
295
100
AcDbEntity
  8
0
100
AcDbLine
 62
7
  6
BYLAYER
 10
99.3652238773
 20
84.4351662387
 11
97.5974642842
 21
83.4145558541
  0
LINE
  5
296
100
AcDbEntity
  8
0
100
AcDbLine
 62
7
  6
BYLAYER
 10
95.3601570705
 20
82.1301205044
 11
97.5974642842
 21
83.4145558541
  0
LINE
  5
297
100
AcDbEntity
  8
0
100
AcDbLine
 62
7
  6
BYLAYER
 10
55.2415764393
 20
98.8824715026
 11
55.1062176416
 21
98.960619173
  0
LINE
  5
298
100
AcDbEntity
  8
0
100
AcDbLine
 62
7
  6
BYLAYER
 10
55.1415757615
 20
98.9063864558
 11
55.2415764393
 21
98.8824715026
  0
LINE
  5
299
100
AcDbEntity
  8
0
100
AcDbLine
 62
7
  6
BYLAYER
 10
43.645073509
 20
111.3342490608
 11
22.4317817546
 21
123.5814716964
  0
LINE
  5
29A
100
AcDbEntity
  8
0
100
AcDbLine
 62
7
  6
BYLAYER
 10
32.981931452
 20
35.9792992197
 11
34.4687739774
 21
36.8377230279
  0
LINE
  5
29B
100
AcDbEntity
  8
0
100
AcDbLine
 62
7
  6
BYLAYER
 10
37.2736062715
 20
38.4570840416
 11
37.7748832998
 21
38.7464947413
  0
LINE
  5
29C
100
AcDbEntity
  8
0
100
AcDbLine
 62
7
  6
BYLAYER
 10
55.2415764393
 20
46.5854916855
 11
40.3159057687
 21
37.9682031443
  0
LINE
  5
29D
100
AcDbEntity
  8
0
100
AcDbLine
 62
7
  6
BYLAYER
 10
95.3601570705
 20
82.1301205044
 11
58.2114525936
 21
103.5774498308
  0
LINE
  5
29E
100
AcDbEntity
  8
0
100
AcDbLine
 62
7
  6
BYLAYER
 10
26.9463371015
 20
123.0162546894
 11
24.1995413476
 21
124.6020820811
  0
LINE
  5
29F
100
AcDbEntity
  8
0
100
AcDbLine
 62
7
  6
BYLAYER
 10
38.8801126757
 20
116.5347454963
 11
46.8270672722
 21
111.9466729169
  0
LINE
  5
2A0
100
AcDbEntity
  8
0
100
AcDbLine
 62
7
  6
BYLAYER
 10
40.6478722687
 20
117.555355881
 11
48.0291390851
 21
113.2938759052
  0
LINE
  5
2A1
100
AcDbEntity
  8
0
100
AcDbLine
 62
7
  6
BYLAYER
 10
61.8884231643
 20
105.822885839
 11
92.2941413456
 21
88.2685333946
  0
LINE
  5
2A2
100
AcDbEntity
  8
0
100
AcDbLine
 62
7
  6
BYLAYER
 10
12.9151706666
 20
98.9062785555
 11
12.8151695685
 21
98.8823695221
  0
LINE
  5
2A3
100
AcDbEntity
  8
0
100
AcDbLine
 62
7
  6
BYLAYER
 10
63.6561827573
 20
106.8434962237
 11
94.0619009387
 21
89.2891437793
  0
LINE
  5
2A4
100
AcDbEntity
  8
0
100
AcDbLine
 62
7
  6
BYLAYER
 10
51.6494889463
 20
115.9555728827
 11
49.8251458554
 21
117.0088340293
  0
LINE
  5
2A5
100
AcDbEntity
  8
0
100
AcDbLine
 62
7
  6
BYLAYER
 10
30.4361971919
 20
128.2027955183
 11
32.2605402827
 21
127.1495343716
  0
LINE
  5
2A6
100
AcDbEntity
  8
0
100
AcDbLine
 62
7
  6
BYLAYER
 10
92.2941413456
 20
92.5959962054
 11
61.8884231643
 21
110.1503486498
  0
LINE
  5
2A7
100
AcDbEntity
  8
0
100
AcDbLine
 62
7
  6
BYLAYER
 10
39.2477169796
 20
28.7781700327
 11
45.7796624317
 21
32.5493679868
  0
LINE
  5
2A8
100
AcDbEntity
  8
0
100
AcDbLine
 62
7
  6
BYLAYER
 10
53.8272836736
 20
116.3964697697
 11
53.5929054484
 21
116.5317850399
  0
LINE
  5
2A9
100
AcDbEntity
  8
0
100
AcDbLine
 62
7
  6
BYLAYER
 10
51.6494590356
 20
120.1033162173
 11
37.6204020886
 21
128.202812787
  0
LINE
  5
2AA
100
AcDbEntity
  8
0
100
AcDbLine
 62
7
  6
BYLAYER
 10
95.3601570705
 20
95.1941591785
 11
58.2114525936
 21
116.6414885049
  0
LINE
  5
2AB
100
AcDbEntity
  8
0
100
AcDbLine
 62
7
  6
BYLAYER
 10
97.1279166636
 20
96.2147695632
 11
59.4135244065
 21
117.9886914932
  0
LINE
  5
2AC
100
AcDbEntity
  8
0
100
AcDbLine
 62
7
  6
BYLAYER
 10
97.5974642842
 20
83.4145558541
 11
97.5974642842
 21
91.3263624281
  0
LINE
  5
2AD
100
AcDbEntity
  8
0
100
AcDbLine
 62
7
  6
BYLAYER
 10
99.3652238773
 20
84.4351662387
 11
99.3652238773
 21
92.3469728128
  0
LINE
  5
2AE
100
AcDbEntity
  8
0
100
AcDbLine
 62
7
  6
BYLAYER
 10
97.5974642842
 20
91.3263624281
 11
95.3601570705
 21
95.1941591785
  0
LINE
  5
2AF
100
AcDbEntity
  8
0
100
AcDbLine
 62
7
  6
BYLAYER
 10
97.1279166636
 20
96.2147695632
 11
99.3652238773
 21
92.3469728128
  0
ARC
  5
2B0
100
AcDbEntity
  8
0
100
AcDbCircle
 62
7
  6
BYLAYER
 10
95.2652502665
 20
91.3728584137
 40
2.4062244872
100
AcDbArc
 50
239.9934811229
 51
242.5435040368
  0
ARC
  5
2B1
100
AcDbEntity
  8
0
100
AcDbCircle
 62
7
  6
BYLAYER
 10
35.0912691744
 20
81.4664072446
 40
1.5270746032
100
AcDbArc
 50
177.0585301804
 51
180.0108864231
  0
ARC
  5
2B2
100
AcDbEntity
  8
0
100
AcDbCircle
 62
7
  6
BYLAYER
 10
22.7070734635
 20
87.2643061352
 40
0.8845233206
100
AcDbArc
 50
125.2215378673
 51
130.2907937639
  0
ARC
  5
2B3
100
AcDbEntity
  8
0
100
AcDbCircle
 62
7
  6
BYLAYER
 10
22.5604725002
 20
87.1862917527
 40
0.8785512487
100
AcDbArc
 50
109.6326140813
 51
119.9470557407
  0
ARC
  5
2B4
100
AcDbEntity
  8
0
100
AcDbCircle
 62
7
  6
BYLAYER
 10
24.2824952628
 20
84.2039405542
 40
0.8773303361
100
AcDbArc
 50
300.0430113061
 51
310.293589293
  0
ARC
  5
2B5
100
AcDbEntity
  8
0
100
AcDbCircle
 62
7
  6
BYLAYER
 10
24.2484246517
 20
106.3897457818
 40
0.8452554795
100
AcDbArc
 50
300.0589711541
 51
310.7362735469
  0
ARC
  5
2B6
100
AcDbEntity
  8
0
100
AcDbCircle
 62
7
  6
BYLAYER
 10
22.5935166954
 20
109.2564363225
 40
0.84464743
100
AcDbArc
 50
109.2644744875
 51
119.9504835665
  0
ARC
  5
2B7
100
AcDbEntity
  8
0
100
AcDbCircle
 62
7
  6
BYLAYER
 10
35.3540322489
 20
127.3541638619
 40
0.6742320532
100
AcDbArc
 50
351.7954420331
 51
359.9556867925
  0
ARC
  5
2B8
100
AcDbEntity
  8
0
100
AcDbCircle
 62
7
  6
BYLAYER
 10
32.696585224
 20
127.3534288175
 40
0.668249607
100
AcDbArc
 50
179.9816981301
 51
186.2183765713
  0
ARC
  5
2B9
100
AcDbEntity
  8
0
100
AcDbCircle
 62
7
  6
BYLAYER
 10
50.2609211587
 20
117.2126695729
 40
0.6679799905
100
AcDbArc
 50
178.2931276223
 51
179.9766384088
  0
SPLINE
  5
2BA
100
AcDbEntity
  8
0
100
AcDbSpline
 62
7
  6
BYLAYER
 70
0
 71
3
 72
15
 73
11
 74
0
 42
0.0000001
 43
0.0000001
 44
0.0000000001
 40
0.0
 40
0.0
 40
0.0
 40
0.0
 40
0.11288629
 40
0.2353062738
 40
0.3647152999
 40
0.4979193315
 40
0.6314221254
 40
0.7616669778
 40
0.8854480584
 40
1.0
 40
1.0
 40
1.0
 40
1.0
 10
61.7833466295
 20
110.1585194688
 30
0.0
 10
61.7791073255
 20
110.009496418
 30
0.0
 10
61.7991438916
 20
109.6977393046
 30
0.0
 10
61.9003177913
 20
109.2254425006
 30
0.0
 10
62.0698966177
 20
108.7446752608
 30
0.0
 10
62.3012855471
 20
108.2742087735
 30
0.0
 10
62.5854979217
 20
107.8323367757
 30
0.0
 10
62.9114600011
 20
107.4361169604
 30
0.0
 10
63.2664970594
 20
107.1012073769
 30
0.0
 10
63.5251670254
 20
106.9191364806
 30
0.0
 10
63.6561827573
 20
106.8434962237
 30
0.0
  0
SPLINE
  5
2BB
100
AcDbEntity
  8
0
100
AcDbSpline
 62
7
  6
BYLAYER
 70
0
 71
3
 72
11
 73
7
 74
0
 42
0.0000001
 43
0.0000001
 44
0.0000000001
 40
0.0
 40
0.0
 40
0.0
 40
0.0
 40
0.2177804705
 40
0.4509239556
 40
0.7102606077
 40
1.0
 40
1.0
 40
1.0
 40
1.0
 10
60.5634368515
 20
110.2815745451
 30
0.0
 10
60.6508393607
 20
110.3320563015
 30
0.0
 10
60.8517023255
 20
110.4049240796
 30
0.0
 10
61.1852769493
 20
110.4133814024
 30
0.0
 10
61.5408281545
 20
110.327555098
 30
0.0
 10
61.7721290385
 20
110.2174895757
 30
0.0
 10
61.8884231643
 20
110.1503486498
 30
0.0
  0
SPLINE
  5
2BC
100
AcDbEntity
  8
0
100
AcDbSpline
 62
7
  6
BYLAYER
 70
0
 71
3
 72
15
 73
11
 74
0
 42
0.0000001
 43
0.0000001
 44
0.0000000001
 40
0.0
 40
0.0
 40
0.0
 40
0.0
 40
0.1141231812
 40
0.2373468278
 40
0.366971913
 40
0.4999994099
 40
0.6330269884
 40
0.76265231
 40
0.885876356
 40
1.0
 40
1.0
 40
1.0
 40
1.0
 10
49.6554943969
 20
98.8826410415
 30
0.0
 10
49.5587074472
 20
98.8267614036
 30
0.0
 10
49.3469721714
 20
98.7282119617
 30
0.0
 10
49.0022528284
 20
98.6233702468
 30
0.0
 10
48.6289764383
 20
98.5589148551
 30
0.0
 10
48.2412834144
 20
98.5371157477
 30
0.0
 10
47.8535900543
 20
98.5589129707
 30
0.0
 10
47.4803126432
 20
98.6233665632
 30
0.0
 10
47.1355916975
 20
98.7282066806
 30
0.0
 10
46.9238550173
 20
98.8267550762
 30
0.0
 10
46.8270672722
 20
98.8826342428
 30
0.0
  0
SPLINE
  5
2BD
100
AcDbEntity
  8
0
100
AcDbSpline
 62
7
  6
BYLAYER
 70
0
 71
3
 72
11
 73
7
 74
0
 42
0.0000001
 43
0.0000001
 44
0.0000000001
 40
0.0
 40
0.0
 40
0.0
 40
0.0
 40
0.2372436391
 40
0.5000005261
 40
0.7627571268
 40
1.0
 40
1.0
 40
1.0
 40
1.0
 10
58.2114525936
 20
103.5774498308
 30
0.0
 10
58.1813353752
 20
103.5948376216
 30
0.0
 10
58.1112981505
 20
103.6202072921
 30
0.0
 10
57.9993202257
 20
103.6323629313
 30
0.0
 10
57.8873424699
 20
103.6202067811
 30
0.0
 10
57.8173055206
 20
103.5948367628
 30
0.0
 10
57.7871885248
 20
103.577448811
 30
0.0
  0
SPLINE
  5
2BE
100
AcDbEntity
  8
0
100
AcDbSpline
 62
7
  6
BYLAYER
 70
0
 71
3
 72
15
 73
11
 74
0
 42
0.0000001
 43
0.0000001
 44
0.0000000001
 40
0.0
 40
0.0
 40
0.0
 40
0.0
 40
0.1141236058
 40
0.2373475862
 40
0.3669728832
 40
0.5000004526
 40
0.6330279586
 40
0.7626530685
 40
0.8858767805
 40
1.0
 40
1.0
 40
1.0
 40
1.0
 10
59.4135244065
 20
117.9886914932
 30
0.0
 10
59.3167366937
 20
118.044570641
 30
0.0
 10
59.1050001211
 20
118.1431190255
 30
0.0
 10
58.7602792937
 20
118.2479591016
 30
0.0
 10
58.3870019879
 20
118.312412721
 30
0.0
 10
57.999308654
 20
118.3342099883
 30
0.0
 10
57.6116156039
 20
118.3124109252
 30
0.0
 10
57.2383391085
 20
118.2479555604
 30
0.0
 10
56.8936196472
 20
118.1431138043
 30
0.0
 10
56.6818842639
 20
118.0445643511
 30
0.0
 10
56.5850972817
 20
117.9886846945
 30
0.0
  0
SPLINE
  5
2BF
100
AcDbEntity
  8
0
100
AcDbSpline
 62
7
  6
BYLAYER
 70
0
 71
3
 72
11
 73
7
 74
0
 42
0.0000001
 43
0.0000001
 44
0.0000000001
 40
0.0
 40
0.0
 40
0.0
 40
0.0
 40
0.2372428732
 40
0.4999994739
 40
0.7627563609
 40
1.0
 40
1.0
 40
1.0
 40
1.0
 10
48.4534031538
 20
113.293876925
 30
0.0
 10
48.4232861581
 20
113.2764889732
 30
0.0
 10
48.3532492087
 20
113.2511189549
 30
0.0
 10
48.2412714529
 20
113.2389628047
 30
0.0
 10
48.1292935282
 20
113.2511184439
 30
0.0
 10
48.0592563034
 20
113.2764881144
 30
0.0
 10
48.0291390851
 20
113.2938759052
 30
0.0
  0
SPLINE
  5
2C0
100
AcDbEntity
  8
0
100
AcDbSpline
 62
7
  6
BYLAYER
 70
0
 71
3
 72
14
 73
10
 74
0
 42
0.0000001
 43
0.0000001
 44
0.0000000001
 40
0.0
 40
0.0
 40
0.0
 40
0.0
 40
0.1080478343
 40
0.218131884
 40
0.3321061039
 40
0.4515063096
 40
0.5774560701
 40
0.7107182466
 40
1.0
 40
1.0
 40
1.0
 40
1.0
 10
29.0562261394
 20
124.3552428139
 30
0.0
 10
29.2447770017
 20
124.4640875436
 30
0.0
 10
29.6450701591
 20
124.6515891774
 30
0.0
 10
30.2928086207
 20
124.8306537057
 30
0.0
 10
30.9833031125
 20
124.9077237167
 30
0.0
 10
31.7091776264
 20
124.882417498
 30
0.0
 10
32.4635634151
 20
124.7559271622
 30
0.0
 10
33.5263896598
 20
124.4460311891
 30
0.0
 10
34.3013854969
 20
124.0771772949
 30
0.0
 10
34.8061872248
 20
123.7857364747
 30
0.0
  0
SPLINE
  5
2C1
100
AcDbEntity
  8
0
100
AcDbSpline
 62
7
  6
BYLAYER
 70
0
 71
3
 72
11
 73
7
 74
0
 42
0.0000001
 43
0.0000001
 44
0.0000000001
 40
0.0
 40
0.0
 40
0.0
 40
0.0
 40
0.2421531626
 40
0.4875702838
 40
0.7392951235
 40
1.0
 40
1.0
 40
1.0
 40
1.0
 10
27.2884727653
 20
123.3346215867
 30
0.0
 10
27.1296777477
 20
123.2429417715
 30
0.0
 10
26.8227902993
 20
123.0350291007
 30
0.0
 10
26.4073295736
 20
122.6572339657
 30
0.0
 10
26.0380420987
 20
122.2158599417
 30
0.0
 10
25.8286007602
 20
121.8878603922
 30
0.0
 10
25.7321630907
 20
121.7156115275
 30
0.0
  0
SPLINE
  5
2C2
100
AcDbEntity
  8
0
100
AcDbSpline
 62
7
  6
BYLAYER
 70
0
 71
3
 72
11
 73
7
 74
0
 42
0.0000001
 43
0.0000001
 44
0.0000000001
 40
0.0
 40
0.0
 40
0.0
 40
0.0
 40
0.2281979429
 40
0.4746658809
 40
0.7340911841
 40
1.0
 40
1.0
 40
1.0
 40
1.0
 10
34.8061872248
 20
123.7857364747
 30
0.0
 10
35.3747498844
 20
123.4574840962
 30
0.0
 10
36.4971110632
 20
122.6676944011
 30
0.0
 10
38.0374146197
 20
121.2143952513
 30
0.0
 10
39.4518423437
 20
119.4958640713
 30
0.0
 10
40.2715303785
 20
118.2213924993
 30
0.0
 10
40.6478722687
 20
117.555355881
 30
0.0
  0
SPLINE
  5
2C3
100
AcDbEntity
  8
0
100
AcDbSpline
 62
7
  6
BYLAYER
 70
0
 71
3
 72
17
 73
13
 74
0
 42
0.0000001
 43
0.0000001
 44
0.0000000001
 40
0.0
 40
0.0
 40
0.0
 40
0.0
 40
0.1286947824
 40
0.270279331
 40
0.4174343658
 40
0.5617770791
 40
0.6954477603
 40
0.812711148
 40
0.8646774441
 40
0.9125099882
 40
0.9571398155
 40
1.0
 40
1.0
 40
1.0
 40
1.0
 10
92.2941413456
 20
92.5959962054
 30
0.0
 10
92.4903158241
 20
92.4827373797
 30
0.0
 10
92.8711023808
 20
92.1897264982
 30
0.0
 10
93.3584401896
 20
91.6352291104
 30
0.0
 10
93.7596174795
 20
90.982791197
 30
0.0
 10
94.0414171185
 20
90.2853625928
 30
0.0
 10
94.1813054032
 20
89.5996551424
 30
0.0
 10
94.1687053578
 20
89.0593580938
 30
0.0
 10
94.0687531474
 20
88.6887539835
 30
0.0
 10
93.9573131083
 20
88.4582979688
 30
0.0
 10
93.8083205008
 20
88.2698082181
 30
0.0
 10
93.6844543011
 20
88.1750387232
 30
0.0
 10
93.6191276585
 20
88.1373074992
 30
0.0
  0
SPLINE
  5
2C4
100
AcDbEntity
  8
0
100
AcDbSpline
 62
7
  6
BYLAYER
 70
0
 71
3
 72
11
 73
7
 74
0
 42
0.0000001
 43
0.0000001
 44
0.0000000001
 40
0.0
 40
0.0
 40
0.0
 40
0.0
 40
0.2177804705
 40
0.4509239556
 40
0.7102606077
 40
1.0
 40
1.0
 40
1.0
 40
1.0
 10
93.6191276585
 20
88.1373074992
 30
0.0
 10
93.5317251492
 20
88.0868257429
 30
0.0
 10
93.3308621844
 20
88.0139579648
 30
0.0
 10
92.9972875607
 20
88.005500642
 30
0.0
 10
92.6417363555
 20
88.0913269463
 30
0.0
 10
92.4104354714
 20
88.2013924687
 30
0.0
 10
92.2941413456
 20
88.2685333946
 30
0.0
  0
SPLINE
  5
2C5
100
AcDbEntity
  8
0
100
AcDbSpline
 62
7
  6
BYLAYER
 70
0
 71
3
 72
14
 73
10
 74
0
 42
0.0000001
 43
0.0000001
 44
0.0000000001
 40
0.0
 40
0.0
 40
0.0
 40
0.0
 40
0.28927858
 40
0.4225443977
 40
0.5484927279
 40
0.6678923764
 40
0.7818675954
 40
0.8919516006
 40
1.0
 40
1.0
 40
1.0
 40
1.0
 10
33.0384276318
 20
122.76512609
 30
0.0
 10
32.533631506
 20
123.0565636759
 30
0.0
 10
31.758636389
 20
123.4254228765
 30
0.0
 10
30.6958111794
 20
123.7353112473
 30
0.0
 10
29.9414234986
 20
123.8618180496
 30
0.0
 10
29.2155506664
 20
123.8870921253
 30
0.0
 10
28.5250534733
 20
123.810051119
 30
0.0
 10
27.8773104292
 20
123.6309867462
 30
0.0
 10
27.4770182979
 20
123.4434777702
 30
0.0
 10
27.2884727653
 20
123.3346215867
 30
0.0
  0
SPLINE
  5
2C6
100
AcDbEntity
  8
0
100
AcDbSpline
 62
7
  6
BYLAYER
 70
0
 71
3
 72
11
 73
7
 74
0
 42
0.0000001
 43
0.0000001
 44
0.0000000001
 40
0.0
 40
0.0
 40
0.0
 40
0.0
 40
0.2372428732
 40
0.4999994739
 40
0.7627563609
 40
1.0
 40
1.0
 40
1.0
 40
1.0
 10
57.7871885248
 20
116.6414874851
 30
0.0
 10
57.8173055206
 20
116.6588754369
 30
0.0
 10
57.8873424699
 20
116.6842454552
 30
0.0
 10
57.9993202257
 20
116.6964016054
 30
0.0
 10
58.1112981505
 20
116.6842459662
 30
0.0
 10
58.1813353752
 20
116.6588762957
 30
0.0
 10
58.2114525936
 20
116.6414885049
 30
0.0
  0
SPLINE
  5
2C7
100
AcDbEntity
  8
0
100
AcDbSpline
 62
7
  6
BYLAYER
 70
0
 71
3
 72
15
 73
11
 74
0
 42
0.0000001
 43
0.0000001
 44
0.0000000001
 40
0.0
 40
0.0
 40
0.0
 40
0.0
 40
0.1141236058
 40
0.2373475862
 40
0.3669728832
 40
0.5000004526
 40
0.6330279586
 40
0.7626530685
 40
0.8858767805
 40
1.0
 40
1.0
 40
1.0
 40
1.0
 10
46.8270672722
 20
111.9466729169
 30
0.0
 10
46.9238549849
 20
111.890793769
 30
0.0
 10
47.1355915575
 20
111.7922453846
 30
0.0
 10
47.4803123849
 20
111.6874053084
 30
0.0
 10
47.8535896907
 20
111.6229516891
 30
0.0
 10
48.2412830247
 20
111.6011544218
 30
0.0
 10
48.6289760747
 20
111.6229534849
 30
0.0
 10
49.0022525702
 20
111.6874088497
 30
0.0
 10
49.3469720314
 20
111.7922506058
 30
0.0
 10
49.5587074148
 20
111.890800059
 30
0.0
 10
49.6554943969
 20
111.9466797156
 30
0.0
  0
SPLINE
  5
2C8
100
AcDbEntity
  8
0
100
AcDbSpline
 62
7
  6
BYLAYER
 70
0
 71
3
 72
11
 73
7
 74
0
 42
0.0000001
 43
0.0000001
 44
0.0000000001
 40
0.0
 40
0.0
 40
0.0
 40
0.0
 40
0.2659088159
 40
0.5253341191
 40
0.7718020571
 40
1.0
 40
1.0
 40
1.0
 40
1.0
 10
38.8801126757
 20
116.5347454963
 30
0.0
 10
38.5037707855
 20
117.2007821146
 30
0.0
 10
37.6840827507
 20
118.4752536867
 30
0.0
 10
36.2696550266
 20
120.1937848666
 30
0.0
 10
34.7293514702
 20
121.6470840164
 30
0.0
 10
33.6069902913
 20
122.4368737115
 30
0.0
 10
33.0384276318
 20
122.76512609
 30
0.0
  0
SPLINE
  5
2C9
100
AcDbEntity
  8
0
100
AcDbSpline
 62
7
  6
BYLAYER
 70
0
 71
3
 72
17
 73
13
 74
0
 42
0.0000001
 43
0.0000001
 44
0.0000000001
 40
0.0
 40
0.0
 40
0.0
 40
0.0
 40
0.1286947824
 40
0.270279331
 40
0.4174343658
 40
0.5617770791
 40
0.6954477603
 40
0.812711148
 40
0.8646774441
 40
0.9125099882
 40
0.9571398155
 40
1.0
 40
1.0
 40
1.0
 40
1.0
 10
61.8884231643
 20
105.822885839
 30
0.0
 10
61.6922486858
 20
105.9361446647
 30
0.0
 10
61.3114621291
 20
106.2291555461
 30
0.0
 10
60.8241243203
 20
106.7836529339
 30
0.0
 10
60.4229470305
 20
107.4360908473
 30
0.0
 10
60.1411473914
 20
108.1335194515
 30
0.0
 10
60.0012591068
 20
108.8192269019
 30
0.0
 10
60.0138591521
 20
109.3595239506
 30
0.0
 10
60.1138113626
 20
109.7301280608
 30
0.0
 10
60.2252514016
 20
109.9605840755
 30
0.0
 10
60.3742440092
 20
110.1490738262
 30
0.0
 10
60.4981102089
 20
110.2438433211
 30
0.0
 10
60.5634368515
 20
110.2815745451
 30
0.0
  0
SPLINE
  5
2CA
100
AcDbEntity
  8
0
100
AcDbSpline
 62
7
  6
BYLAYER
 70
0
 71
3
 72
12
 73
8
 74
0
 42
0.0000001
 43
0.0000001
 44
0.0000000001
 40
0.0
 40
0.0
 40
0.0
 40
0.0
 40
0.1081583478
 40
0.2183513804
 40
0.4513521427
 40
0.7104248422
 40
1.0
 40
1.0
 40
1.0
 40
1.0
 10
46.9512256695
 20
34.1823310437
 30
0.0
 10
46.9512229921
 20
34.1066092122
 30
0.0
 10
46.9380585274
 20
33.9534228392
 30
0.0
 10
46.8584469385
 20
33.6463225485
 30
0.0
 10
46.6542112038
 20
33.2697139335
 30
0.0
 10
46.2737025381
 20
32.8700890595
 30
0.0
 10
45.9552337812
 20
32.6507335476
 30
0.0
 10
45.7796624317
 20
32.5493679868
 30
0.0
  0
SPLINE
  5
2CB
100
AcDbEntity
  8
0
100
AcDbSpline
 62
7
  6
BYLAYER
 70
0
 71
3
 72
10
 73
6
 74
0
 42
0.0000001
 43
0.0000001
 44
0.0000000001
 40
0.0
 40
0.0
 40
0.0
 40
0.0
 40
0.5246102577
 40
0.7719436878
 40
1.0
 40
1.0
 40
1.0
 40
1.0
 10
35.5348453966
 20
85.0148971194
 30
0.0
 10
35.6602166896
 20
84.8158890766
 30
0.0
 10
35.8111573311
 20
84.4989701103
 30
0.0
 10
35.9204594276
 20
84.063155056
 30
0.0
 10
35.9409267924
 20
83.8497551436
 30
0.0
 10
35.9409267924
 20
83.7475071271
 30
0.0
  0
SPLINE
  5
2CC
100
AcDbEntity
  8
0
100
AcDbSpline
 62
7
  6
BYLAYER
 70
0
 71
3
 72
17
 73
13
 74
0
 42
0.0000001
 43
0.0000001
 44
0.0000000001
 40
0.0
 40
0.0
 40
0.0
 40
0.0
 40
0.0432872611
 40
0.0892217601
 40
0.1387833508
 40
0.192517475
 40
0.3124659437
 40
0.4468711276
 40
0.5900521495
 40
0.7347938159
 40
0.873599438
 40
1.0
 40
1.0
 40
1.0
 40
1.0
 10
22.3148428973
 20
110.053788312
 30
0.0
 10
22.3805625568
 20
110.0767882759
 30
0.0
 10
22.5222410888
 20
110.1077499565
 30
0.0
 10
22.7469223192
 20
110.1067453683
 30
0.0
 10
22.9837589201
 20
110.0606863139
 30
0.0
 10
23.3218650439
 20
109.936095376
 30
0.0
 10
23.7458098168
 20
109.6694334319
 30
0.0
 10
24.2097194849
 20
109.2246564448
 30
0.0
 10
24.6150351879
 20
108.6756571935
 30
0.0
 10
24.9313776754
 20
108.0631229044
 30
0.0
 10
25.135431444
 20
107.4330200736
 30
0.0
 10
25.1895897586
 20
107.0059427894
 30
0.0
 10
25.1895897586
 20
106.802625914
 30
0.0
  0
SPLINE
  5
2CD
100
AcDbEntity
  8
0
100
AcDbSpline
 62
7
  6
BYLAYER
 70
0
 71
3
 72
17
 73
13
 74
0
 42
0.0000001
 43
0.0000001
 44
0.0000000001
 40
0.0
 40
0.0
 40
0.0
 40
0.0
 40
0.0428571351
 40
0.0874839364
 40
0.1353160071
 40
0.1872791416
 40
0.3045400115
 40
0.4382081091
 40
0.5825513186
 40
0.7297108723
 40
0.8713103985
 40
1.0
 40
1.0
 40
1.0
 40
1.0
 10
53.5928696731
 20
117.2129420609
 30
0.0
 10
53.592892544
 20
117.2698733357
 30
0.0
 10
53.5776487103
 20
117.3865828148
 30
0.0
 10
53.5107348771
 20
117.5551022811
 30
0.0
 10
53.4021038926
 20
117.714856875
 30
0.0
 10
53.1976596975
 20
117.9200769814
 30
0.0
 10
52.8492508354
 20
118.1321569998
 30
0.0
 10
52.348307808
 20
118.2994936755
 30
0.0
 10
51.7861279788
 20
118.378497566
 30
0.0
 10
51.2082827938
 20
118.3625121789
 30
0.0
 10
50.6619507915
 20
118.2532062095
 30
0.0
 10
50.3267339975
 20
118.114898548
 30
0.0
 10
50.1786859981
 20
118.0294235059
 30
0.0
  0
SPLINE
  5
2CE
100
AcDbEntity
  8
0
100
AcDbSpline
 62
7
  6
BYLAYER
 70
0
 71
3
 72
17
 73
13
 74
0
 42
0.0000001
 43
0.0000001
 44
0.0000000001
 40
0.0
 40
0.0
 40
0.0
 40
0.0
 40
0.0428571351
 40
0.0874839364
 40
0.1353160071
 40
0.1872791416
 40
0.3045400115
 40
0.4382081091
 40
0.5825513186
 40
0.7297108723
 40
0.8713103985
 40
1.0
 40
1.0
 40
1.0
 40
1.0
 10
36.0282641004
 20
127.3536424032
 30
0.0
 10
36.0282869714
 20
127.410573678
 30
0.0
 10
36.0130431377
 20
127.527283157
 30
0.0
 10
35.9461293044
 20
127.6958026234
 30
0.0
 10
35.83749832
 20
127.8555572173
 30
0.0
 10
35.6330541249
 20
128.0607773237
 30
0.0
 10
35.2846452628
 20
128.2728573421
 30
0.0
 10
34.7837022353
 20
128.4401940178
 30
0.0
 10
34.2215224061
 20
128.5191979083
 30
0.0
 10
33.6436772212
 20
128.5032125212
 30
0.0
 10
33.0973452189
 20
128.3939065518
 30
0.0
 10
32.7621284249
 20
128.2555988903
 30
0.0
 10
32.6140804255
 20
128.1701238482
 30
0.0
  0
SPLINE
  5
2CF
100
AcDbEntity
  8
0
100
AcDbSpline
 62
7
  6
BYLAYER
 70
0
 71
3
 72
14
 73
10
 74
0
 42
0.0000001
 43
0.0000001
 44
0.0000000001
 40
0.0
 40
0.0
 40
0.0
 40
0.0
 40
0.0919013682
 40
0.1916394688
 40
0.3019933249
 40
0.423879888
 40
0.5567068466
 40
0.6987640868
 40
1.0
 40
1.0
 40
1.0
 40
1.0
 10
22.2652900374
 20
88.0137696135
 30
0.0
 10
22.3524710164
 20
88.0449058107
 30
0.0
 10
22.545331599
 20
88.0812520633
 30
0.0
 10
22.8512788509
 20
88.0553274221
 30
0.0
 10
23.1724633808
 20
87.9545778604
 30
0.0
 10
23.4996555949
 20
87.7833177672
 30
0.0
 10
23.8237114876
 20
87.547174991
 30
0.0
 10
24.2464464778
 20
87.1480434428
 30
0.0
 10
24.5171651046
 20
86.7872267906
 30
0.0
 10
24.6744980729
 20
86.5277599992
 30
0.0
  0
SPLINE
  5
2D0
100
AcDbEntity
  8
0
100
AcDbSpline
 62
7
  6
BYLAYER
 70
0
 71
3
 72
11
 73
7
 74
0
 42
0.0000001
 43
0.0000001
 44
0.0000000001
 40
0.0
 40
0.0
 40
0.0
 40
0.0
 40
0.2896413964
 40
0.5491107671
 40
0.7822355978
 40
1.0
 40
1.0
 40
1.0
 40
1.0
 10
35.9409267924
 20
80.0939411655
 30
0.0
 10
35.9409267924
 20
80.008806828
 30
0.0
 10
35.9279863417
 20
79.8468611671
 30
0.0
 10
35.8624407697
 20
79.6243530339
 30
0.0
 10
35.7520294978
 20
79.4437560413
 30
0.0
 10
35.6482594471
 20
79.3566396229
 30
0.0
 10
35.5928400858
 20
79.3246137383
 30
0.0
  0
SPLINE
  5
2D1
100
AcDbEntity
  8
0
100
AcDbSpline
 62
7
  6
BYLAYER
 70
0
 71
3
 72
17
 73
13
 74
0
 42
0.0000001
 43
0.0000001
 44
0.0000000001
 40
0.0
 40
0.0
 40
0.0
 40
0.0
 40
0.0429118406
 40
0.0875587559
 40
0.1353802677
 40
0.1873450936
 40
0.3046062746
 40
0.438264428
 40
0.5825986827
 40
0.7297329408
 40
0.8713337954
 40
1.0
 40
1.0
 40
1.0
 40
1.0
 10
36.1229243875
 20
35.8828193779
 30
0.0
 10
36.1575412192
 20
35.8628356289
 30
0.0
 10
36.2337760572
 20
35.8310329908
 30
0.0
 10
36.3596591961
 20
35.8126889625
 30
0.0
 10
36.4947619867
 20
35.8226294135
 30
0.0
 10
36.6910144278
 20
35.874992407
 30
0.0
 10
36.9419504374
 20
36.0121483659
 30
0.0
 10
37.2191557358
 20
36.2577226411
 30
0.0
 10
37.4641748496
 20
36.5713894922
 30
0.0
 10
37.657061577
 20
36.9278593179
 30
0.0
 10
37.7821662349
 20
37.2979174508
 30
0.0
 10
37.815716475
 20
37.549944855
 30
0.0
 10
37.815716475
 20
37.669793079
 30
0.0
  0
SPLINE
  5
2D2
100
AcDbEntity
  8
0
100
AcDbSpline
 62
7
  6
BYLAYER
 70
0
 71
3
 72
11
 73
7
 74
0
 42
0.0000001
 43
0.0000001
 44
0.0000000001
 40
0.0
 40
0.0
 40
0.0
 40
0.0
 40
0.2897033281
 40
0.5490895198
 40
0.7822165953
 40
1.0
 40
1.0
 40
1.0
 40
1.0
 10
19.5327119574
 20
84.7569770192
 30
0.0
 10
19.5327119574
 20
84.6303066582
 30
0.0
 10
19.513506867
 20
84.3894064782
 30
0.0
 10
19.4159451843
 20
84.0584222549
 30
0.0
 10
19.2516837122
 20
83.7898472753
 30
0.0
 10
19.0973923314
 20
83.6601347156
 30
0.0
 10
19.0149258111
 20
83.6125229685
 30
0.0
  0
SPLINE
  5
2D3
100
AcDbEntity
  8
0
100
AcDbSpline
 62
7
  6
BYLAYER
 70
0
 71
3
 72
11
 73
7
 74
0
 42
0.0000001
 43
0.0000001
 44
0.0000000001
 40
0.0
 40
0.0
 40
0.0
 40
0.0
 40
0.2856461477
 40
0.5454872721
 40
0.7814049494
 40
1.0
 40
1.0
 40
1.0
 40
1.0
 10
25.2603790979
 20
84.6341905267
 30
0.0
 10
25.2603790979
 20
84.5191401154
 30
0.0
 10
25.2448865274
 20
84.2989044401
 30
0.0
 10
25.1680725226
 20
83.9917055078
 30
0.0
 10
25.0394943949
 20
83.7314764229
 30
0.0
 10
24.9170455283
 20
83.591677492
 30
0.0
 10
24.8498686883
 20
83.5347650058
 30
0.0
  0
SPLINE
  5
2D4
100
AcDbEntity
  8
0
100
AcDbSpline
 62
7
  6
BYLAYER
 70
0
 71
3
 72
11
 73
7
 74
0
 42
0.0000001
 43
0.0000001
 44
0.0000000001
 40
0.0
 40
0.0
 40
0.0
 40
0.0
 40
0.266228406
 40
0.5252430241
 40
0.7713712734
 40
1.0
 40
1.0
 40
1.0
 40
1.0
 10
24.7696797189
 20
86.3628942709
 30
0.0
 10
24.8471484643
 20
86.2217977816
 30
0.0
 10
24.9848513855
 20
85.9348168018
 30
0.0
 10
25.1396675522
 20
85.4938376188
 30
0.0
 10
25.2361078586
 20
85.0597030579
 30
0.0
 10
25.2603790979
 20
84.7724220124
 30
0.0
 10
25.2603790979
 20
84.6341905267
 30
0.0
  0
SPLINE
  5
2D5
100
AcDbEntity
  8
0
100
AcDbSpline
 62
7
  6
BYLAYER
 70
0
 71
3
 72
11
 73
7
 74
0
 42
0.0000001
 43
0.0000001
 44
0.0000000001
 40
0.0
 40
0.0
 40
0.0
 40
0.0
 40
0.2895411595
 40
0.5491183966
 40
0.7822559144
 40
1.0
 40
1.0
 40
1.0
 40
1.0
 10
37.815716475
 20
37.669793079
 30
0.0
 10
37.815716475
 20
37.740809209
 30
0.0
 10
37.8048730289
 20
37.8759404469
 30
0.0
 10
37.7502450331
 20
38.0616343958
 30
0.0
 10
37.6580978821
 20
38.2123663754
 30
0.0
 10
37.5714736268
 20
38.2850235351
 30
0.0
 10
37.5252220886
 20
38.311726261
 30
0.0
  0
SPLINE
  5
2D6
100
AcDbEntity
  8
0
100
AcDbSpline
 62
7
  6
BYLAYER
 70
0
 71
3
 72
11
 73
7
 74
0
 42
0.0000001
 43
0.0000001
 44
0.0000000001
 40
0.0
 40
0.0
 40
0.0
 40
0.0
 40
0.2949477991
 40
0.4335800376
 40
0.5646741753
 40
1.0
 40
1.0
 40
1.0
 40
1.0
 10
26.4611674575
 20
29.560779368
 30
0.0
 10
26.1343944532
 20
29.6113297632
 30
0.0
 10
25.6583738178
 20
29.7220380034
 30
0.0
 10
25.0655417257
 20
29.9493781747
 30
0.0
 10
24.3625237777
 20
30.3015321181
 30
0.0
 10
23.8381836894
 20
30.7510618024
 30
0.0
 10
23.6327285569
 20
31.1937423861
 30
0.0
  0
SPLINE
  5
2D7
100
AcDbEntity
  8
0
100
AcDbSpline
 62
7
  6
BYLAYER
 70
0
 71
3
 72
11
 73
7
 74
0
 42
0.0000001
 43
0.0000001
 44
0.0000000001
 40
0.0
 40
0.0
 40
0.0
 40
0.0
 40
0.2279843853
 40
0.4775437832
 40
0.7387563792
 40
1.0
 40
1.0
 40
1.0
 40
1.0
 10
39.2477169796
 20
28.7781700327
 30
0.0
 10
38.9861394972
 20
28.6271491043
 30
0.0
 10
38.4002392797
 20
28.3751951803
 30
0.0
 10
37.4431873003
 20
28.1521967461
 30
0.0
 10
36.4194618009
 20
28.0759780118
 30
0.0
 10
35.7260559931
 20
28.1275404825
 30
0.0
 10
35.3840179848
 20
28.1804523089
 30
0.0
  0
SPLINE
  5
2D8
100
AcDbEntity
  8
0
100
AcDbSpline
 62
7
  6
BYLAYER
 70
0
 71
3
 72
8
 73
4
 74
0
 42
0.0000001
 43
0.0000001
 44
0.0000000001
 40
0.0
 40
0.0
 40
0.0
 40
0.0
 40
1.0
 40
1.0
 40
1.0
 40
1.0
 10
55.1001550829
 20
98.9641214045
 30
0.0
 10
55.1001550829
 20
98.9592025597
 30
0.0
 10
55.1010110968
 20
98.9542402105
 30
0.0
 10
55.1025016212
 20
98.9495526342
 30
0.0
  0
SPLINE
  5
2D9
100
AcDbEntity
  8
0
100
AcDbSpline
 62
7
  6
BYLAYER
 70
0
 71
3
 72
9
 73
5
 74
0
 42
0.0000001
 43
0.0000001
 44
0.0000000001
 40
0.0
 40
0.0
 40
0.0
 40
0.0
 40
0.2399893958
 40
1.0
 40
1.0
 40
1.0
 40
1.0
 10
55.1025016212
 20
98.9495526342
 30
0.0
 10
55.1039338079
 20
98.9450485256
 30
0.0
 10
55.1123515621
 20
98.9270058627
 30
0.0
 10
55.1286116652
 20
98.9138622047
 30
0.0
 10
55.1415781216
 20
98.9063856351
 30
0.0
  0
SPLINE
  5
2DA
100
AcDbEntity
  8
0
100
AcDbSpline
 62
7
  6
BYLAYER
 70
0
 71
3
 72
8
 73
4
 74
0
 42
0.0000001
 43
0.0000001
 44
0.0000000001
 40
0.0
 40
0.0
 40
0.0
 40
0.0
 40
1.0
 40
1.0
 40
1.0
 40
1.0
 10
12.9565909249
 20
98.9640201037
 30
0.0
 10
12.9565909249
 20
98.9591039255
 30
0.0
 10
12.9557359314
 20
98.9541443624
 30
0.0
 10
12.9542473978
 20
98.9494589515
 30
0.0
  0
SPLINE
  5
2DB
100
AcDbEntity
  8
0
100
AcDbSpline
 62
7
  6
BYLAYER
 70
0
 71
3
 72
9
 73
5
 74
0
 42
0.0000001
 43
0.0000001
 44
0.0000000001
 40
0.0
 40
0.0
 40
0.0
 40
0.0
 40
0.2400422056
 40
1.0
 40
1.0
 40
1.0
 40
1.0
 10
12.9542473978
 20
98.9494589515
 30
0.0
 10
12.9528158279
 20
98.9449528436
 30
0.0
 10
12.9444020945
 20
98.9269049431
 30
0.0
 10
12.9281373101
 20
98.9137591824
 30
0.0
 10
12.9151683357
 20
98.9062847622
 30
0.0
  0
SPLINE
  5
2DC
100
AcDbEntity
  8
0
100
AcDbSpline
 62
7
  6
BYLAYER
 70
0
 71
3
 72
11
 73
7
 74
0
 42
0.0000001
 43
0.0000001
 44
0.0000000001
 40
0.0
 40
0.0
 40
0.0
 40
0.0
 40
0.2854376555
 40
0.5453063503
 40
0.7813446306
 40
1.0
 40
1.0
 40
1.0
 40
1.0
 10
25.1895897586
 20
106.802625914
 30
0.0
 10
25.1895897586
 20
106.6926624784
 30
0.0
 10
25.1749214098
 20
106.4820910907
 30
0.0
 10
25.1021289377
 20
106.1881454999
 30
0.0
 10
24.9801277102
 20
105.9387183518
 30
0.0
 10
24.8638706675
 20
105.8042210532
 30
0.0
 10
24.800019987
 20
105.7492776626
 30
0.0
  0
SPLINE
  5
2DD
100
AcDbEntity
  8
0
100
AcDbSpline
 62
7
  6
BYLAYER
 70
0
 71
3
 72
11
 73
7
 74
0
 42
0.0000001
 43
0.0000001
 44
0.0000000001
 40
0.0
 40
0.0
 40
0.0
 40
0.0
 40
0.289056008
 40
0.5486762645
 40
0.782262719
 40
1.0
 40
1.0
 40
1.0
 40
1.0
 10
50.1786859981
 20
118.0294235059
 30
0.0
 10
50.0927449276
 20
117.9798057019
 30
0.0
 10
49.9364957232
 20
117.8724982133
 30
0.0
 10
49.7484287149
 20
117.6776479722
 30
0.0
 10
49.6269594433
 20
117.462332163
 30
0.0
 10
49.5954637843
 20
117.3072845207
 30
0.0
 10
49.5932375545
 20
117.2325661162
 30
0.0
  0
SPLINE
  5
2DE
100
AcDbEntity
  8
0
100
AcDbSpline
 62
7
  6
BYLAYER
 70
0
 71
3
 72
15
 73
11
 74
0
 42
0.0000001
 43
0.0000001
 44
0.0000000001
 40
0.0
 40
0.0
 40
0.0
 40
0.0
 40
0.1141231812
 40
0.2373468278
 40
0.366971913
 40
0.4999994099
 40
0.6330269884
 40
0.76265231
 40
0.885876356
 40
1.0
 40
1.0
 40
1.0
 40
1.0
 10
35.7960741886
 20
127.14954287
 30
0.0
 10
35.6750905015
 20
127.0796933226
 30
0.0
 10
35.4104214068
 20
126.9565065202
 30
0.0
 10
34.979522228
 20
126.8254543765
 30
0.0
 10
34.5129267404
 20
126.744885137
 30
0.0
 10
34.0283104605
 20
126.7176362527
 30
0.0
 10
33.5436937604
 20
126.7448827815
 30
0.0
 10
33.0770969965
 20
126.8254497721
 30
0.0
 10
32.6461958144
 20
126.9564999188
 30
0.0
 10
32.3815249642
 20
127.0796854134
 30
0.0
 10
32.2605402827
 20
127.1495343716
 30
0.0
  0
SPLINE
  5
2DF
100
AcDbEntity
  8
0
100
AcDbSpline
 62
7
  6
BYLAYER
 70
0
 71
3
 72
9
 73
5
 74
0
 42
0.0000001
 43
0.0000001
 44
0.0000000001
 40
0.0
 40
0.0
 40
0.0
 40
0.0
 40
0.2584857609
 40
1.0
 40
1.0
 40
1.0
 40
1.0
 10
49.8251458554
 20
117.0088340293
 30
0.0
 10
49.7997330358
 20
117.0235057956
 30
0.0
 10
49.702509174
 20
117.0821140046
 30
0.0
 10
49.6097433572
 20
117.1482711388
 30
0.0
 10
49.5447957002
 20
117.2018236284
 30
0.0
  0
SPLINE
  5
2E0
100
AcDbEntity
  8
0
100
AcDbSpline
 62
7
  6
BYLAYER
 70
0
 71
3
 72
11
 73
7
 74
0
 42
0.0000001
 43
0.0000001
 44
0.0000000001
 40
0.0
 40
0.0
 40
0.0
 40
0.0
 40
0.2790806408
 40
0.534791697
 40
0.7723971245
 40
1.0
 40
1.0
 40
1.0
 40
1.0
 10
49.5447957002
 20
117.2018236284
 30
0.0
 10
49.4749783364
 20
117.259391427
 30
0.0
 10
49.3491701755
 20
117.3801736009
 30
0.0
 10
49.2034533125
 20
117.586030981
 30
0.0
 10
49.1135038562
 20
117.8041335906
 30
0.0
 10
49.0929179024
 20
117.9556453885
 30
0.0
 10
49.0929179231
 20
118.029444414
 30
0.0
  0
SPLINE
  5
2E1
100
AcDbEntity
  8
0
100
AcDbSpline
 62
7
  6
BYLAYER
 70
0
 71
3
 72
11
 73
7
 74
0
 42
0.0000001
 43
0.0000001
 44
0.0000000001
 40
0.0
 40
0.0
 40
0.0
 40
0.0
 40
0.2896428702
 40
0.5491125874
 40
0.7822368
 40
1.0
 40
1.0
 40
1.0
 40
1.0
 10
32.6140804255
 20
128.1701238482
 30
0.0
 10
32.5263421295
 20
128.1194684218
 30
0.0
 10
32.3671429161
 20
128.0097740076
 30
0.0
 10
32.1768290227
 20
127.8098314103
 30
0.0
 10
32.0564035054
 20
127.5885888457
 30
0.0
 10
32.0283662504
 20
127.4298114986
 30
0.0
 10
32.0283356511
 20
127.3536422751
 30
0.0
  0
SPLINE
  5
2E2
100
AcDbEntity
  8
0
100
AcDbSpline
 62
7
  6
BYLAYER
 70
0
 71
3
 72
15
 73
11
 74
0
 42
0.0000001
 43
0.0000001
 44
0.0000000001
 40
0.0
 40
0.0
 40
0.0
 40
0.0
 40
0.1141241598
 40
0.2373483675
 40
0.3669736385
 40
0.5000010132
 40
0.6330282465
 40
0.7626531028
 40
0.8858766831
 40
1.0
 40
1.0
 40
1.0
 40
1.0
 10
31.013832304
 20
82.3823677149
 30
0.0
 10
31.013832304
 20
82.2426665399
 30
0.0
 10
31.0394833803
 20
81.9518604761
 30
0.0
 10
31.1414385901
 20
81.513161731
 30
0.0
 10
31.3049622537
 20
81.068792116
 30
0.0
 10
31.5236738697
 20
80.6354778541
 30
0.0
 10
31.7895808213
 20
80.2294125604
 30
0.0
 10
32.092655315
 20
79.8656147644
 30
0.0
 10
32.4216022525
 20
79.5579732479
 30
0.0
 10
32.6606220597
 20
79.3903586723
 30
0.0
 10
32.7816066169
 20
79.3205097858
 30
0.0
  0
SPLINE
  5
2E3
100
AcDbEntity
  8
0
100
AcDbSpline
 62
7
  6
BYLAYER
 70
0
 71
3
 72
11
 73
7
 74
0
 42
0.0000001
 43
0.0000001
 44
0.0000000001
 40
0.0
 40
0.0
 40
0.0
 40
0.0
 40
0.2849073876
 40
0.5447916814
 40
0.781128306
 40
1.0
 40
1.0
 40
1.0
 40
1.0
 10
32.3456909523
 20
84.0104084777
 30
0.0
 10
32.3456909523
 20
84.1060827358
 30
0.0
 10
32.3582858206
 20
84.2894393548
 30
0.0
 10
32.4205323371
 20
84.5458162708
 30
0.0
 10
32.5248849568
 20
84.7642852549
 30
0.0
 10
32.6244043919
 20
84.8831633929
 30
0.0
 10
32.6792046214
 20
84.9321432557
 30
0.0
  0
SPLINE
  5
2E4
100
AcDbEntity
  8
0
100
AcDbSpline
 62
7
  6
BYLAYER
 70
0
 71
3
 72
11
 73
7
 74
0
 42
0.0000001
 43
0.0000001
 44
0.0000000001
 40
0.0
 40
0.0
 40
0.0
 40
0.0
 40
0.249552821
 40
0.5121160566
 40
0.7682401795
 40
1.0
 40
1.0
 40
1.0
 40
1.0
 10
33.5662065268
 20
81.5447702762
 30
0.0
 10
33.3860333811
 20
81.6955192773
 30
0.0
 10
33.053990042
 20
82.0511515582
 30
0.0
 10
32.6703299179
 20
82.6690309512
 30
0.0
 10
32.415882438
 20
83.3324922783
 30
0.0
 10
32.3456909523
 20
83.7922377352
 30
0.0
 10
32.3456909523
 20
84.0104084777
 30
0.0
  0
SPLINE
  5
2E5
100
AcDbEntity
  8
0
100
AcDbSpline
 62
7
  6
BYLAYER
 70
0
 71
3
 72
10
 73
6
 74
0
 42
0.0000001
 43
0.0000001
 44
0.0000000001
 40
0.0
 40
0.0
 40
0.0
 40
0.0
 40
0.5248728477
 40
0.7714427494
 40
1.0
 40
1.0
 40
1.0
 40
1.0
 10
51.6344441023
 20
116.0585362425
 30
0.0
 10
51.8839606728
 20
116.0615552164
 30
0.0
 10
52.252532244
 20
116.1048151711
 30
0.0
 10
52.7074703834
 20
116.2459055099
 30
0.0
 10
52.9130219233
 20
116.342130434
 30
0.0
 10
53.0071248987
 20
116.3964604878
 30
0.0
  0
SPLINE
  5
2E6
100
AcDbEntity
  8
0
100
AcDbSpline
 62
7
  6
BYLAYER
 70
0
 71
3
 72
17
 73
13
 74
0
 42
0.0000001
 43
0.0000001
 44
0.0000000001
 40
0.0
 40
0.0
 40
0.0
 40
0.0
 40
0.0428592926
 40
0.087485474
 40
0.1353198781
 40
0.1872819044
 40
0.3045421965
 40
0.4382074305
 40
0.582548911
 40
0.7297129633
 40
0.8713059682
 40
1.0
 40
1.0
 40
1.0
 40
1.0
 10
24.6718055848
 20
105.6581684372
 30
0.0
 10
24.6101750982
 20
105.622580062
 30
0.0
 10
24.4742996664
 20
105.5661597805
 30
0.0
 10
24.250049333
 20
105.5332441876
 30
0.0
 10
24.0092114007
 20
105.5509885459
 30
0.0
 10
23.6592795424
 20
105.6440588949
 30
0.0
 10
23.2119459509
 20
105.8886636214
 30
0.0
 10
22.7177134106
 20
106.3263577261
 30
0.0
 10
22.2808132455
 20
106.8855487612
 30
0.0
 10
21.9369781971
 20
107.5210757625
 30
0.0
 10
21.7138188771
 20
108.1808087694
 30
0.0
 10
21.6540411328
 20
108.6301335488
 30
0.0
 10
21.6540411328
 20
108.8438296866
 30
0.0
  0
SPLINE
  5
2E7
100
AcDbEntity
  8
0
100
AcDbSpline
 62
7
  6
BYLAYER
 70
0
 71
3
 72
11
 73
7
 74
0
 42
0.0000001
 43
0.0000001
 44
0.0000000001
 40
0.0
 40
0.0
 40
0.0
 40
0.0
 40
0.2177821605
 40
0.4509085882
 40
0.7102951949
 40
1.0
 40
1.0
 40
1.0
 40
1.0
 10
49.0929179231
 20
118.029444414
 30
0.0
 10
49.0929179498
 20
118.1246644228
 30
0.0
 10
49.1281060112
 20
118.323132911
 30
0.0
 10
49.27856418
 20
118.5996635272
 30
0.0
 10
49.516417443
 20
118.8496364266
 30
0.0
 10
49.7154346046
 20
118.9867133567
 30
0.0
 10
49.8251311355
 20
119.0500463003
 30
0.0
  0
SPLINE
  5
2E8
100
AcDbEntity
  8
0
100
AcDbSpline
 62
7
  6
BYLAYER
 70
0
 71
3
 72
11
 73
7
 74
0
 42
0.0000001
 43
0.0000001
 44
0.0000000001
 40
0.0
 40
0.0
 40
0.0
 40
0.0
 40
0.2177456295
 40
0.4508837762
 40
0.7104602913
 40
1.0
 40
1.0
 40
1.0
 40
1.0
 10
37.5252220886
 20
38.311726261
 30
0.0
 10
37.4789720539
 20
38.3384281188
 30
0.0
 10
37.3727403054
 20
38.3771155345
 30
0.0
 10
37.1961357296
 20
38.3815503289
 30
0.0
 10
37.0080138884
 20
38.3360146186
 30
0.0
 10
36.8855703252
 20
38.2778424346
 30
0.0
 10
36.8240712043
 20
38.2423361125
 30
0.0
  0
SPLINE
  5
2E9
100
AcDbEntity
  8
0
100
AcDbSpline
 62
7
  6
BYLAYER
 70
0
 71
3
 72
13
 73
9
 74
0
 42
0.0000001
 43
0.0000001
 44
0.0000000001
 40
0.0
 40
0.0
 40
0.0
 40
0.0
 40
0.1117961461
 40
0.2336183847
 40
0.4959220692
 40
0.7604591034
 40
0.8849622677
 40
1.0
 40
1.0
 40
1.0
 40
1.0
 10
19.5333348629
 20
88.1971505234
 30
0.0
 10
19.4485070409
 20
88.2400094169
 30
0.0
 10
19.2797892807
 20
88.3469778139
 30
0.0
 10
18.9615310425
 20
88.6252699006
 30
0.0
 10
18.6227508904
 20
89.0676994288
 30
0.0
 10
18.3901751095
 20
89.5763251124
 30
0.0
 10
18.2894390518
 20
89.9939625097
 30
0.0
 10
18.2707260827
 20
90.1978095458
 30
0.0
 10
18.2707260827
 20
90.2956055094
 30
0.0
  0
SPLINE
  5
2EA
100
AcDbEntity
  8
0
100
AcDbSpline
 62
7
  6
BYLAYER
 70
0
 71
3
 72
10
 73
6
 74
0
 42
0.0000001
 43
0.0000001
 44
0.0000000001
 40
0.0
 40
0.0
 40
0.0
 40
0.0
 40
0.2287815013
 40
0.4750934518
 40
1.0
 40
1.0
 40
1.0
 40
1.0
 10
21.7247509277
 20
86.8390870887
 30
0.0
 10
21.7247509277
 20
86.7011825433
 30
0.0
 10
21.7487811317
 20
86.4145047203
 30
0.0
 10
21.8795812672
 20
85.8249661495
 30
0.0
 10
22.0621217365
 20
85.3916794378
 30
0.0
 10
22.2142002078
 20
85.1142221082
 30
0.0
  0
SPLINE
  5
2EB
100
AcDbEntity
  8
0
100
AcDbSpline
 62
7
  6
BYLAYER
 70
0
 71
3
 72
17
 73
13
 74
0
 42
0.0000001
 43
0.0000001
 44
0.0000000001
 40
0.0
 40
0.0
 40
0.0
 40
0.0
 40
0.1264064558
 40
0.2652137888
 40
0.4099564701
 40
0.553139683
 40
0.6875471708
 40
0.8074923054
 40
0.8612228025
 40
0.9107807999
 40
0.9567124296
 40
1.0
 40
1.0
 40
1.0
 40
1.0
 10
21.7954619003
 20
108.9254785174
 30
0.0
 10
21.7954619003
 20
108.7221344898
 30
0.0
 10
21.8496326714
 20
108.2950076691
 30
0.0
 10
22.053729032
 20
107.6648432227
 30
0.0
 10
22.3701270821
 20
107.0522606977
 30
0.0
 10
22.7755174774
 20
106.503230647
 30
0.0
 10
23.2395086801
 20
106.0584534841
 30
0.0
 10
23.6635250319
 20
105.7918312364
 30
0.0
 10
24.001672684
 20
105.6673090229
 30
0.0
 10
24.2385280856
 20
105.6213162891
 30
0.0
 10
24.4632207108
 20
105.6203969174
 30
0.0
 10
24.6048937998
 20
105.6514257587
 30
0.0
 10
24.6706090328
 20
105.6744581749
 30
0.0
  0
SPLINE
  5
2EC
100
AcDbEntity
  8
0
100
AcDbSpline
 62
7
  6
BYLAYER
 70
0
 71
3
 72
14
 73
10
 74
0
 42
0.0000001
 43
0.0000001
 44
0.0000000001
 40
0.0
 40
0.0
 40
0.0
 40
0.0
 40
0.3012617438
 40
0.4432994595
 40
0.5761033515
 40
0.697972356
 40
0.8083224607
 40
0.9080731011
 40
1.0
 40
1.0
 40
1.0
 40
1.0
 10
22.3141857325
 20
84.9410513263
 30
0.0
 10
22.4713988671
 20
84.6822011071
 30
0.0
 10
22.7418338734
 20
84.3222923873
 30
0.0
 10
23.1641069121
 20
83.9244133694
 30
0.0
 10
23.4876492901
 20
83.6890549336
 30
0.0
 10
23.8142699497
 20
83.5184159159
 30
0.0
 10
24.1348603858
 20
83.4180931136
 30
0.0
 10
24.440228279
 20
83.3923664085
 30
0.0
 10
24.6327224319
 20
83.4286706306
 30
0.0
 10
24.7197539208
 20
83.4597436403
 30
0.0
  0
SPLINE
  5
2ED
100
AcDbEntity
  8
0
100
AcDbSpline
 62
7
  6
BYLAYER
 70
0
 71
3
 72
15
 73
11
 74
0
 42
0.0000001
 43
0.0000001
 44
0.0000000001
 40
0.0
 40
0.0
 40
0.0
 40
0.0
 40
0.1141232745
 40
0.2373467886
 40
0.366971619
 40
0.4999988438
 40
0.6330262289
 40
0.7626515261
 40
0.8858758009
 40
1.0
 40
1.0
 40
1.0
 40
1.0
 10
29.0786934044
 20
77.2044706994
 30
0.0
 10
28.9577088741
 20
77.2743195424
 30
0.0
 10
28.7186891335
 20
77.4419340092
 30
0.0
 10
28.3897422934
 20
77.7495754203
 30
0.0
 10
28.0866678051
 20
78.1133730884
 30
0.0
 10
27.820760798
 20
78.5194383405
 30
0.0
 10
27.6020490949
 20
78.9527526231
 30
0.0
 10
27.4385253188
 20
79.39712236
 30
0.0
 10
27.3365700684
 20
79.8358212845
 30
0.0
 10
27.310918934
 20
80.1266274894
 30
0.0
 10
27.310918934
 20
80.2663287195
 30
0.0
  0
SPLINE
  5
2EE
100
AcDbEntity
  8
0
100
AcDbSpline
 62
7
  6
BYLAYER
 70
0
 71
3
 72
15
 73
11
 74
0
 42
0.0000001
 43
0.0000001
 44
0.0000000001
 40
0.0
 40
0.0
 40
0.0
 40
0.0
 40
0.0912427622
 40
0.188667735
 40
0.2966203202
 40
0.4170359326
 40
0.549764098
 40
0.6930717465
 40
0.8443613765
 40
1.0
 40
1.0
 40
1.0
 40
1.0
 10
24.7217306734
 20
83.4444797108
 30
0.0
 10
24.6379626782
 20
83.3961275404
 30
0.0
 10
24.4462470423
 20
83.3255822439
 30
0.0
 10
24.127873897
 20
83.3141454095
 30
0.0
 10
23.788014973
 20
83.3910140469
 30
0.0
 10
23.4379007375
 20
83.5509688714
 30
0.0
 10
23.0885708289
 20
83.7874782635
 30
0.0
 10
22.7515708639
 20
84.0921085823
 30
0.0
 10
22.4388091809
 20
84.4539990399
 30
0.0
 10
22.2546734845
 20
84.723193222
 30
0.0
 10
22.1691301855
 20
84.8642675615
 30
0.0
  0
SPLINE
  5
2EF
100
AcDbEntity
  8
0
100
AcDbSpline
 62
7
  6
BYLAYER
 70
0
 71
3
 72
11
 73
7
 74
0
 42
0.0000001
 43
0.0000001
 44
0.0000000001
 40
0.0
 40
0.0
 40
0.0
 40
0.0
 40
0.2897016594
 40
0.5490895814
 40
0.7822189142
 40
1.0
 40
1.0
 40
1.0
 40
1.0
 10
21.6540411328
 20
108.8438296866
 30
0.0
 10
21.6540411328
 20
108.9704996015
 30
0.0
 10
21.6732460201
 20
109.2114001697
 30
0.0
 10
21.7708027564
 20
109.5423873665
 30
0.0
 10
21.9350678682
 20
109.810964526
 30
0.0
 10
22.0893630934
 20
109.9406695582
 30
0.0
 10
22.1718253065
 20
109.9882871635
 30
0.0
  0
SPLINE
  5
2F0
100
AcDbEntity
  8
0
100
AcDbSpline
 62
7
  6
BYLAYER
 70
0
 71
3
 72
11
 73
7
 74
0
 42
0.0000001
 43
0.0000001
 44
0.0000000001
 40
0.0
 40
0.0
 40
0.0
 40
0.0
 40
0.2662284173
 40
0.5252430756
 40
0.7713713231
 40
1.0
 40
1.0
 40
1.0
 40
1.0
 10
22.0739517919
 20
85.0291306551
 30
0.0
 10
21.9964830856
 20
85.1702270693
 30
0.0
 10
21.8587798459
 20
85.4572077125
 30
0.0
 10
21.7039632999
 20
85.8981865335
 30
0.0
 10
21.6075230177
 20
86.332320851
 30
0.0
 10
21.5832519061
 20
86.6196017083
 30
0.0
 10
21.5832519061
 20
86.7578330854
 30
0.0
  0
SPLINE
  5
2F1
100
AcDbEntity
  8
0
100
AcDbSpline
 62
7
  6
BYLAYER
 70
0
 71
3
 72
11
 73
7
 74
0
 42
0.0000001
 43
0.0000001
 44
0.0000000001
 40
0.0
 40
0.0
 40
0.0
 40
0.0
 40
0.2896428702
 40
0.5491125874
 40
0.7822368
 40
1.0
 40
1.0
 40
1.0
 40
1.0
 10
53.0071248987
 20
116.3964604878
 30
0.0
 10
53.0948631947
 20
116.4471159143
 30
0.0
 10
53.254062408
 20
116.5568103284
 30
0.0
 10
53.4443763015
 20
116.7567529257
 30
0.0
 10
53.5648018188
 20
116.9779954903
 30
0.0
 10
53.5928390738
 20
117.1367728375
 30
0.0
 10
53.5928696731
 20
117.2129420609
 30
0.0
  0
SPLINE
  5
2F2
100
AcDbEntity
  8
0
100
AcDbSpline
 62
7
  6
BYLAYER
 70
0
 71
3
 72
11
 73
7
 74
0
 42
0.0000001
 43
0.0000001
 44
0.0000000001
 40
0.0
 40
0.0
 40
0.0
 40
0.0
 40
0.2185786281
 40
0.4544946635
 40
0.7143507067
 40
1.0
 40
1.0
 40
1.0
 40
1.0
 10
22.1350812212
 20
87.9389959746
 30
0.0
 10
22.0678958096
 20
87.8820582082
 30
0.0
 10
21.9454417713
 20
87.7421891452
 30
0.0
 10
21.8168901191
 20
87.4818371981
 30
0.0
 10
21.7401843248
 20
87.1744927239
 30
0.0
 10
21.7247509277
 20
86.9541773152
 30
0.0
 10
21.7247509277
 20
86.8390870887
 30
0.0
  0
SPLINE
  5
2F3
100
AcDbEntity
  8
0
100
AcDbSpline
 62
7
  6
BYLAYER
 70
0
 71
3
 72
11
 73
7
 74
0
 42
0.0000001
 43
0.0000001
 44
0.0000000001
 40
0.0
 40
0.0
 40
0.0
 40
0.0
 40
0.2186596974
 40
0.454706457
 40
0.7145769382
 40
1.0
 40
1.0
 40
1.0
 40
1.0
 10
22.1849028377
 20
109.9787103961
 30
0.0
 10
22.1210699517
 20
109.9237631345
 30
0.0
 10
22.0048493178
 20
109.7892640038
 30
0.0
 10
21.8828909048
 20
109.5398572988
 30
0.0
 10
21.8101255875
 20
109.2459544156
 30
0.0
 10
21.7954619003
 20
109.0354198453
 30
0.0
 10
21.7954619003
 20
108.9254785174
 30
0.0
  0
SPLINE
  5
2F4
100
AcDbEntity
  8
0
100
AcDbSpline
 62
7
  6
BYLAYER
 70
0
 71
3
 72
11
 73
7
 74
0
 42
0.0000001
 43
0.0000001
 44
0.0000000001
 40
0.0
 40
0.0
 40
0.0
 40
0.0
 40
0.289702172
 40
0.5490625675
 40
0.7821967975
 40
1.0
 40
1.0
 40
1.0
 40
1.0
 10
21.5832519061
 20
86.7578330854
 30
0.0
 10
21.5832519061
 20
86.8895265591
 30
0.0
 10
21.6032995685
 20
87.1399689547
 30
0.0
 10
21.7048683926
 20
87.4840269528
 30
0.0
 10
21.8757190536
 20
87.7632015716
 30
0.0
 10
22.0361504013
 20
87.8980489695
 30
0.0
 10
22.1219001259
 20
87.947545041
 30
0.0
  0
SPLINE
  5
2F5
100
AcDbEntity
  8
0
100
AcDbSpline
 62
7
  6
BYLAYER
 70
0
 71
3
 72
11
 73
7
 74
0
 42
0.0000001
 43
0.0000001
 44
0.0000000001
 40
0.0
 40
0.0
 40
0.0
 40
0.0
 40
0.2177843137
 40
0.4509117637
 40
0.7102976701
 40
1.0
 40
1.0
 40
1.0
 40
1.0
 10
19.0149258111
 20
83.6125229685
 30
0.0
 10
18.9324611514
 20
83.5649122956
 30
0.0
 10
18.742985775
 20
83.4961501298
 30
0.0
 10
18.4282704036
 20
83.4881815972
 30
0.0
 10
18.0928575748
 20
83.569177816
 30
0.0
 10
17.8746347047
 20
83.6729906682
 30
0.0
 10
17.7649376445
 20
83.7363228627
 30
0.0
  0
SPLINE
  5
2F6
100
AcDbEntity
  8
0
100
AcDbSpline
 62
7
  6
BYLAYER
 70
0
 71
3
 72
17
 73
13
 74
0
 42
0.0000001
 43
0.0000001
 44
0.0000000001
 40
0.0
 40
0.0
 40
0.0
 40
0.0
 40
0.042857965
 40
0.0874854797
 40
0.1353180708
 40
0.1872814984
 40
0.3045423159
 40
0.4382097446
 40
0.5825520305
 40
0.7297107839
 40
0.8713099826
 40
1.0
 40
1.0
 40
1.0
 40
1.0
 10
35.5928400858
 20
79.3246137383
 30
0.0
 10
35.5514188116
 20
79.3006771047
 30
0.0
 10
35.4600808355
 20
79.262734169
 30
0.0
 10
35.3093300326
 20
79.2406237056
 30
0.0
 10
35.1474303771
 20
79.2525539492
 30
0.0
 10
34.9121888551
 20
79.3151058914
 30
0.0
 10
34.6114684488
 20
79.4795404827
 30
0.0
 10
34.279221935
 20
79.773776074
 30
0.0
 10
33.985529396
 20
80.1496884903
 30
0.0
 10
33.7543814081
 20
80.5769118392
 30
0.0
 10
33.6043854163
 20
81.0204128531
 30
0.0
 10
33.5641945988
 20
81.3224668839
 30
0.0
 10
33.5641945988
 20
81.4661170944
 30
0.0
  0
SPLINE
  5
2F7
100
AcDbEntity
  8
0
100
AcDbSpline
 62
7
  6
BYLAYER
 70
0
 71
3
 72
15
 73
11
 74
0
 42
0.0000001
 43
0.0000001
 44
0.0000000001
 40
0.0
 40
0.0
 40
0.0
 40
0.0
 40
0.1145394292
 40
0.2380058181
 40
0.367703054
 40
0.5006676694
 40
0.6335397385
 40
0.7629691336
 40
0.8860070498
 40
1.0
 40
1.0
 40
1.0
 40
1.0
 10
29.9767162344
 20
77.7229985607
 30
0.0
 10
29.8566579269
 20
77.7937950166
 30
0.0
 10
29.6197397635
 20
77.9627044541
 30
0.0
 10
29.2938800652
 20
78.2709866818
 30
0.0
 10
28.9940020534
 20
78.6341585667
 30
0.0
 10
28.7311721795
 20
79.0385637233
 30
0.0
 10
28.5151489675
 20
79.4694278704
 30
0.0
 10
28.3537300443
 20
79.9108659656
 30
0.0
 10
28.2531302419
 20
80.3464806235
 30
0.0
 10
28.2278431854
 20
80.6351730618
 30
0.0
 10
28.2278431854
 20
80.7738857486
 30
0.0
  0
SPLINE
  5
2F8
100
AcDbEntity
  8
0
100
AcDbSpline
 62
7
  6
BYLAYER
 70
0
 71
3
 72
15
 73
11
 74
0
 42
0.0000001
 43
0.0000001
 44
0.0000000001
 40
0.0
 40
0.0
 40
0.0
 40
0.0
 40
0.1141249613
 40
0.2373499733
 40
0.3669762272
 40
0.500004468
 40
0.6330322853
 40
0.7626597228
 40
0.8858808156
 40
1.0
 40
1.0
 40
1.0
 40
1.0
 10
28.2089408073
 20
80.7847987949
 30
0.0
 10
28.2089408073
 20
80.6450978995
 30
0.0
 10
28.2345917419
 20
80.3542924931
 30
0.0
 10
28.3365466752
 20
79.9155945707
 30
0.0
 10
28.5000696824
 20
79.4712259179
 30
0.0
 10
28.7187793364
 20
79.0379119366
 30
0.0
 10
28.9846908634
 20
78.631849324
 30
0.0
 10
29.2877514543
 20
78.2680452531
 30
0.0
 10
29.6167012817
 20
77.9604148584
 30
0.0
 10
29.8557371379
 20
77.7928442666
 30
0.0
 10
29.9767162344
 20
77.7229985607
 30
0.0
  0
ENDSEC
  0
SECTION
  2
OBJECTS
  0
DICTIONARY
  5
C
100
AcDbDictionary
280
0
281
1
  3
ACAD_GROUP
350
D
  3
ACAD_MLINESTYLE
350
17
  3
ACAD_LAYOUT
350
1A
  3
ACAD_PLOTSETTINGS
350
19
  3
ACAD_PLOTSTYLENAME
350
E
  0
DICTIONARY
  5
D
102
{ACAD_REACTORS
330
C
102
}
100
AcDbDictionary
280
0
281
1
  0
ACDBDICTIONARYWDFLT
  5
E
102
{ACAD_REACTORS
330
C
102
}
100
AcDbDictionary
281
1
  3
Normal
350
F
100
AcDbDictionaryWithDefault
340
F
  0
DICTIONARY
  5
17
102
{ACAD_REACTORS
330
C
102
}
100
AcDbDictionary
280
0
281
1
  3
Standard
350
18
  0
DICTIONARY
  5
19
102
{ACAD_REACTORS
330
C
102
}
100
AcDbDictionary
281
1
  0
DICTIONARY
  5
1A
102
{ACAD_REACTORS
330
C
102
}
100
AcDbDictionary
281
1
  3
Model
350
2F9
  3
Layout1
350
2FA
  0
ACDBPLACEHOLDER
  5
F
102
{ACAD_REACTORS
330
E
102
}
  0
MLINESTYLE
  5
18
102
{ACAD_REACTORS
330
17
102
}
100
AcDbMlineStyle
  2
STANDARD
 70
0
  3

 62
256
 51
90.0
 52
90.0
 71
2
 49
0.5
 62
256
  6
BYLAYER
 49
-0.5
 62
256
  6
BYLAYER
  0
LAYOUT
  5
2F9
102
{ACAD_REACTORS
330
1A
102
}
100
AcDbPlotSettings
  1

  2
none_device
  4

  6

 40
0.0
 41
0.0
 42
0.0
 43
0.0
 44
210.0
 45
297.0
 46
0.0
 47
0.0
 48
0.0
 49
0.0
140
0.0
141
0.0
142
1.0
143
1.0
 70
1024
 72
1
 73
0
 74
0
  7

 75
0
147
1.0
148
0.0
149
0.0
100
AcDbLayout
  1
Model
 70
0
 71
0
 10
0.0
 20
0.0
 11
210.0
 21
297.0
 12
0.0
 22
0.0
 32
0.0
 14
0.0
 24
0.0
 34
0.0
 15
0.0
 25
0.0
 35
0.0
146
0.0
 13
0.0
 23
0.0
 33
0.0
 16
1.0
 26
0.0
 36
0.0
 17
0.0
 27
1.0
 37
0.0
 76
0
330
210
345
0
346
0
  0
LAYOUT
  5
2FA
102
{ACAD_REACTORS
330
1A
102
}
100
AcDbPlotSettings
  1

  2
none_device
  4

  6

 40
0.0
 41
0.0
 42
0.0
 43
0.0
 44
210.0
 45
297.0
 46
0.0
 47
0.0
 48
0.0
 49
0.0
140
0.0
141
0.0
142
1.0
143
1.0
 70
0
 72
1
 73
0
 74
0
  7

 75
0
147
1.0
148
0.0
149
0.0
100
AcDbLayout
  1
Layout1
 70
0
 71
1
 10
0.0
 20
0.0
 11
210.0
 21
297.0
 12
0.0
 22
0.0
 32
0.0
 14
0.0
 24
0.0
 34
0.0
 15
0.0
 25
0.0
 35
0.0
146
0.0
 13
0.0
 23
0.0
 33
0.0
 16
1.0
 26
0.0
 36
0.0
 17
0.0
 27
1.0
 37
0.0
 76
0
330
211
345
0
346
0
  0
ENDSEC
  0
EOF
