999
DXF file: C:\Users\sesa63760\Dev\_Creo\CAD\MCADID0003613_3D-CAD\drw0001_3.dxf
999
Pro/ENGINEER 2019471 by Parametric Technology Corporation
  0
SECTION
  2
HEADER
  9
$ACADVER
  1
AC1024
  9
$DWGCODEPAGE
  3
ANSI_1252
  9
$EXTMAX
 10
105.2020044436
 20
148.7856919987
 30
0.0
  9
$EXTMIN
 10
0.0
 20
0.0
 30
0.0
  9
$LIMMIN
 10
0.0
 20
0.0
  9
$LIMMAX
 10
105.2020044436
 20
148.7856919987
  9
$VIEWCTR
 10
52.6010022218
 20
74.3928459994
  9
$VIEWSIZE
 40
148.7856919987
  9
$CLAYER
  8
0
  9
$LTSCALE
 40
9.6986228858
  9
$CELTYPE
  6
BYLAYER
  9
$DIMSCALE
 40
1.0
  9
$DIMASZ
 40
1.2524048148
  9
$DIMEXO
 40
1.0
  9
$DIMDLI
 40
6.7008667211
  9
$DIMEXE
 40
1.0
  9
$DIMCEN
 40
1.5870473813
  9
$DIMLFAC
 40
1.0
  9
$DIMBLK
  1
_FILLED
  9
$DIMALT
 70
0
  9
$DIMALTF
 40
0.0393700787
  9
$DIMTXT
 40
1.7533667407
  9
$DIMTOL
 70
1
  9
$DIMLIM
 70
0
  9
$DIMTFAC
 40
1.0
  9
$DIMTP
 40
0.01
  9
$DIMTM
 40
0.01
  9
$DIMGAP
 40
0.625
  9
$DIMDSEP
 70
46
  9
$AUNITS
 70
0
  9
$PDMODE
 70
3
  9
$PDSIZE
 40
0.3125
  9
$HANDSEED
  5
252
  9
$TILEMODE
 70
1
  9
$MEASUREMENT
 70
1
  9
$INSUNITS
 70
4
  0
ENDSEC
  0
SECTION
  2
CLASSES
  0
CLASS
  1
ACDBDICTIONARYWDFLT
  2
AcDbDictionaryWithDefault
  3
AutoCAD 2000
 90
0
 91
1
280
0
281
0
  0
CLASS
  1
ACDBPLACEHOLDER
  2
AcDbPlaceHolder
  3
AutoCAD 2000
 90
0
 91
1
280
0
281
0
  0
CLASS
  1
LAYOUT
  2
AcDbLayout
  3
AutoCAD 2000
 90
0
 91
0
280
0
281
0
  0
ENDSEC
  0
SECTION
  2
TABLES
  0
TABLE
  2
VPORT
  5
8
100
AcDbSymbolTable
 70
2
  0
VPORT
  5
1F4
100
AcDbSymbolTableRecord
100
AcDbViewportTableRecord
  2
*ACTIVE
 70
0
 10
0.0
 20
0.0
 11
1.0
 21
1.0
 12
52.6010022218
 22
74.3928459994
 13
0.0
 23
0.0
 14
1.0
 24
1.0
 15
0.0
 25
0.0
 16
0.0
 26
0.0
 36
1.0
 17
0.0
 27
0.0
 37
0.0
 40
148.7856919987
 41
0.7070707071
 42
50.0
 43
0.0
 44
0.0
 50
0.0
 51
0.0
 71
0
 72
100
 73
1
 74
1
 75
0
 76
0
 77
0
 78
0
  0
ENDTAB
  0
TABLE
  2
LTYPE
  5
5
100
AcDbSymbolTable
 70
6
  0
LTYPE
  5
14
100
AcDbSymbolTableRecord
100
AcDbLinetypeTableRecord
  2
BYBLOCK
 70
0
  3

 72
65
 73
0
 40
0.0
  0
LTYPE
  5
15
100
AcDbSymbolTableRecord
100
AcDbLinetypeTableRecord
  2
BYLAYER
 70
0
  3

 72
65
 73
0
 40
0.0
  0
LTYPE
  5
16
100
AcDbSymbolTableRecord
100
AcDbLinetypeTableRecord
  2
CONTINUOUS
 70
64
  3
Solid line
 72
65
 73
0
 40
0.0
  0
LTYPE
  5
1F5
100
AcDbSymbolTableRecord
100
AcDbLinetypeTableRecord
  2
CENTER
 70
64
  3
____ _ ____ _ ____ _ ____ _ ____ _ ____ _ ____
 72
65
 73
4
 40
0.6
 49
0.375
 74
0
 49
-0.075
 74
0
 49
0.075
 74
0
 49
-0.075
 74
0
  0
LTYPE
  5
1F6
100
AcDbSymbolTableRecord
100
AcDbLinetypeTableRecord
  2
HIDDEN
 70
64
  3
- - - - - - - - - - - - - - - - - - - -
 72
65
 73
2
 40
0.2
 49
0.1
 74
0
 49
-0.1
 74
0
  0
LTYPE
  5
1F7
100
AcDbSymbolTableRecord
100
AcDbLinetypeTableRecord
  2
PHANTOM
 70
64
  3
_____ _ _ _____ _ _ _____ _ _ _____
 72
65
 73
6
 40
0.8
 49
0.45
 74
0
 49
-0.05
 74
0
 49
0.1
 74
0
 49
-0.05
 74
0
 49
0.1
 74
0
 49
-0.05
 74
0
  0
LTYPE
  5
1F8
100
AcDbSymbolTableRecord
100
AcDbLinetypeTableRecord
  2
DOT
 70
64
  3
. . . . . . . . . . . . . . . . . . . .
 72
65
 73
2
 40
0.2
 49
0.1
 74
0
 49
-0.1
 74
0
  0
LTYPE
  5
1F9
100
AcDbSymbolTableRecord
100
AcDbLinetypeTableRecord
  2
DASHED
 70
64
  3
- - - - - - - - - - - - - - - - - - - -
 72
65
 73
2
 40
0.2
 49
0.1
 74
0
 49
-0.1
 74
0
  0
ENDTAB
  0
TABLE
  2
LAYER
  5
2
100
AcDbSymbolTable
 70
36
  0
LAYER
  5
10
100
AcDbSymbolTableRecord
100
AcDbLayerTableRecord
  2
0
 70
0
 62
7
  6
CONTINUOUS
370
-3
390
F
  0
LAYER
  5
1FA
100
AcDbSymbolTableRecord
100
AcDbLayerTableRecord
  2
DEFAULT_1
 70
0
 62
7
  6
CENTER
370
-3
390
F
  0
LAYER
  5
1FB
100
AcDbSymbolTableRecord
100
AcDbLayerTableRecord
  2
DEFAULT_2
 70
0
 62
7
  6
HIDDEN
370
-3
390
F
  0
LAYER
  5
1FC
100
AcDbSymbolTableRecord
100
AcDbLayerTableRecord
  2
DEFAULT_3
 70
0
 62
7
  6
PHANTOM
370
-3
390
F
  0
LAYER
  5
1FD
100
AcDbSymbolTableRecord
100
AcDbLayerTableRecord
  2
00_COMPONENTS
 70
0
 62
7
  6
CONTINUOUS
370
-3
390
F
  0
LAYER
  5
1FE
100
AcDbSymbolTableRecord
100
AcDbLayerTableRecord
  2
01_1_DEFAULT_DATUMS
 70
0
 62
7
  6
CONTINUOUS
370
-3
390
F
  0
LAYER
  5
1FF
100
AcDbSymbolTableRecord
100
AcDbLayerTableRecord
  2
01_PLANES
 70
0
 62
7
  6
CONTINUOUS
370
-3
390
F
  0
LAYER
  5
200
100
AcDbSymbolTableRecord
100
AcDbLayerTableRecord
  2
02_COORD_SYS
 70
0
 62
7
  6
CONTINUOUS
370
-3
390
F
  0
LAYER
  5
201
100
AcDbSymbolTableRecord
100
AcDbLayerTableRecord
  2
03_AXES
 70
0
 62
7
  6
CONTINUOUS
370
-3
390
F
  0
LAYER
  5
202
100
AcDbSymbolTableRecord
100
AcDbLayerTableRecord
  2
04_POINTS
 70
0
 62
7
  6
CONTINUOUS
370
-3
390
F
  0
LAYER
  5
203
100
AcDbSymbolTableRecord
100
AcDbLayerTableRecord
  2
05_CURVES
 70
0
 62
7
  6
CONTINUOUS
370
-3
390
F
  0
LAYER
  5
204
100
AcDbSymbolTableRecord
100
AcDbLayerTableRecord
  2
06_SURFS
 70
0
 62
7
  6
CONTINUOUS
370
-3
390
F
  0
LAYER
  5
205
100
AcDbSymbolTableRecord
100
AcDbLayerTableRecord
  2
07_COSMETICS
 70
0
 62
7
  6
CONTINUOUS
370
-3
390
F
  0
LAYER
  5
206
100
AcDbSymbolTableRecord
100
AcDbLayerTableRecord
  2
10_NOTES
 70
0
 62
7
  6
CONTINUOUS
370
-3
390
F
  0
LAYER
  5
207
100
AcDbSymbolTableRecord
100
AcDbLayerTableRecord
  2
11_NOTES_PUB
 70
0
 62
7
  6
CONTINUOUS
370
-3
390
F
  0
LAYER
  5
208
100
AcDbSymbolTableRecord
100
AcDbLayerTableRecord
  2
13_REF_GTOL
 70
0
 62
7
  6
CONTINUOUS
370
-3
390
F
  0
LAYER
  5
209
100
AcDbSymbolTableRecord
100
AcDbLayerTableRecord
  2
16_MISC
 70
0
 62
7
  6
CONTINUOUS
370
-3
390
F
  0
LAYER
  5
20A
100
AcDbSymbolTableRecord
100
AcDbLayerTableRecord
  2
17_NO_PRINT
 70
0
 62
7
  6
CONTINUOUS
370
-3
390
F
  0
LAYER
  5
20B
100
AcDbSymbolTableRecord
100
AcDbLayerTableRecord
  2
18_DATUM_CAMS_JOINTS
 70
0
 62
7
  6
CONTINUOUS
370
-3
390
F
  0
LAYER
  5
20C
100
AcDbSymbolTableRecord
100
AcDbLayerTableRecord
  2
19_DATUM_FUNCTIONAL
 70
0
 62
7
  6
CONTINUOUS
370
-3
390
F
  0
LAYER
  5
20D
100
AcDbSymbolTableRecord
100
AcDbLayerTableRecord
  2
20_DATUM_KINEMATIC_SCHEME
 70
0
 62
7
  6
CONTINUOUS
370
-3
390
F
  0
ENDTAB
  0
TABLE
  2
STYLE
  5
3
100
AcDbSymbolTable
 70
1
  0
STYLE
  5
11
100
AcDbSymbolTableRecord
100
AcDbTextStyleTableRecord
  2
STANDARD
 70
0
 40
0.0
 41
1.0
 50
0.0
 71
0
 42
0.2
  3
ARIAL.TTF
  4

  0
STYLE
  5
20E
100
AcDbSymbolTableRecord
100
AcDbTextStyleTableRecord
  2
TEXTSTYLE_1
 70
0
 40
0.0
 41
0.8
 50
0.0
 71
0
 42
0.2
  3
gdt
  4

  0
ENDTAB
  0
TABLE
  2
VIEW
  5
6
100
AcDbSymbolTable
 70
0
  0
ENDTAB
  0
TABLE
  2
UCS
  5
7
100
AcDbSymbolTable
 70
0
  0
ENDTAB
  0
TABLE
  2
APPID
  5
9
100
AcDbSymbolTable
 70
1
  0
APPID
  5
20F
100
AcDbSymbolTableRecord
100
AcDbRegAppTableRecord
  2
ACAD
 70
0
  0
ENDTAB
  0
TABLE
  2
BLOCK_RECORD
  5
1
100
AcDbSymbolTable
 70
0
  0
BLOCK_RECORD
  5
210
100
AcDbSymbolTableRecord
100
AcDbBlockTableRecord
  2
*Model_Space
  0
BLOCK_RECORD
  5
211
100
AcDbSymbolTableRecord
100
AcDbBlockTableRecord
  2
*Paper_Space
  0
BLOCK_RECORD
  5
212
100
AcDbSymbolTableRecord
100
AcDbBlockTableRecord
  2
_FILLED
  0
ENDTAB
  0
TABLE
  2
DIMSTYLE
  5
A
100
AcDbSymbolTable
 70
1
100
AcDbDimStyleTable
 71
0
  0
DIMSTYLE
105
213
100
AcDbSymbolTableRecord
100
AcDbDimStyleTableRecord
  2
STANDARD
 70
0
  3

  4

 40
1.0
 41
1.2524048148
 42
1.0
 43
0.38
 44
1.0
 45
0.0
 46
0.0
 47
0.01
 48
0.01
140
1.7533667407
141
0.09
142
0.0
143
25.4
144
1.0
145
0.0
146
1.0
147
0.625
 71
1
 72
0
 73
0
 74
0
 75
0
 76
0
 77
1
 78
8
 79
2
170
0
171
1
172
0
173
0
174
0
175
0
176
0
177
0
178
0
270
2
179
2
271
2
272
2
273
2
274
2
275
0
280
0
281
0
282
0
283
1
284
8
285
0
286
0
287
3
288
0
340
11
278
46
341
212
342
212
343
212
344
212
  0
ENDTAB
  0
ENDSEC
  0
SECTION
  2
BLOCKS
  0
BLOCK
  5
20
100
AcDbEntity
  8
0
100
AcDbBlockBegin
  2
*Model_Space
 70
0
 10
0.0
 20
0.0
 30
0.0
  3
*Model_Space
  1

  0
ENDBLK
  5
21
100
AcDbEntity
  8
0
100
AcDbBlockEnd
  0
BLOCK
  5
1C
100
AcDbEntity
  8
0
100
AcDbBlockBegin
  2
*Paper_Space
 70
0
 10
0.0
 20
0.0
 30
0.0
  3
*Paper_Space
  1

  0
ENDBLK
  5
1D
100
AcDbEntity
  8
0
100
AcDbBlockEnd
  0
BLOCK
  5
214
100
AcDbEntity
  8
0
100
AcDbBlockBegin
  2
_FILLED
 70
64
 10
0.0
 20
0.0
  3
_FILLED
  1

  0
SOLID
  5
215
100
AcDbEntity
  8
0
  6
BYBLOCK
 62
0
100
AcDbTrace
 10
0.0
 20
0.0
 11
-1.0
 21
0.25
 12
-1.0
 22
-0.25
 13
-1.0
 23
-0.25
  0
ENDBLK
  5
216
100
AcDbEntity
  8
0
  6
BYBLOCK
 62
0
100
AcDbBlockEnd
  0
ENDSEC
  0
SECTION
  2
ENTITIES
  0
LINE
  5
217
100
AcDbEntity
  8
0
100
AcDbLine
 62
7
  6
BYLAYER
 10
23.7705446425
 20
72.2570704596
 11
23.7705446425
 21
77.2570704596
  0
LINE
  5
218
100
AcDbEntity
  8
0
100
AcDbLine
 62
7
  6
BYLAYER
 10
27.6705446425
 20
60.5689609778
 11
27.6705446425
 21
88.9451799413
  0
LINE
  5
219
100
AcDbEntity
  8
0
100
AcDbLine
 62
7
  6
BYLAYER
 10
34.1705446425
 20
88.9451954596
 11
34.9824196425
 21
89.7570704596
  0
LINE
  5
21A
100
AcDbEntity
  8
0
100
AcDbLine
 62
7
  6
BYLAYER
 10
34.1705446425
 20
60.5689454596
 11
34.9824196425
 21
59.7570704596
  0
LINE
  5
21B
100
AcDbEntity
  8
0
100
AcDbLine
 62
7
  6
BYLAYER
 10
34.1705446425
 20
88.9451954596
 11
34.1705446425
 21
60.5689454596
  0
LINE
  5
21C
100
AcDbEntity
  8
0
100
AcDbLine
 62
7
  6
BYLAYER
 10
34.9824196425
 20
59.7570704596
 11
34.9824196425
 21
89.7570704596
  0
LINE
  5
21D
100
AcDbEntity
  8
0
100
AcDbLine
 62
7
  6
BYLAYER
 10
41.6705446425
 20
56.7570704596
 11
49.1705446425
 21
56.7570704596
  0
LINE
  5
21E
100
AcDbEntity
  8
0
100
AcDbLine
 62
7
  6
BYLAYER
 10
51.6705446425
 20
56.7570704596
 11
59.1705446425
 21
56.7570704596
  0
LINE
  5
21F
100
AcDbEntity
  8
0
100
AcDbLine
 62
7
  6
BYLAYER
 10
95.6705446425
 20
59.7570704596
 11
82.6705446425
 21
59.7570704596
  0
LINE
  5
220
100
AcDbEntity
  8
0
100
AcDbLine
 62
7
  6
BYLAYER
 10
34.9824196425
 20
59.7570704596
 11
41.6705446425
 21
59.7570704596
  0
LINE
  5
221
100
AcDbEntity
  8
0
100
AcDbLine
 62
7
  6
BYLAYER
 10
49.1705446425
 20
59.7570704596
 11
51.6705446425
 21
59.7570704596
  0
LINE
  5
222
100
AcDbEntity
  8
0
100
AcDbLine
 62
7
  6
BYLAYER
 10
59.1705446425
 20
59.7570704596
 11
65.3586696425
 21
59.7570704596
  0
LINE
  5
223
100
AcDbEntity
  8
0
100
AcDbLine
 62
7
  6
BYLAYER
 10
41.6705446425
 20
56.7570704596
 11
41.6705446425
 21
92.7570704596
  0
LINE
  5
224
100
AcDbEntity
  8
0
100
AcDbLine
 62
7
  6
BYLAYER
 10
27.6705446425
 20
60.5689454596
 11
34.1705446425
 21
60.5689454596
  0
LINE
  5
225
100
AcDbEntity
  8
0
100
AcDbLine
 62
7
  6
BYLAYER
 10
66.1705446425
 20
60.5689454596
 11
68.1705446425
 21
60.5689454596
  0
LINE
  5
226
100
AcDbEntity
  8
0
100
AcDbLine
 62
7
  6
BYLAYER
 10
49.1705446425
 20
92.7570704596
 11
49.1705446425
 21
56.7570704596
  0
LINE
  5
227
100
AcDbEntity
  8
0
100
AcDbLine
 62
7
  6
BYLAYER
 10
51.6705446425
 20
56.7570704596
 11
51.6705446425
 21
92.7570704596
  0
LINE
  5
228
100
AcDbEntity
  8
0
100
AcDbLine
 62
7
  6
BYLAYER
 10
27.6705446425
 20
72.2570704596
 11
14.9072748654
 21
72.2570704596
  0
LINE
  5
229
100
AcDbEntity
  8
0
100
AcDbLine
 62
7
  6
BYLAYER
 10
57.5628494879
 20
74.7570704596
 11
53.2782397971
 21
74.7570704596
  0
LINE
  5
22A
100
AcDbEntity
  8
0
100
AcDbLine
 62
7
  6
BYLAYER
 10
47.5628494879
 20
74.7570704596
 11
43.2782397971
 21
74.7570704596
  0
LINE
  5
22B
100
AcDbEntity
  8
0
100
AcDbLine
 62
7
  6
BYLAYER
 10
14.9072748654
 20
77.2570704596
 11
27.6705446425
 21
77.2570704596
  0
LINE
  5
22C
100
AcDbEntity
  8
0
100
AcDbLine
 62
7
  6
BYLAYER
 10
59.1705446425
 20
92.7570704596
 11
59.1705446425
 21
56.7570704596
  0
LINE
  5
22D
100
AcDbEntity
  8
0
100
AcDbLine
 62
7
  6
BYLAYER
 10
65.3586696425
 20
89.7570704596
 11
65.3586696425
 21
59.7570704596
  0
LINE
  5
22E
100
AcDbEntity
  8
0
100
AcDbLine
 62
7
  6
BYLAYER
 10
66.1705446425
 20
60.5689454596
 11
66.1705446425
 21
88.9451954596
  0
LINE
  5
22F
100
AcDbEntity
  8
0
100
AcDbLine
 62
7
  6
BYLAYER
 10
68.1705446425
 20
88.9451799413
 11
68.1705446425
 21
60.5689609778
  0
LINE
  5
230
100
AcDbEntity
  8
0
100
AcDbLine
 62
7
  6
BYLAYER
 10
27.6705446425
 20
88.9451954596
 11
34.1705446425
 21
88.9451954596
  0
LINE
  5
231
100
AcDbEntity
  8
0
100
AcDbLine
 62
7
  6
BYLAYER
 10
66.1705446425
 20
88.9451954596
 11
68.1705446425
 21
88.9451954596
  0
LINE
  5
232
100
AcDbEntity
  8
0
100
AcDbLine
 62
7
  6
BYLAYER
 10
34.9824196425
 20
89.7570704596
 11
41.6705446425
 21
89.7570704596
  0
LINE
  5
233
100
AcDbEntity
  8
0
100
AcDbLine
 62
7
  6
BYLAYER
 10
49.1705446425
 20
89.7570704596
 11
51.6705446425
 21
89.7570704596
  0
LINE
  5
234
100
AcDbEntity
  8
0
100
AcDbLine
 62
7
  6
BYLAYER
 10
59.1705446425
 20
89.7570704596
 11
65.3586696425
 21
89.7570704596
  0
LINE
  5
235
100
AcDbEntity
  8
0
100
AcDbLine
 62
7
  6
BYLAYER
 10
82.6705446425
 20
89.7570704596
 11
95.6705446425
 21
89.7570704596
  0
LINE
  5
236
100
AcDbEntity
  8
0
100
AcDbLine
 62
7
  6
BYLAYER
 10
59.1705446425
 20
92.7570704596
 11
51.6705446425
 21
92.7570704596
  0
LINE
  5
237
100
AcDbEntity
  8
0
100
AcDbLine
 62
7
  6
BYLAYER
 10
49.1705446425
 20
92.7570704596
 11
41.6705446425
 21
92.7570704596
  0
LINE
  5
238
100
AcDbEntity
  8
0
100
AcDbLine
 62
7
  6
BYLAYER
 10
66.1705446425
 20
60.5689454596
 11
65.3586696425
 21
59.7570704596
  0
LINE
  5
239
100
AcDbEntity
  8
0
100
AcDbLine
 62
7
  6
BYLAYER
 10
66.1705446425
 20
88.9451954596
 11
65.3586696425
 21
89.7570704596
  0
LINE
  5
23A
100
AcDbEntity
  8
0
100
AcDbLine
 62
7
  6
BYLAYER
 10
82.6705446425
 20
59.7570704596
 11
82.6705446425
 21
89.7570704596
  0
LINE
  5
23B
100
AcDbEntity
  8
0
100
AcDbLine
 62
7
  6
BYLAYER
 10
95.6705446425
 20
89.7570704596
 11
95.6705446425
 21
59.7570704596
  0
SPLINE
  5
23C
100
AcDbEntity
  8
0
100
AcDbSpline
 62
7
  6
BYLAYER
 70
0
 71
3
 72
11
 73
7
 74
0
 42
0.0000001
 43
0.0000001
 44
0.0000000001
 40
0.0
 40
0.0
 40
0.0
 40
0.0
 40
0.2514191113
 40
0.5017500961
 40
0.7511504184
 40
1.0
 40
1.0
 40
1.0
 40
1.0
 10
43.2782397971
 20
56.7570704596
 30
0.0
 10
43.0349378651
 20
57.4869762555
 30
0.0
 10
42.5887449322
 20
58.9573104817
 30
0.0
 10
42.0735155788
 20
61.1997043343
 30
0.0
 10
41.7454982325
 20
63.4698013987
 30
0.0
 10
41.6705446425
 20
64.9955454243
 30
0.0
 10
41.6705446425
 20
65.7570704596
 30
0.0
  0
SPLINE
  5
23D
100
AcDbEntity
  8
0
100
AcDbSpline
 62
7
  6
BYLAYER
 70
0
 71
3
 72
11
 73
7
 74
0
 42
0.0000001
 43
0.0000001
 44
0.0000000001
 40
0.0
 40
0.0
 40
0.0
 40
0.0
 40
0.2488497021
 40
0.4982500382
 40
0.7485809689
 40
1.0
 40
1.0
 40
1.0
 40
1.0
 10
49.1705446425
 20
65.7570704596
 30
0.0
 10
49.1705446425
 20
64.9955450516
 30
0.0
 10
49.0955909097
 20
63.4698006082
 30
0.0
 10
48.767573619
 20
61.1997033023
 30
0.0
 10
48.2523449729
 20
58.9573096255
 30
0.0
 10
47.8061513435
 20
57.4869760263
 30
0.0
 10
47.5628494879
 20
56.7570704596
 30
0.0
  0
SPLINE
  5
23E
100
AcDbEntity
  8
0
100
AcDbSpline
 62
7
  6
BYLAYER
 70
0
 71
3
 72
11
 73
7
 74
0
 42
0.0000001
 43
0.0000001
 44
0.0000000001
 40
0.0
 40
0.0
 40
0.0
 40
0.0
 40
0.2514191113
 40
0.5017500961
 40
0.7511504184
 40
1.0
 40
1.0
 40
1.0
 40
1.0
 10
47.5628494879
 20
92.7570704596
 30
0.0
 10
47.8061514199
 20
92.0271646637
 30
0.0
 10
48.2523443528
 20
90.5568304375
 30
0.0
 10
48.7675737062
 20
88.3144365848
 30
0.0
 10
49.0955910524
 20
86.0443395205
 30
0.0
 10
49.1705446425
 20
84.5185954949
 30
0.0
 10
49.1705446425
 20
83.7570704596
 30
0.0
  0
SPLINE
  5
23F
100
AcDbEntity
  8
0
100
AcDbSpline
 62
7
  6
BYLAYER
 70
0
 71
3
 72
11
 73
7
 74
0
 42
0.0000001
 43
0.0000001
 44
0.0000000001
 40
0.0
 40
0.0
 40
0.0
 40
0.0
 40
0.2488497021
 40
0.4982500382
 40
0.7485809689
 40
1.0
 40
1.0
 40
1.0
 40
1.0
 10
41.6705446425
 20
83.7570704596
 30
0.0
 10
41.6705446425
 20
84.5185958676
 30
0.0
 10
41.7454983752
 20
86.044340311
 30
0.0
 10
42.073515666
 20
88.3144376169
 30
0.0
 10
42.5887443121
 20
90.5568312936
 30
0.0
 10
43.0349379415
 20
92.0271648929
 30
0.0
 10
43.2782397971
 20
92.7570704596
 30
0.0
  0
SPLINE
  5
240
100
AcDbEntity
  8
0
100
AcDbSpline
 62
7
  6
BYLAYER
 70
0
 71
3
 72
11
 73
7
 74
0
 42
0.0000001
 43
0.0000001
 44
0.0000000001
 40
0.0
 40
0.0
 40
0.0
 40
0.0
 40
0.2514191113
 40
0.5017500961
 40
0.7511504184
 40
1.0
 40
1.0
 40
1.0
 40
1.0
 10
43.2782397971
 20
74.7570704596
 30
0.0
 10
43.0349378651
 20
75.4869762555
 30
0.0
 10
42.5887449322
 20
76.9573104817
 30
0.0
 10
42.0735155788
 20
79.1997043343
 30
0.0
 10
41.7454982325
 20
81.4698013987
 30
0.0
 10
41.6705446425
 20
82.9955454243
 30
0.0
 10
41.6705446425
 20
83.7570704596
 30
0.0
  0
SPLINE
  5
241
100
AcDbEntity
  8
0
100
AcDbSpline
 62
7
  6
BYLAYER
 70
0
 71
3
 72
11
 73
7
 74
0
 42
0.0000001
 43
0.0000001
 44
0.0000000001
 40
0.0
 40
0.0
 40
0.0
 40
0.0
 40
0.2514191113
 40
0.5017500961
 40
0.7511504184
 40
1.0
 40
1.0
 40
1.0
 40
1.0
 10
47.5628494879
 20
74.7570704596
 30
0.0
 10
47.8061514199
 20
74.0271646637
 30
0.0
 10
48.2523443528
 20
72.5568304375
 30
0.0
 10
48.7675737062
 20
70.3144365848
 30
0.0
 10
49.0955910524
 20
68.0443395205
 30
0.0
 10
49.1705446425
 20
66.5185954949
 30
0.0
 10
49.1705446425
 20
65.7570704596
 30
0.0
  0
SPLINE
  5
242
100
AcDbEntity
  8
0
100
AcDbSpline
 62
7
  6
BYLAYER
 70
0
 71
3
 72
11
 73
7
 74
0
 42
0.0000001
 43
0.0000001
 44
0.0000000001
 40
0.0
 40
0.0
 40
0.0
 40
0.0
 40
0.2488497021
 40
0.4982500382
 40
0.7485809689
 40
1.0
 40
1.0
 40
1.0
 40
1.0
 10
41.6705446425
 20
65.7570704596
 30
0.0
 10
41.6705446425
 20
66.5185958676
 30
0.0
 10
41.7454983752
 20
68.044340311
 30
0.0
 10
42.073515666
 20
70.3144376169
 30
0.0
 10
42.5887443121
 20
72.5568312936
 30
0.0
 10
43.0349379415
 20
74.0271648929
 30
0.0
 10
43.2782397971
 20
74.7570704596
 30
0.0
  0
SPLINE
  5
243
100
AcDbEntity
  8
0
100
AcDbSpline
 62
7
  6
BYLAYER
 70
0
 71
3
 72
11
 73
7
 74
0
 42
0.0000001
 43
0.0000001
 44
0.0000000001
 40
0.0
 40
0.0
 40
0.0
 40
0.0
 40
0.2488497021
 40
0.4982500382
 40
0.7485809689
 40
1.0
 40
1.0
 40
1.0
 40
1.0
 10
49.1705446425
 20
83.7570704596
 30
0.0
 10
49.1705446425
 20
82.9955450516
 30
0.0
 10
49.0955909097
 20
81.4698006082
 30
0.0
 10
48.767573619
 20
79.1997033023
 30
0.0
 10
48.2523449729
 20
76.9573096255
 30
0.0
 10
47.8061513435
 20
75.4869760263
 30
0.0
 10
47.5628494879
 20
74.7570704596
 30
0.0
  0
SPLINE
  5
244
100
AcDbEntity
  8
0
100
AcDbSpline
 62
7
  6
BYLAYER
 70
0
 71
3
 72
11
 73
7
 74
0
 42
0.0000001
 43
0.0000001
 44
0.0000000001
 40
0.0
 40
0.0
 40
0.0
 40
0.0
 40
0.2514191113
 40
0.5017500961
 40
0.7511504184
 40
1.0
 40
1.0
 40
1.0
 40
1.0
 10
53.2782397971
 20
56.7570704596
 30
0.0
 10
53.0349378651
 20
57.4869762555
 30
0.0
 10
52.5887449322
 20
58.9573104817
 30
0.0
 10
52.0735155788
 20
61.1997043343
 30
0.0
 10
51.7454982325
 20
63.4698013987
 30
0.0
 10
51.6705446425
 20
64.9955454243
 30
0.0
 10
51.6705446425
 20
65.7570704596
 30
0.0
  0
SPLINE
  5
245
100
AcDbEntity
  8
0
100
AcDbSpline
 62
7
  6
BYLAYER
 70
0
 71
3
 72
11
 73
7
 74
0
 42
0.0000001
 43
0.0000001
 44
0.0000000001
 40
0.0
 40
0.0
 40
0.0
 40
0.0
 40
0.2488497021
 40
0.4982500382
 40
0.7485809689
 40
1.0
 40
1.0
 40
1.0
 40
1.0
 10
59.1705446425
 20
65.7570704596
 30
0.0
 10
59.1705446425
 20
64.9955450516
 30
0.0
 10
59.0955909097
 20
63.4698006082
 30
0.0
 10
58.767573619
 20
61.1997033023
 30
0.0
 10
58.2523449729
 20
58.9573096255
 30
0.0
 10
57.8061513435
 20
57.4869760263
 30
0.0
 10
57.5628494879
 20
56.7570704596
 30
0.0
  0
SPLINE
  5
246
100
AcDbEntity
  8
0
100
AcDbSpline
 62
7
  6
BYLAYER
 70
0
 71
3
 72
11
 73
7
 74
0
 42
0.0000001
 43
0.0000001
 44
0.0000000001
 40
0.0
 40
0.0
 40
0.0
 40
0.0
 40
0.2514191113
 40
0.5017500961
 40
0.7511504184
 40
1.0
 40
1.0
 40
1.0
 40
1.0
 10
57.5628494879
 20
92.7570704596
 30
0.0
 10
57.8061514199
 20
92.0271646637
 30
0.0
 10
58.2523443528
 20
90.5568304375
 30
0.0
 10
58.7675737062
 20
88.3144365848
 30
0.0
 10
59.0955910524
 20
86.0443395205
 30
0.0
 10
59.1705446425
 20
84.5185954949
 30
0.0
 10
59.1705446425
 20
83.7570704596
 30
0.0
  0
SPLINE
  5
247
100
AcDbEntity
  8
0
100
AcDbSpline
 62
7
  6
BYLAYER
 70
0
 71
3
 72
11
 73
7
 74
0
 42
0.0000001
 43
0.0000001
 44
0.0000000001
 40
0.0
 40
0.0
 40
0.0
 40
0.0
 40
0.2488497021
 40
0.4982500382
 40
0.7485809689
 40
1.0
 40
1.0
 40
1.0
 40
1.0
 10
51.6705446425
 20
83.7570704596
 30
0.0
 10
51.6705446425
 20
84.5185958676
 30
0.0
 10
51.7454983752
 20
86.044340311
 30
0.0
 10
52.073515666
 20
88.3144376169
 30
0.0
 10
52.5887443121
 20
90.5568312936
 30
0.0
 10
53.0349379415
 20
92.0271648929
 30
0.0
 10
53.2782397971
 20
92.7570704596
 30
0.0
  0
SPLINE
  5
248
100
AcDbEntity
  8
0
100
AcDbSpline
 62
7
  6
BYLAYER
 70
0
 71
3
 72
11
 73
7
 74
0
 42
0.0000001
 43
0.0000001
 44
0.0000000001
 40
0.0
 40
0.0
 40
0.0
 40
0.0
 40
0.2514191113
 40
0.5017500961
 40
0.7511504184
 40
1.0
 40
1.0
 40
1.0
 40
1.0
 10
53.2782397971
 20
74.7570704596
 30
0.0
 10
53.0349378651
 20
75.4869762555
 30
0.0
 10
52.5887449322
 20
76.9573104817
 30
0.0
 10
52.0735155788
 20
79.1997043343
 30
0.0
 10
51.7454982325
 20
81.4698013987
 30
0.0
 10
51.6705446425
 20
82.9955454243
 30
0.0
 10
51.6705446425
 20
83.7570704596
 30
0.0
  0
SPLINE
  5
249
100
AcDbEntity
  8
0
100
AcDbSpline
 62
7
  6
BYLAYER
 70
0
 71
3
 72
11
 73
7
 74
0
 42
0.0000001
 43
0.0000001
 44
0.0000000001
 40
0.0
 40
0.0
 40
0.0
 40
0.0
 40
0.2514191113
 40
0.5017500961
 40
0.7511504184
 40
1.0
 40
1.0
 40
1.0
 40
1.0
 10
57.5628494879
 20
74.7570704596
 30
0.0
 10
57.8061514199
 20
74.0271646637
 30
0.0
 10
58.2523443528
 20
72.5568304375
 30
0.0
 10
58.7675737062
 20
70.3144365848
 30
0.0
 10
59.0955910524
 20
68.0443395205
 30
0.0
 10
59.1705446425
 20
66.5185954949
 30
0.0
 10
59.1705446425
 20
65.7570704596
 30
0.0
  0
SPLINE
  5
24A
100
AcDbEntity
  8
0
100
AcDbSpline
 62
7
  6
BYLAYER
 70
0
 71
3
 72
11
 73
7
 74
0
 42
0.0000001
 43
0.0000001
 44
0.0000000001
 40
0.0
 40
0.0
 40
0.0
 40
0.0
 40
0.2488497021
 40
0.4982500382
 40
0.7485809689
 40
1.0
 40
1.0
 40
1.0
 40
1.0
 10
51.6705446425
 20
65.7570704596
 30
0.0
 10
51.6705446425
 20
66.5185958676
 30
0.0
 10
51.7454983752
 20
68.044340311
 30
0.0
 10
52.073515666
 20
70.3144376169
 30
0.0
 10
52.5887443121
 20
72.5568312936
 30
0.0
 10
53.0349379415
 20
74.0271648929
 30
0.0
 10
53.2782397971
 20
74.7570704596
 30
0.0
  0
SPLINE
  5
24B
100
AcDbEntity
  8
0
100
AcDbSpline
 62
7
  6
BYLAYER
 70
0
 71
3
 72
11
 73
7
 74
0
 42
0.0000001
 43
0.0000001
 44
0.0000000001
 40
0.0
 40
0.0
 40
0.0
 40
0.0
 40
0.2488497021
 40
0.4982500382
 40
0.7485809689
 40
1.0
 40
1.0
 40
1.0
 40
1.0
 10
59.1705446425
 20
83.7570704596
 30
0.0
 10
59.1705446425
 20
82.9955450516
 30
0.0
 10
59.0955909097
 20
81.4698006082
 30
0.0
 10
58.767573619
 20
79.1997033023
 30
0.0
 10
58.2523449729
 20
76.9573096255
 30
0.0
 10
57.8061513435
 20
75.4869760263
 30
0.0
 10
57.5628494879
 20
74.7570704596
 30
0.0
  0
SPLINE
  5
24C
100
AcDbEntity
  8
0
100
AcDbSpline
 62
7
  6
BYLAYER
 70
0
 71
3
 72
15
 73
11
 74
0
 42
0.0000001
 43
0.0000001
 44
0.0000000001
 40
0.0
 40
0.0
 40
0.0
 40
0.0
 40
0.125916248
 40
0.2517474649
 40
0.3772649877
 40
0.5024561272
 40
0.6272674459
 40
0.7517375412
 40
0.8759418005
 40
1.0
 40
1.0
 40
1.0
 40
1.0
 10
12.4452554828
 20
74.7570704596
 30
0.0
 10
12.4452554828
 20
74.5937599323
 30
0.0
 10
12.4770012591
 20
74.2663787448
 30
0.0
 10
12.617789641
 20
73.7947056034
 30
0.0
 10
12.8466791268
 20
73.3597639554
 30
0.0
 10
13.1546335903
 20
72.9784369059
 30
0.0
 10
13.5300666981
 20
72.6653819171
 30
0.0
 10
13.9585784657
 20
72.4326875776
 30
0.0
 10
14.4234657412
 20
72.2893719792
 30
0.0
 10
14.7463741839
 20
72.2571044347
 30
0.0
 10
14.9072748643
 20
72.2571033554
 30
0.0
  0
SPLINE
  5
24D
100
AcDbEntity
  8
0
100
AcDbSpline
 62
7
  6
BYLAYER
 70
0
 71
3
 72
15
 73
11
 74
0
 42
0.0000001
 43
0.0000001
 44
0.0000000001
 40
0.0
 40
0.0
 40
0.0
 40
0.0
 40
0.1240553273
 40
0.248256123
 40
0.3727239532
 40
0.4975361209
 40
0.6227300185
 40
0.7482501519
 40
0.8740845345
 40
1.0
 40
1.0
 40
1.0
 40
1.0
 10
14.9072748664
 20
77.2570375638
 30
0.0
 10
14.7463779783
 20
77.2570386431
 30
0.0
 10
14.4234779657
 20
77.2247677177
 30
0.0
 10
13.958601631
 20
77.0814586114
 30
0.0
 10
13.5300910261
 20
76.8487759103
 30
0.0
 10
13.154652863
 20
76.5357240282
 30
0.0
 10
12.8466911418
 20
76.1543926834
 30
0.0
 10
12.6177929046
 20
75.7194431901
 30
0.0
 10
12.4770024272
 20
75.2477639067
 30
0.0
 10
12.4452554828
 20
74.920379904
 30
0.0
 10
12.4452554828
 20
74.7570704596
 30
0.0
  0
SPLINE
  5
24E
100
AcDbEntity
  8
0
100
AcDbSpline
 62
7
  6
BYLAYER
 70
0
 71
3
 72
15
 73
11
 74
0
 42
0.0000001
 43
0.0000001
 44
0.0000000001
 40
0.0
 40
0.0
 40
0.0
 40
0.0
 40
0.125916248
 40
0.2517474649
 40
0.3772649877
 40
0.5024561272
 40
0.6272674459
 40
0.7517375412
 40
0.8759418005
 40
1.0
 40
1.0
 40
1.0
 40
1.0
 10
17.3692942479
 20
74.7570704596
 30
0.0
 10
17.3692942479
 20
74.9203809868
 30
0.0
 10
17.3375484716
 20
75.2477621744
 30
0.0
 10
17.1967600897
 20
75.7194353158
 30
0.0
 10
16.967870604
 20
76.1543769637
 30
0.0
 10
16.6599161404
 20
76.5357040132
 30
0.0
 10
16.2844830326
 20
76.8487590021
 30
0.0
 10
15.8559712651
 20
77.0814533416
 30
0.0
 10
15.3910839895
 20
77.22476894
 30
0.0
 10
15.0681755468
 20
77.2570364845
 30
0.0
 10
14.9072748664
 20
77.2570375638
 30
0.0
  0
SPLINE
  5
24F
100
AcDbEntity
  8
0
100
AcDbSpline
 62
7
  6
BYLAYER
 70
0
 71
3
 72
15
 73
11
 74
0
 42
0.0000001
 43
0.0000001
 44
0.0000000001
 40
0.0
 40
0.0
 40
0.0
 40
0.0
 40
0.1240553273
 40
0.248256123
 40
0.3727239532
 40
0.4975361209
 40
0.6227300185
 40
0.7482501519
 40
0.8740845345
 40
1.0
 40
1.0
 40
1.0
 40
1.0
 10
14.9072748643
 20
72.2571033554
 30
0.0
 10
15.0681717524
 20
72.2571022761
 30
0.0
 10
15.391071765
 20
72.2893732014
 30
0.0
 10
15.8559480997
 20
72.4326823078
 30
0.0
 10
16.2844587047
 20
72.6653650089
 30
0.0
 10
16.6598968678
 20
72.978416891
 30
0.0
 10
16.967858589
 20
73.3597482358
 30
0.0
 10
17.1967568261
 20
73.7946977291
 30
0.0
 10
17.3375473035
 20
74.2663770125
 30
0.0
 10
17.3692942479
 20
74.5937610152
 30
0.0
 10
17.3692942479
 20
74.7570704596
 30
0.0
  0
ENDSEC
  0
SECTION
  2
OBJECTS
  0
DICTIONARY
  5
C
100
AcDbDictionary
280
0
281
1
  3
ACAD_GROUP
350
D
  3
ACAD_MLINESTYLE
350
17
  3
ACAD_LAYOUT
350
1A
  3
ACAD_PLOTSETTINGS
350
19
  3
ACAD_PLOTSTYLENAME
350
E
  0
DICTIONARY
  5
D
102
{ACAD_REACTORS
330
C
102
}
100
AcDbDictionary
280
0
281
1
  0
ACDBDICTIONARYWDFLT
  5
E
102
{ACAD_REACTORS
330
C
102
}
100
AcDbDictionary
281
1
  3
Normal
350
F
100
AcDbDictionaryWithDefault
340
F
  0
DICTIONARY
  5
17
102
{ACAD_REACTORS
330
C
102
}
100
AcDbDictionary
280
0
281
1
  3
Standard
350
18
  0
DICTIONARY
  5
19
102
{ACAD_REACTORS
330
C
102
}
100
AcDbDictionary
281
1
  0
DICTIONARY
  5
1A
102
{ACAD_REACTORS
330
C
102
}
100
AcDbDictionary
281
1
  3
Model
350
250
  3
Layout1
350
251
  0
ACDBPLACEHOLDER
  5
F
102
{ACAD_REACTORS
330
E
102
}
  0
MLINESTYLE
  5
18
102
{ACAD_REACTORS
330
17
102
}
100
AcDbMlineStyle
  2
STANDARD
 70
0
  3

 62
256
 51
90.0
 52
90.0
 71
2
 49
0.5
 62
256
  6
BYLAYER
 49
-0.5
 62
256
  6
BYLAYER
  0
LAYOUT
  5
250
102
{ACAD_REACTORS
330
1A
102
}
100
AcDbPlotSettings
  1

  2
none_device
  4

  6

 40
0.0
 41
0.0
 42
0.0
 43
0.0
 44
210.0
 45
297.0
 46
0.0
 47
0.0
 48
0.0
 49
0.0
140
0.0
141
0.0
142
1.0
143
1.0
 70
1024
 72
1
 73
0
 74
0
  7

 75
0
147
1.0
148
0.0
149
0.0
100
AcDbLayout
  1
Model
 70
0
 71
0
 10
0.0
 20
0.0
 11
210.0
 21
297.0
 12
0.0
 22
0.0
 32
0.0
 14
0.0
 24
0.0
 34
0.0
 15
0.0
 25
0.0
 35
0.0
146
0.0
 13
0.0
 23
0.0
 33
0.0
 16
1.0
 26
0.0
 36
0.0
 17
0.0
 27
1.0
 37
0.0
 76
0
330
210
345
0
346
0
  0
LAYOUT
  5
251
102
{ACAD_REACTORS
330
1A
102
}
100
AcDbPlotSettings
  1

  2
none_device
  4

  6

 40
0.0
 41
0.0
 42
0.0
 43
0.0
 44
210.0
 45
297.0
 46
0.0
 47
0.0
 48
0.0
 49
0.0
140
0.0
141
0.0
142
1.0
143
1.0
 70
0
 72
1
 73
0
 74
0
  7

 75
0
147
1.0
148
0.0
149
0.0
100
AcDbLayout
  1
Layout1
 70
0
 71
1
 10
0.0
 20
0.0
 11
210.0
 21
297.0
 12
0.0
 22
0.0
 32
0.0
 14
0.0
 24
0.0
 34
0.0
 15
0.0
 25
0.0
 35
0.0
146
0.0
 13
0.0
 23
0.0
 33
0.0
 16
1.0
 26
0.0
 36
0.0
 17
0.0
 27
1.0
 37
0.0
 76
0
330
211
345
0
346
0
  0
ENDSEC
  0
EOF
