999
DXF file: C:\Users\sesa63760\Dev\_Creo\CAD\MCADID0003568_3D-CAD\drw0001_1.dxf
999
Pro/ENGINEER 2019471 by Parametric Technology Corporation
  0
SECTION
  2
HEADER
  9
$ACADVER
  1
AC1024
  9
$DWGCODEPAGE
  3
ANSI_1252
  9
$EXTMAX
 10
57.0081790761
 20
80.6258532647
 30
0.0
  9
$EXTMIN
 10
0.0
 20
0.0
 30
0.0
  9
$LIMMIN
 10
0.0
 20
0.0
  9
$LIMMAX
 10
57.0081790761
 20
80.6258532647
  9
$VIEWCTR
 10
28.504089538
 20
40.3129266324
  9
$VIEWSIZE
 40
80.6258532647
  9
$CLAYER
  8
0
  9
$LTSCALE
 40
5.2556111758
  9
$CELTYPE
  6
BYLAYER
  9
$DIMSCALE
 40
1.0
  9
$DIMASZ
 40
0.6786687985
  9
$DIMEXO
 40
1.0
  9
$DIMDLI
 40
3.6311495396
  9
$DIMEXE
 40
1.0
  9
$DIMCEN
 40
0.8600091015
  9
$DIMLFAC
 40
1.0
  9
$DIMBLK
  1
_FILLED
  9
$DIMALT
 70
0
  9
$DIMALTF
 40
0.0393700787
  9
$DIMTXT
 40
0.9501363179
  9
$DIMTOL
 70
1
  9
$DIMLIM
 70
0
  9
$DIMTFAC
 40
1.0
  9
$DIMTP
 40
0.01
  9
$DIMTM
 40
0.01
  9
$DIMGAP
 40
0.625
  9
$DIMDSEP
 70
46
  9
$AUNITS
 70
0
  9
$PDMODE
 70
3
  9
$PDSIZE
 40
0.3125
  9
$HANDSEED
  5
2A7
  9
$TILEMODE
 70
1
  9
$MEASUREMENT
 70
1
  9
$INSUNITS
 70
4
  0
ENDSEC
  0
SECTION
  2
CLASSES
  0
CLASS
  1
ACDBDICTIONARYWDFLT
  2
AcDbDictionaryWithDefault
  3
AutoCAD 2000
 90
0
 91
1
280
0
281
0
  0
CLASS
  1
ACDBPLACEHOLDER
  2
AcDbPlaceHolder
  3
AutoCAD 2000
 90
0
 91
1
280
0
281
0
  0
CLASS
  1
LAYOUT
  2
AcDbLayout
  3
AutoCAD 2000
 90
0
 91
0
280
0
281
0
  0
ENDSEC
  0
SECTION
  2
TABLES
  0
TABLE
  2
VPORT
  5
8
100
AcDbSymbolTable
 70
2
  0
VPORT
  5
1F4
100
AcDbSymbolTableRecord
100
AcDbViewportTableRecord
  2
*ACTIVE
 70
0
 10
0.0
 20
0.0
 11
1.0
 21
1.0
 12
28.504089538
 22
40.3129266324
 13
0.0
 23
0.0
 14
1.0
 24
1.0
 15
0.0
 25
0.0
 16
0.0
 26
0.0
 36
1.0
 17
0.0
 27
0.0
 37
0.0
 40
80.6258532647
 41
0.7070707071
 42
50.0
 43
0.0
 44
0.0
 50
0.0
 51
0.0
 71
0
 72
100
 73
1
 74
1
 75
0
 76
0
 77
0
 78
0
  0
ENDTAB
  0
TABLE
  2
LTYPE
  5
5
100
AcDbSymbolTable
 70
6
  0
LTYPE
  5
14
100
AcDbSymbolTableRecord
100
AcDbLinetypeTableRecord
  2
BYBLOCK
 70
0
  3

 72
65
 73
0
 40
0.0
  0
LTYPE
  5
15
100
AcDbSymbolTableRecord
100
AcDbLinetypeTableRecord
  2
BYLAYER
 70
0
  3

 72
65
 73
0
 40
0.0
  0
LTYPE
  5
16
100
AcDbSymbolTableRecord
100
AcDbLinetypeTableRecord
  2
CONTINUOUS
 70
64
  3
Solid line
 72
65
 73
0
 40
0.0
  0
LTYPE
  5
1F5
100
AcDbSymbolTableRecord
100
AcDbLinetypeTableRecord
  2
CENTER
 70
64
  3
____ _ ____ _ ____ _ ____ _ ____ _ ____ _ ____
 72
65
 73
4
 40
0.6
 49
0.375
 74
0
 49
-0.075
 74
0
 49
0.075
 74
0
 49
-0.075
 74
0
  0
LTYPE
  5
1F6
100
AcDbSymbolTableRecord
100
AcDbLinetypeTableRecord
  2
HIDDEN
 70
64
  3
- - - - - - - - - - - - - - - - - - - -
 72
65
 73
2
 40
0.2
 49
0.1
 74
0
 49
-0.1
 74
0
  0
LTYPE
  5
1F7
100
AcDbSymbolTableRecord
100
AcDbLinetypeTableRecord
  2
PHANTOM
 70
64
  3
_____ _ _ _____ _ _ _____ _ _ _____
 72
65
 73
6
 40
0.8
 49
0.45
 74
0
 49
-0.05
 74
0
 49
0.1
 74
0
 49
-0.05
 74
0
 49
0.1
 74
0
 49
-0.05
 74
0
  0
LTYPE
  5
1F8
100
AcDbSymbolTableRecord
100
AcDbLinetypeTableRecord
  2
DOT
 70
64
  3
. . . . . . . . . . . . . . . . . . . .
 72
65
 73
2
 40
0.2
 49
0.1
 74
0
 49
-0.1
 74
0
  0
LTYPE
  5
1F9
100
AcDbSymbolTableRecord
100
AcDbLinetypeTableRecord
  2
DASHED
 70
64
  3
- - - - - - - - - - - - - - - - - - - -
 72
65
 73
2
 40
0.2
 49
0.1
 74
0
 49
-0.1
 74
0
  0
ENDTAB
  0
TABLE
  2
LAYER
  5
2
100
AcDbSymbolTable
 70
36
  0
LAYER
  5
10
100
AcDbSymbolTableRecord
100
AcDbLayerTableRecord
  2
0
 70
0
 62
7
  6
CONTINUOUS
370
-3
390
F
  0
LAYER
  5
1FA
100
AcDbSymbolTableRecord
100
AcDbLayerTableRecord
  2
DEFAULT_1
 70
0
 62
7
  6
CENTER
370
-3
390
F
  0
LAYER
  5
1FB
100
AcDbSymbolTableRecord
100
AcDbLayerTableRecord
  2
DEFAULT_2
 70
0
 62
7
  6
HIDDEN
370
-3
390
F
  0
LAYER
  5
1FC
100
AcDbSymbolTableRecord
100
AcDbLayerTableRecord
  2
DEFAULT_3
 70
0
 62
7
  6
PHANTOM
370
-3
390
F
  0
LAYER
  5
1FD
100
AcDbSymbolTableRecord
100
AcDbLayerTableRecord
  2
00_COMPONENTS
 70
0
 62
7
  6
CONTINUOUS
370
-3
390
F
  0
LAYER
  5
1FE
100
AcDbSymbolTableRecord
100
AcDbLayerTableRecord
  2
01_1_DEFAULT_DATUMS
 70
0
 62
7
  6
CONTINUOUS
370
-3
390
F
  0
LAYER
  5
1FF
100
AcDbSymbolTableRecord
100
AcDbLayerTableRecord
  2
01_PLANES
 70
0
 62
7
  6
CONTINUOUS
370
-3
390
F
  0
LAYER
  5
200
100
AcDbSymbolTableRecord
100
AcDbLayerTableRecord
  2
02_COORD_SYS
 70
0
 62
7
  6
CONTINUOUS
370
-3
390
F
  0
LAYER
  5
201
100
AcDbSymbolTableRecord
100
AcDbLayerTableRecord
  2
03_AXES
 70
0
 62
7
  6
CONTINUOUS
370
-3
390
F
  0
LAYER
  5
202
100
AcDbSymbolTableRecord
100
AcDbLayerTableRecord
  2
04_POINTS
 70
0
 62
7
  6
CONTINUOUS
370
-3
390
F
  0
LAYER
  5
203
100
AcDbSymbolTableRecord
100
AcDbLayerTableRecord
  2
05_CURVES
 70
0
 62
7
  6
CONTINUOUS
370
-3
390
F
  0
LAYER
  5
204
100
AcDbSymbolTableRecord
100
AcDbLayerTableRecord
  2
06_SURFS
 70
0
 62
7
  6
CONTINUOUS
370
-3
390
F
  0
LAYER
  5
205
100
AcDbSymbolTableRecord
100
AcDbLayerTableRecord
  2
07_COSMETICS
 70
0
 62
7
  6
CONTINUOUS
370
-3
390
F
  0
LAYER
  5
206
100
AcDbSymbolTableRecord
100
AcDbLayerTableRecord
  2
10_NOTES
 70
0
 62
7
  6
CONTINUOUS
370
-3
390
F
  0
LAYER
  5
207
100
AcDbSymbolTableRecord
100
AcDbLayerTableRecord
  2
11_NOTES_PUB
 70
0
 62
7
  6
CONTINUOUS
370
-3
390
F
  0
LAYER
  5
208
100
AcDbSymbolTableRecord
100
AcDbLayerTableRecord
  2
13_REF_GTOL
 70
0
 62
7
  6
CONTINUOUS
370
-3
390
F
  0
LAYER
  5
209
100
AcDbSymbolTableRecord
100
AcDbLayerTableRecord
  2
16_MISC
 70
0
 62
7
  6
CONTINUOUS
370
-3
390
F
  0
LAYER
  5
20A
100
AcDbSymbolTableRecord
100
AcDbLayerTableRecord
  2
17_NO_PRINT
 70
0
 62
7
  6
CONTINUOUS
370
-3
390
F
  0
LAYER
  5
20B
100
AcDbSymbolTableRecord
100
AcDbLayerTableRecord
  2
18_DATUM_CAMS_JOINTS
 70
0
 62
7
  6
CONTINUOUS
370
-3
390
F
  0
LAYER
  5
20C
100
AcDbSymbolTableRecord
100
AcDbLayerTableRecord
  2
19_DATUM_FUNCTIONAL
 70
0
 62
7
  6
CONTINUOUS
370
-3
390
F
  0
LAYER
  5
20D
100
AcDbSymbolTableRecord
100
AcDbLayerTableRecord
  2
20_DATUM_KINEMATIC_SCHEME
 70
0
 62
7
  6
CONTINUOUS
370
-3
390
F
  0
ENDTAB
  0
TABLE
  2
STYLE
  5
3
100
AcDbSymbolTable
 70
1
  0
STYLE
  5
11
100
AcDbSymbolTableRecord
100
AcDbTextStyleTableRecord
  2
STANDARD
 70
0
 40
0.0
 41
1.0
 50
0.0
 71
0
 42
0.2
  3
ARIAL.TTF
  4

  0
STYLE
  5
20E
100
AcDbSymbolTableRecord
100
AcDbTextStyleTableRecord
  2
TEXTSTYLE_1
 70
0
 40
0.0
 41
0.8
 50
0.0
 71
0
 42
0.2
  3
gdt
  4

  0
ENDTAB
  0
TABLE
  2
VIEW
  5
6
100
AcDbSymbolTable
 70
0
  0
ENDTAB
  0
TABLE
  2
UCS
  5
7
100
AcDbSymbolTable
 70
0
  0
ENDTAB
  0
TABLE
  2
APPID
  5
9
100
AcDbSymbolTable
 70
1
  0
APPID
  5
20F
100
AcDbSymbolTableRecord
100
AcDbRegAppTableRecord
  2
ACAD
 70
0
  0
ENDTAB
  0
TABLE
  2
BLOCK_RECORD
  5
1
100
AcDbSymbolTable
 70
0
  0
BLOCK_RECORD
  5
210
100
AcDbSymbolTableRecord
100
AcDbBlockTableRecord
  2
*Model_Space
  0
BLOCK_RECORD
  5
211
100
AcDbSymbolTableRecord
100
AcDbBlockTableRecord
  2
*Paper_Space
  0
BLOCK_RECORD
  5
212
100
AcDbSymbolTableRecord
100
AcDbBlockTableRecord
  2
_FILLED
  0
ENDTAB
  0
TABLE
  2
DIMSTYLE
  5
A
100
AcDbSymbolTable
 70
1
100
AcDbDimStyleTable
 71
0
  0
DIMSTYLE
105
213
100
AcDbSymbolTableRecord
100
AcDbDimStyleTableRecord
  2
STANDARD
 70
0
  3

  4

 40
1.0
 41
0.6786687985
 42
1.0
 43
0.38
 44
1.0
 45
0.0
 46
0.0
 47
0.01
 48
0.01
140
0.9501363179
141
0.09
142
0.0
143
25.4
144
1.0
145
0.0
146
1.0
147
0.625
 71
1
 72
0
 73
0
 74
0
 75
0
 76
0
 77
1
 78
8
 79
2
170
0
171
1
172
0
173
0
174
0
175
0
176
0
177
0
178
0
270
2
179
2
271
2
272
2
273
2
274
2
275
0
280
0
281
0
282
0
283
1
284
8
285
0
286
0
287
3
288
0
340
11
278
46
341
212
342
212
343
212
344
212
  0
ENDTAB
  0
ENDSEC
  0
SECTION
  2
BLOCKS
  0
BLOCK
  5
20
100
AcDbEntity
  8
0
100
AcDbBlockBegin
  2
*Model_Space
 70
0
 10
0.0
 20
0.0
 30
0.0
  3
*Model_Space
  1

  0
ENDBLK
  5
21
100
AcDbEntity
  8
0
100
AcDbBlockEnd
  0
BLOCK
  5
1C
100
AcDbEntity
  8
0
100
AcDbBlockBegin
  2
*Paper_Space
 70
0
 10
0.0
 20
0.0
 30
0.0
  3
*Paper_Space
  1

  0
ENDBLK
  5
1D
100
AcDbEntity
  8
0
100
AcDbBlockEnd
  0
BLOCK
  5
214
100
AcDbEntity
  8
0
100
AcDbBlockBegin
  2
_FILLED
 70
64
 10
0.0
 20
0.0
  3
_FILLED
  1

  0
SOLID
  5
215
100
AcDbEntity
  8
0
  6
BYBLOCK
 62
0
100
AcDbTrace
 10
0.0
 20
0.0
 11
-1.0
 21
0.25
 12
-1.0
 22
-0.25
 13
-1.0
 23
-0.25
  0
ENDBLK
  5
216
100
AcDbEntity
  8
0
  6
BYBLOCK
 62
0
100
AcDbBlockEnd
  0
ENDSEC
  0
SECTION
  2
ENTITIES
  0
LINE
  5
217
100
AcDbEntity
  8
0
100
AcDbLine
 62
7
  6
BYLAYER
 10
40.394094031
 20
8.2886830718
 11
39.6738740875
 21
8.1777430977
  0
LINE
  5
218
100
AcDbEntity
  8
0
100
AcDbLine
 62
7
  6
BYLAYER
 10
39.6738740875
 20
8.1777430977
 11
39.0200221252
 21
8.177215991
  0
LINE
  5
219
100
AcDbEntity
  8
0
100
AcDbLine
 62
7
  6
BYLAYER
 10
25.648327273
 20
8.4763419506
 11
7.9705841444
 21
18.6823608136
  0
LINE
  5
21A
100
AcDbEntity
  8
0
100
AcDbLine
 62
7
  6
BYLAYER
 10
27.6293479154
 20
71.2659979817
 11
23.3843685337
 21
68.8151726225
  0
LINE
  5
21B
100
AcDbEntity
  8
0
100
AcDbLine
 62
7
  6
BYLAYER
 10
18.2340607193
 20
63.8000624282
 11
7.9705841444
 21
57.8744768359
  0
LINE
  5
21C
100
AcDbEntity
  8
0
100
AcDbLine
 62
7
  6
BYLAYER
 10
28.8886370278
 20
69.4178831269
 11
27.7340607193
 21
68.7512921633
  0
LINE
  5
21D
100
AcDbEntity
  8
0
100
AcDbLine
 62
7
  6
BYLAYER
 10
23.6172790243
 20
66.3744813312
 11
22.4079233113
 21
65.6762636526
  0
LINE
  5
21E
100
AcDbEntity
  8
0
100
AcDbLine
 62
7
  6
BYLAYER
 10
21.0503862378
 20
63.7116906249
 11
20.7888401237
 21
63.5606878069
  0
LINE
  5
21F
100
AcDbEntity
  8
0
100
AcDbLine
 62
7
  6
BYLAYER
 10
18.8198579226
 20
66.054156314
 11
18.9231564939
 21
66.2260911212
  0
LWPOLYLINE
  5
220
100
AcDbEntity
  8
0
100
AcDbPolyline
 62
7
  6
BYLAYER
 90
5
 70
0
 10
18.6556959358
 20
60.5482283385
 10
17.3609994884
 20
59.206751778
 10
16.9914736108
 20
57.685523847
 10
17.5967320543
 20
56.1906288943
 10
19.1075578995
 20
54.914910354
  0
LINE
  5
221
100
AcDbEntity
  8
0
100
AcDbLine
 62
7
  6
BYLAYER
 10
21.6482968232
 20
61.5257349086
 11
18.8198579226
 21
59.8927446956
  0
LINE
  5
222
100
AcDbEntity
  8
0
100
AcDbLine
 62
7
  6
BYLAYER
 10
39.9807014667
 20
8.5273499807
 11
43.9040536152
 21
6.262252805
  0
LINE
  5
223
100
AcDbEntity
  8
0
100
AcDbLine
 62
7
  6
BYLAYER
 10
7.9705841444
 20
18.6823608136
 11
7.9705841444
 21
57.8744768359
  0
LWPOLYLINE
  5
224
100
AcDbEntity
  8
0
100
AcDbPolyline
 62
7
  6
BYLAYER
 90
3
 70
0
 10
40.2224286138
 20
18.2900062874
 10
39.6236294591
 20
18.4062979559
 10
38.268444309
 20
17.9351542769
  0
LINE
  5
225
100
AcDbEntity
  8
0
100
AcDbLine
 62
7
  6
BYLAYER
 10
43.7306378403
 20
15.0225772433
 11
49.8190902328
 21
11.5074871375
  0
LINE
  5
226
100
AcDbEntity
  8
0
100
AcDbLine
 62
7
  6
BYLAYER
 10
16.4840607193
 20
56.4352654689
 11
16.4840607193
 21
57.466429261
  0
LINE
  5
227
100
AcDbEntity
  8
0
100
AcDbLine
 62
7
  6
BYLAYER
 10
18.2340607193
 20
57.8746804696
 11
18.2340607193
 21
67.5470524816
  0
LINE
  5
228
100
AcDbEntity
  8
0
100
AcDbLine
 62
7
  6
BYLAYER
 10
18.8198579226
 20
59.8927446956
 11
18.8198579226
 21
66.054156314
  0
LINE
  5
229
100
AcDbEntity
  8
0
100
AcDbLine
 62
7
  6
BYLAYER
 10
20.7888401237
 20
63.8626909281
 11
20.7888401237
 21
63.5606878069
  0
LINE
  5
22A
100
AcDbEntity
  8
0
100
AcDbLine
 62
7
  6
BYLAYER
 10
21.6482968232
 20
64.4211932959
 11
21.6482968232
 21
58.2597816776
  0
LINE
  5
22B
100
AcDbEntity
  8
0
100
AcDbLine
 62
7
  6
BYLAYER
 10
23.3843685337
 20
68.8151726225
 11
23.3843685337
 21
66.2400111994
  0
LINE
  5
22C
100
AcDbEntity
  8
0
100
AcDbLine
 62
7
  6
BYLAYER
 10
29.1838758988
 20
45.6272542002
 11
40.4975372942
 21
52.1591606622
  0
LINE
  5
22D
100
AcDbEntity
  8
0
100
AcDbLine
 62
7
  6
BYLAYER
 10
27.7340607193
 20
68.3635548988
 11
27.7340607193
 21
70.7754186602
  0
LINE
  5
22E
100
AcDbEntity
  8
0
100
AcDbLine
 62
7
  6
BYLAYER
 10
29.1838758988
 20
45.6272542002
 11
29.1838758988
 21
10.5176502637
  0
LWPOLYLINE
  5
22F
100
AcDbEntity
  8
0
100
AcDbPolyline
 62
7
  6
BYLAYER
 90
3
 70
0
 10
34.7271748537
 20
11.8014616081
 10
34.9967379401
 20
10.3922422769
 10
35.3802588468
 20
9.9508848051
  0
LINE
  5
230
100
AcDbEntity
  8
0
100
AcDbLine
 62
7
  6
BYLAYER
 10
30.2340607193
 20
57.8746804696
 11
30.2340607193
 21
67.5470524816
  0
LWPOLYLINE
  5
231
100
AcDbEntity
  8
0
100
AcDbPolyline
 62
7
  6
BYLAYER
 90
4
 70
0
 10
31.9840607193
 20
57.466429261
 10
31.9757897838
 20
57.6730911659
 10
31.3237001669
 20
59.273750697
 10
30.2340607193
 20
60.192107464
  0
LINE
  5
232
100
AcDbEntity
  8
0
100
AcDbLine
 62
7
  6
BYLAYER
 10
31.9840607193
 20
56.4352654689
 11
31.9840607193
 21
57.466429261
  0
LINE
  5
233
100
AcDbEntity
  8
0
100
AcDbLine
 62
7
  6
BYLAYER
 10
44.1440304046
 20
14.7839103344
 11
43.8799839621
 21
15.4631039158
  0
LINE
  5
234
100
AcDbEntity
  8
0
100
AcDbLine
 62
7
  6
BYLAYER
 10
27.7340113485
 20
70.7754186599
 11
27.6293479154
 21
71.2659979817
  0
LWPOLYLINE
  5
235
100
AcDbEntity
  8
0
100
AcDbPolyline
 62
7
  6
BYLAYER
 90
10
 70
0
 10
19.1075578995
 20
54.914910354
 10
21.3051964482
 20
54.0457132793
 10
23.8898010368
 20
53.6936754028
 10
26.5352475623
 20
53.9054002713
 10
28.8672547238
 20
54.6552102598
 10
29.8124255028
 20
55.2011326007
 10
31.1071219502
 20
56.5426091611
 10
31.4766478277
 20
58.0638370922
 10
30.8713893842
 20
59.5587320449
 10
30.2340607193
 20
60.0968827502
  0
LINE
  5
236
100
AcDbEntity
  8
0
100
AcDbLine
 62
7
  6
BYLAYER
 10
40.4975372942
 20
19.1594514855
 11
40.4975372942
 21
52.1591606622
  0
LINE
  5
237
100
AcDbEntity
  8
0
100
AcDbLine
 62
7
  6
BYLAYER
 10
20.0613124184
 20
64.2827197423
 11
21.6482968232
 21
63.3664945968
  0
LINE
  5
238
100
AcDbEntity
  8
0
100
AcDbLine
 62
7
  6
BYLAYER
 10
27.8547297511
 20
64.7846265355
 11
27.5210182747
 21
64.9411382242
  0
LINE
  5
239
100
AcDbEntity
  8
0
100
AcDbLine
 62
7
  6
BYLAYER
 10
26.5661836285
 20
65.8100838304
 11
25.4319848933
 21
66.4649001135
  0
LINE
  5
23A
100
AcDbEntity
  8
0
100
AcDbLine
 62
7
  6
BYLAYER
 10
27.5226840466
 20
67.6719588783
 11
28.6568850533
 21
67.017143585
  0
LINE
  5
23B
100
AcDbEntity
  8
0
100
AcDbLine
 62
7
  6
BYLAYER
 10
30.8597514715
 20
11.4852117011
 11
29.1838758988
 21
10.5176502637
  0
LINE
  5
23C
100
AcDbEntity
  8
0
100
AcDbLine
 62
7
  6
BYLAYER
 10
31.9243992017
 20
10.4088301483
 11
28.1483160808
 21
8.2287205556
  0
LINE
  5
23D
100
AcDbEntity
  8
0
100
AcDbLine
 62
7
  6
BYLAYER
 10
25.8612140096
 20
74.3286712419
 11
28.4068090202
 21
72.8590045256
  0
ARC
  5
23E
100
AcDbEntity
  8
0
100
AcDbCircle
 62
7
  6
BYLAYER
 10
176.0133530922
 20
-28.1502454045
 40
179.99456064
100
AcDbArc
 50
148.5822431215
 51
149.0492348599
  0
ARC
  5
23F
100
AcDbEntity
  8
0
100
AcDbCircle
 62
7
  6
BYLAYER
 10
43.8452089082
 20
35.8972381237
 40
28.1417171793
100
AcDbArc
 50
244.1297053314
 51
253.8291042004
  0
ARC
  5
240
100
AcDbEntity
  8
0
100
AcDbCircle
 62
7
  6
BYLAYER
 10
21.9742684908
 20
-1.9931788667
 40
28.1201654737
100
AcDbArc
 50
46.1695814842
 51
55.0825199613
  0
ARC
  5
241
100
AcDbEntity
  8
0
100
AcDbCircle
 62
7
  6
BYLAYER
 10
43.6679227733
 20
35.3035173492
 40
27.5220581902
100
AcDbArc
 50
255.2846226464
 51
257.2463819162
  0
ARC
  5
242
100
AcDbEntity
  8
0
100
AcDbCircle
 62
7
  6
BYLAYER
 10
22.4138808691
 20
-1.5322189946
 40
27.4831058302
100
AcDbArc
 50
42.7533502534
 51
44.7178902364
  0
ARC
  5
243
100
AcDbEntity
  8
0
100
AcDbCircle
 62
7
  6
BYLAYER
 10
43.576983059
 20
34.88263
 40
27.0914198658
100
AcDbArc
 50
258.693062424
 51
260.3164252755
  0
ARC
  5
244
100
AcDbEntity
  8
0
100
AcDbCircle
 62
7
  6
BYLAYER
 10
22.735185508
 20
-1.2439598319
 40
27.0514083485
100
AcDbArc
 50
39.6834966189
 51
41.3092607341
  0
ARC
  5
245
100
AcDbEntity
  8
0
100
AcDbCircle
 62
7
  6
BYLAYER
 10
36.5701147307
 20
10.8205394872
 40
2.031022674
100
AcDbArc
 50
253.9226662552
 51
261.7669462133
  0
ARC
  5
246
100
AcDbEntity
  8
0
100
AcDbCircle
 62
7
  6
BYLAYER
 10
40.0654066395
 20
16.8536983062
 40
1.9955722701
100
AcDbArc
 50
38.8230371455
 51
46.1367346408
  0
ARC
  5
247
100
AcDbEntity
  8
0
100
AcDbCircle
 62
7
  6
BYLAYER
 10
25.7702861217
 20
67.9585057965
 40
0.9386527477
100
AcDbArc
 50
359.8268535194
 51
359.9999148509
  0
SPLINE
  5
248
100
AcDbEntity
  8
0
100
AcDbSpline
 62
7
  6
BYLAYER
 70
0
 71
3
 72
13
 73
9
 74
0
 42
0.0000001
 43
0.0000001
 44
0.0000000001
 40
0.0
 40
0.0
 40
0.0
 40
0.0
 40
0.1176943044
 40
0.2361795575
 40
0.3561499736
 40
0.478266025
 40
0.7311285392
 40
1.0
 40
1.0
 40
1.0
 40
1.0
 10
26.1579181516
 20
66.3054491842
 30
0.0
 10
26.1382741185
 20
66.3167908872
 30
0.0
 10
26.1003989899
 20
66.3423551966
 30
0.0
 10
26.0492724705
 20
66.3884701163
 30
0.0
 10
26.0044563047
 20
66.4418788791
 30
0.0
 10
25.9535216838
 20
66.5228423401
 30
0.0
 10
25.90956456
 20
66.6404869468
 30
0.0
 10
25.8986750015
 20
66.7415175859
 30
0.0
 10
25.8986750015
 20
66.7933368627
 30
0.0
  0
SPLINE
  5
249
100
AcDbEntity
  8
0
100
AcDbSpline
 62
7
  6
BYLAYER
 70
0
 71
3
 72
11
 73
7
 74
0
 42
0.0000001
 43
0.0000001
 44
0.0000000001
 40
0.0
 40
0.0
 40
0.0
 40
0.0
 40
0.2319940834
 40
0.4774101801
 40
0.7342392388
 40
1.0
 40
1.0
 40
1.0
 40
1.0
 10
18.8600609582
 20
66.9378793997
 30
0.0
 10
18.8600609582
 20
67.1524115704
 30
0.0
 10
18.8859307098
 20
67.5941386583
 30
0.0
 10
18.9934365505
 20
68.2655140012
 30
0.0
 10
19.1689059078
 20
68.9546006106
 30
0.0
 10
19.3271072598
 20
69.4118843815
 30
0.0
 10
19.4164679396
 20
69.6408195371
 30
0.0
  0
SPLINE
  5
24A
100
AcDbEntity
  8
0
100
AcDbSpline
 62
7
  6
BYLAYER
 70
0
 71
3
 72
26
 73
22
 74
0
 42
0.0000001
 43
0.0000001
 44
0.0000000001
 40
0.0
 40
0.0
 40
0.0
 40
0.0
 40
0.0743031426
 40
0.1494268188
 40
0.2247209244
 40
0.2995312891
 40
0.3732163869
 40
0.445165056
 40
0.5148149054
 40
0.5816721961
 40
0.6453342409
 40
0.7055147125
 40
0.7620729009
 40
0.8150472238
 40
0.8646907589
 40
0.8884296327
 40
0.9115442611
 40
0.9341369559
 40
0.9563235154
 40
0.9782323889
 40
1.0
 40
1.0
 40
1.0
 40
1.0
 10
19.4164679396
 20
69.6408195371
 30
0.0
 10
19.4957161242
 20
69.8438472616
 30
0.0
 10
19.6693256607
 20
70.2467307456
 30
0.0
 10
19.9701335593
 20
70.8337528392
 30
0.0
 10
20.3096694131
 20
71.401027339
 30
0.0
 10
20.6835201392
 20
71.9411748955
 30
0.0
 10
21.0868565263
 20
72.4472179596
 30
0.0
 10
21.5144693561
 20
72.9126123512
 30
0.0
 10
21.960849725
 20
73.3313520752
 30
0.0
 10
22.4202689344
 20
73.6980411308
 30
0.0
 10
22.8868733621
 20
74.007954214
 30
0.0
 10
23.3547598892
 20
74.2570807351
 30
0.0
 10
23.8181144762
 20
74.4421333483
 30
0.0
 10
24.2711022515
 20
74.5605421817
 30
0.0
 10
24.6409357133
 20
74.6026616906
 30
0.0
 10
24.924261194
 20
74.5999794244
 30
0.0
 10
25.1273087656
 20
74.5806309191
 30
0.0
 10
25.3233372809
 20
74.5439856194
 30
0.0
 10
25.5116902157
 20
74.490094866
 30
0.0
 10
25.691707699
 20
74.419179254
 30
0.0
 10
25.8059177591
 20
74.3605929561
 30
0.0
 10
25.8612117138
 20
74.3286672706
 30
0.0
  0
SPLINE
  5
24B
100
AcDbEntity
  8
0
100
AcDbSpline
 62
7
  6
BYLAYER
 70
0
 71
3
 72
9
 73
5
 74
0
 42
0.0000001
 43
0.0000001
 44
0.0000000001
 40
0.0
 40
0.0
 40
0.0
 40
0.0
 40
0.5119374983
 40
1.0
 40
1.0
 40
1.0
 40
1.0
 10
29.5128347779
 20
69.1342879164
 30
0.0
 10
29.5437781883
 20
69.3150596885
 30
0.0
 10
29.5909220959
 20
69.6706158253
 30
0.0
 10
29.6080604804
 20
70.0289970537
 30
0.0
 10
29.6080604804
 20
70.2038448683
 30
0.0
  0
SPLINE
  5
24C
100
AcDbEntity
  8
0
100
AcDbSpline
 62
7
  6
BYLAYER
 70
0
 71
3
 72
16
 73
12
 74
0
 42
0.0000001
 43
0.0000001
 44
0.0000000001
 40
0.0
 40
0.0
 40
0.0
 40
0.0
 40
0.148575302
 40
0.2894789516
 40
0.4226813857
 40
0.5485903274
 40
0.6679368958
 40
0.7818627789
 40
0.8919013841
 40
0.9460798104
 40
1.0
 40
1.0
 40
1.0
 40
1.0
 10
29.6080604804
 20
70.2038448683
 30
0.0
 10
29.6080604804
 20
70.3549007514
 30
0.0
 10
29.5958827783
 20
70.649415798
 30
0.0
 10
29.5379095257
 20
71.0759084737
 30
0.0
 10
29.4410588285
 20
71.471765462
 30
0.0
 10
29.3061184453
 20
71.8331555697
 30
0.0
 10
29.134067826
 20
72.1566010471
 30
0.0
 10
28.9263554492
 20
72.4387439112
 30
0.0
 10
28.723780225
 20
72.6380494754
 30
0.0
 10
28.5471701729
 20
72.7725448423
 30
0.0
 10
28.4542820422
 20
72.8315893601
 30
0.0
 10
28.406806803
 20
72.8590006926
 30
0.0
  0
SPLINE
  5
24D
100
AcDbEntity
  8
0
100
AcDbSpline
 62
7
  6
BYLAYER
 70
0
 71
3
 72
16
 73
12
 74
0
 42
0.0000001
 43
0.0000001
 44
0.0000000001
 40
0.0
 40
0.0
 40
0.0
 40
0.0
 40
0.0539199744
 40
0.1080981989
 40
0.2181364773
 40
0.3320622057
 40
0.4514088167
 40
0.5773178386
 40
0.7105204971
 40
0.8514246532
 40
1.0
 40
1.0
 40
1.0
 40
1.0
 10
20.0613147142
 20
64.2827237136
 30
0.0
 10
20.0138396546
 20
64.3101349167
 30
0.0
 10
19.9209517577
 20
64.3691790118
 30
0.0
 10
19.7443424116
 20
64.5036740494
 30
0.0
 10
19.5417673144
 20
64.7029787072
 30
0.0
 10
19.3340551398
 20
64.985121189
 30
0.0
 10
19.1620042851
 20
65.3085664601
 30
0.0
 10
19.0270631229
 20
65.6699566532
 30
0.0
 10
18.9302121546
 20
66.0658144371
 30
0.0
 10
18.8722388335
 20
66.4923078816
 30
0.0
 10
18.8600609582
 20
66.7868234751
 30
0.0
 10
18.8600609582
 20
66.9378793997
 30
0.0
  0
SPLINE
  5
24E
100
AcDbEntity
  8
0
100
AcDbSpline
 62
7
  6
BYLAYER
 70
0
 71
3
 72
25
 73
21
 74
0
 42
0.0000001
 43
0.0000001
 44
0.0000000001
 40
0.0
 40
0.0
 40
0.0
 40
0.0
 40
0.0635490894
 40
0.1304433709
 40
0.2004327514
 40
0.2730939997
 40
0.347718689
 40
0.4234196704
 40
0.4991407517
 40
0.573653651
 40
0.64562953
 40
0.713704232
 40
0.7765936805
 40
0.8333170605
 40
0.8833642882
 40
0.9059185829
 40
0.9269376407
 40
0.9650202936
 40
0.9827271764
 40
1.0
 40
1.0
 40
1.0
 40
1.0
 10
25.8986750015
 20
66.7933368627
 30
0.0
 10
25.8986750015
 20
66.8346400835
 30
0.0
 10
25.9059780966
 20
66.9195284528
 30
0.0
 10
25.9361812954
 20
67.0466422431
 30
0.0
 10
25.9845716624
 20
67.1743089698
 30
0.0
 10
26.0492275478
 20
67.300139472
 30
0.0
 10
26.1277401532
 20
67.4221956923
 30
0.0
 10
26.2175629795
 20
67.5386572759
 30
0.0
 10
26.3159854946
 20
67.647815417
 30
0.0
 10
26.4202121896
 20
67.7479615873
 30
0.0
 10
26.5273455832
 20
67.8374150815
 30
0.0
 10
26.6345284007
 20
67.9144995549
 30
0.0
 10
26.7391367541
 20
67.9775633559
 30
0.0
 10
26.8387751939
 20
68.0252408136
 30
0.0
 10
26.9187359269
 20
68.0521705874
 30
0.0
 10
26.9784911158
 20
68.0641378214
 30
0.0
 10
27.0313268272
 20
68.069518719
 30
0.0
 10
27.0818205549
 20
68.0663503862
 30
0.0
 10
27.127535953
 20
68.0529213031
 30
0.0
 10
27.1481827523
 20
68.0431298813
 30
0.0
 10
27.1579049433
 20
68.0375165439
 30
0.0
  0
SPLINE
  5
24F
100
AcDbEntity
  8
0
100
AcDbSpline
 62
7
  6
BYLAYER
 70
0
 71
3
 72
25
 73
21
 74
0
 42
0.0000001
 43
0.0000001
 44
0.0000000001
 40
0.0
 40
0.0
 40
0.0
 40
0.0
 40
0.0745179905
 40
0.1498079058
 40
0.225180692
 40
0.3000181855
 40
0.3736826258
 40
0.4455736081
 40
0.5151421136
 40
0.5819047279
 40
0.6454706718
 40
0.705564901
 40
0.7620553671
 40
0.8149875789
 40
0.8646193761
 40
0.9114486956
 40
0.934060049
 40
0.9562704864
 40
0.9782053396
 40
1.0
 40
1.0
 40
1.0
 40
1.0
 10
23.3843685337
 20
68.8151726225
 30
0.0
 10
23.5137961212
 20
68.7964725098
 30
0.0
 10
23.7753610216
 20
68.7678049285
 30
0.0
 10
24.1704295831
 20
68.7507324707
 30
0.0
 10
24.5663485434
 20
68.7595151554
 30
0.0
 10
24.9579970697
 20
68.7940064949
 30
0.0
 10
25.3404225769
 20
68.8537863528
 30
0.0
 10
25.7087437203
 20
68.9380855551
 30
0.0
 10
26.0582798122
 20
69.0458338678
 30
0.0
 10
26.3845939918
 20
69.1756917733
 30
0.0
 10
26.6835620815
 20
69.3260321747
 30
0.0
 10
26.9514161962
 20
69.4950098617
 30
0.0
 10
27.1847625612
 20
69.6805984332
 30
0.0
 10
27.3806062192
 20
69.8806410445
 30
0.0
 10
27.5363194208
 20
70.0927490135
 30
0.0
 10
27.6318743664
 20
70.279845153
 30
0.0
 10
27.6850050674
 20
70.4318640009
 30
0.0
 10
27.7132695522
 20
70.5457416134
 30
0.0
 10
27.7302769057
 20
70.660376932
 30
0.0
 10
27.7340599434
 20
70.7371712353
 30
0.0
 10
27.7340601536
 20
70.7754186598
 30
0.0
  0
SPLINE
  5
250
100
AcDbEntity
  8
0
100
AcDbSpline
 62
7
  6
BYLAYER
 70
0
 71
3
 72
17
 73
13
 74
0
 42
0.0000001
 43
0.0000001
 44
0.0000000001
 40
0.0
 40
0.0
 40
0.0
 40
0.0
 40
0.1088951953
 40
0.1676538637
 40
0.2289100673
 40
0.3574000966
 40
0.4910565161
 40
0.6259792593
 40
0.7581608146
 40
0.8838352058
 40
0.9433013496
 40
1.0
 40
1.0
 40
1.0
 40
1.0
 10
25.910167956
 20
66.6877269161
 30
0.0
 10
25.9625483824
 20
66.7100570611
 30
0.0
 10
26.0395406754
 20
66.7533834943
 30
0.0
 10
26.1359259856
 20
66.8244435734
 30
0.0
 10
26.2343521729
 20
66.9094792699
 30
0.0
 10
26.3499685314
 20
67.0336576582
 30
0.0
 10
26.4713334508
 20
67.2027443832
 30
0.0
 10
26.5722791979
 20
67.386990025
 30
0.0
 10
26.6483734741
 20
67.5783117665
 30
0.0
 10
26.6891322574
 20
67.7397969643
 30
0.0
 10
26.7058079919
 20
67.8652612178
 30
0.0
 10
26.7088450323
 20
67.9260214743
 30
0.0
 10
26.7089345833
 20
67.9556692146
 30
0.0
  0
SPLINE
  5
251
100
AcDbEntity
  8
0
100
AcDbSpline
 62
7
  6
BYLAYER
 70
0
 71
3
 72
23
 73
19
 74
0
 42
0.0000001
 43
0.0000001
 44
0.0000000001
 40
0.0
 40
0.0
 40
0.0
 40
0.0
 40
0.0615252882
 40
0.1276369731
 40
0.196998491
 40
0.2683340376
 40
0.3403911441
 40
0.4120734555
 40
0.482445894
 40
0.5507234779
 40
0.6163203439
 40
0.6788614462
 40
0.7382111789
 40
0.7945367723
 40
0.8482545464
 40
0.8999488715
 40
0.9502961541
 40
1.0
 40
1.0
 40
1.0
 40
1.0
 10
27.312882676
 20
67.6098251704
 30
0.0
 10
27.312882676
 20
67.5677341292
 30
0.0
 10
27.3088136252
 20
67.4803905602
 30
0.0
 10
27.2923813838
 20
67.3465164813
 30
0.0
 10
27.2652487067
 20
67.2075383126
 30
0.0
 10
27.2273507778
 20
67.0668799377
 30
0.0
 10
27.1786457888
 20
66.9278825776
 30
0.0
 10
27.1191529181
 20
66.7938356614
 30
0.0
 10
27.0490487838
 20
66.6679195107
 30
0.0
 10
26.9687282115
 20
66.5532375229
 30
0.0
 10
26.8790481522
 20
66.452698249
 30
0.0
 10
26.7813000686
 20
66.368969194
 30
0.0
 10
26.6772312435
 20
66.3044276109
 30
0.0
 10
26.5692246852
 20
66.2607461435
 30
0.0
 10
26.4600682706
 20
66.2388359498
 30
0.0
 10
26.3527644069
 20
66.2388964844
 30
0.0
 10
26.2504677345
 20
66.260416667
 30
0.0
 10
26.1873660684
 20
66.2884470989
 30
0.0
 10
26.1579181516
 20
66.3054491842
 30
0.0
  0
SPLINE
  5
252
100
AcDbEntity
  8
0
100
AcDbSpline
 62
7
  6
BYLAYER
 70
0
 71
3
 72
32
 73
28
 74
0
 42
0.0000001
 43
0.0000001
 44
0.0000000001
 40
0.0
 40
0.0
 40
0.0
 40
0.0
 40
0.0213267022
 40
0.042881774
 40
0.0648816423
 40
0.0875206066
 40
0.1109643488
 40
0.1353449792
 40
0.1607619537
 40
0.1872807508
 40
0.2149379933
 40
0.243741472
 40
0.2736759312
 40
0.3047035696
 40
0.3367687619
 40
0.3697991811
 40
0.4383791576
 40
0.5096475019
 40
0.5826532004
 40
0.6563660384
 40
0.7297247753
 40
0.8016830811
 40
0.8712590944
 40
0.9048844577
 40
0.9376033456
 40
0.9693374488
 40
1.0
 40
1.0
 40
1.0
 40
1.0
 10
28.406806803
 20
72.8590006926
 30
0.0
 10
28.3355511495
 20
72.9001424003
 30
0.0
 10
28.186796859
 20
72.9737545448
 30
0.0
 10
27.9496299139
 20
73.0557410219
 30
0.0
 10
27.6992589308
 20
73.1091356991
 30
0.0
 10
27.4371847439
 20
73.1337217989
 30
0.0
 10
27.1648630632
 20
73.1294176095
 30
0.0
 10
26.8837828181
 20
73.0963760322
 30
0.0
 10
26.5954586615
 20
73.0347964536
 30
0.0
 10
26.3014109855
 20
72.9451121684
 30
0.0
 10
26.0032123689
 20
72.8277976267
 30
0.0
 10
25.7024272686
 20
72.683544475
 30
0.0
 10
25.4006680893
 20
72.5131131043
 30
0.0
 10
25.0995326552
 20
72.31744913
 30
0.0
 10
24.800629482
 20
72.0975945536
 30
0.0
 10
24.4022723088
 20
71.7697110583
 30
0.0
 10
23.9210185343
 20
71.306197803
 30
0.0
 10
23.3846252518
 20
70.6829577617
 30
0.0
 10
22.8934964093
 20
69.998949586
 30
0.0
 10
22.4581417576
 20
69.2688086895
 30
0.0
 10
22.087831028
 20
68.5080777733
 30
0.0
 10
21.7904826532
 20
67.7330407659
 30
0.0
 10
21.6066668581
 20
67.0815602633
 30
0.0
 10
21.502608011
 20
66.5673964343
 30
0.0
 10
21.4470620231
 20
66.1929067236
 30
0.0
 10
21.4134727972
 20
65.8272964662
 30
0.0
 10
21.4056559687
 20
65.5865111675
 30
0.0
 10
21.4056559687
 20
65.4682126834
 30
0.0
  0
SPLINE
  5
253
100
AcDbEntity
  8
0
100
AcDbSpline
 62
7
  6
BYLAYER
 70
0
 71
3
 72
10
 73
6
 74
0
 42
0.0000001
 43
0.0000001
 44
0.0000000001
 40
0.0
 40
0.0
 40
0.0
 40
0.0
 40
0.262901178
 40
0.5173705793
 40
1.0
 40
1.0
 40
1.0
 40
1.0
 10
21.4056559687
 20
65.4682126834
 30
0.0
 10
21.4056559687
 20
65.3708997623
 30
0.0
 10
21.4107794507
 20
65.1793262109
 30
0.0
 10
21.4419864666
 20
64.8103976199
 30
0.0
 10
21.4897909984
 20
64.5407065706
 30
0.0
 10
21.5338165409
 20
64.3675710151
 30
0.0
  0
SPLINE
  5
254
100
AcDbEntity
  8
0
100
AcDbSpline
 62
7
  6
BYLAYER
 70
0
 71
3
 72
15
 73
11
 74
0
 42
0.0000001
 43
0.0000001
 44
0.0000000001
 40
0.0
 40
0.0
 40
0.0
 40
0.0
 40
0.0947925164
 40
0.1935304035
 40
0.2996673128
 40
0.41575809
 40
0.5434469042
 40
0.6834727259
 40
0.8359236696
 40
1.0
 40
1.0
 40
1.0
 40
1.0
 10
27.1579049433
 20
68.0375165439
 30
0.0
 10
27.1708863516
 20
68.03002142
 30
0.0
 10
27.1958008191
 20
68.0117834809
 30
0.0
 10
27.227640074
 20
67.976300997
 30
0.0
 10
27.2543035751
 20
67.9328378882
 30
0.0
 10
27.2759086826
 20
67.8817152435
 30
0.0
 10
27.292573294
 20
67.8232297923
 30
0.0
 10
27.3044016628
 20
67.7577598665
 30
0.0
 10
27.3114317143
 20
67.6858427705
 30
0.0
 10
27.312882676
 20
67.6357709944
 30
0.0
 10
27.312882676
 20
67.6098251704
 30
0.0
  0
SPLINE
  5
255
100
AcDbEntity
  8
0
100
AcDbSpline
 62
7
  6
BYLAYER
 70
0
 71
3
 72
9
 73
5
 74
0
 42
0.0000001
 43
0.0000001
 44
0.0000000001
 40
0.0
 40
0.0
 40
0.0
 40
0.0
 40
0.5044627309
 40
1.0
 40
1.0
 40
1.0
 40
1.0
 10
43.0550517789
 20
16.6132985615
 30
0.0
 10
42.9868900086
 20
16.6908571778
 30
0.0
 10
42.8381839223
 20
16.8333027799
 30
0.0
 10
42.6655983584
 20
16.9458570052
 30
0.0
 10
42.5758090435
 20
16.9930302931
 30
0.0
  0
SPLINE
  5
256
100
AcDbEntity
  8
0
100
AcDbSpline
 62
7
  6
BYLAYER
 70
0
 71
3
 72
14
 73
10
 74
0
 42
0.0000001
 43
0.0000001
 44
0.0000000001
 40
0.0
 40
0.0
 40
0.0
 40
0.0
 40
0.107860665
 40
0.21808262
 40
0.3323587991
 40
0.4520477929
 40
0.5781857187
 40
0.7114756878
 40
1.0
 40
1.0
 40
1.0
 40
1.0
 10
42.5758090435
 20
16.9930302931
 30
0.0
 10
42.4962118127
 20
17.034848889
 30
0.0
 10
42.3279263211
 20
17.106132907
 30
0.0
 10
42.0576825404
 20
17.171961899
 30
0.0
 10
41.7708125613
 20
17.1969132856
 30
0.0
 10
41.4701724646
 20
17.1811176343
 30
0.0
 10
41.1584023106
 20
17.1248065054
 30
0.0
 10
40.7202181236
 20
16.9932811428
 30
0.0
 10
40.4006351729
 20
16.8403492891
 30
0.0
 10
40.1923407877
 20
16.7200911885
 30
0.0
  0
SPLINE
  5
257
100
AcDbEntity
  8
0
100
AcDbSpline
 62
7
  6
BYLAYER
 70
0
 71
3
 72
9
 73
5
 74
0
 42
0.0000001
 43
0.0000001
 44
0.0000000001
 40
0.0
 40
0.0
 40
0.0
 40
0.0
 40
0.4861324405
 40
1.0
 40
1.0
 40
1.0
 40
1.0
 10
43.5534988242
 20
16.0296074588
 30
0.0
 10
43.621362591
 20
15.9477940935
 30
0.0
 10
43.7457704819
 20
15.7664985509
 30
0.0
 10
43.8392728265
 20
15.5678299527
 30
0.0
 10
43.879983794
 20
15.4631037483
 30
0.0
  0
SPLINE
  5
258
100
AcDbEntity
  8
0
100
AcDbSpline
 62
7
  6
BYLAYER
 70
0
 71
3
 72
14
 73
10
 74
0
 42
0.0000001
 43
0.0000001
 44
0.0000000001
 40
0.0
 40
0.0
 40
0.0
 40
0.0
 40
0.2877357458
 40
0.4209843318
 40
0.5472817759
 40
0.6672554172
 40
0.7818310707
 40
0.8922331234
 40
1.0
 40
1.0
 40
1.0
 40
1.0
 10
35.124659229
 20
11.3081850931
 30
0.0
 10
35.1246592301
 20
11.052863515
 30
0.0
 10
35.1529035194
 20
10.6777253167
 30
0.0
 10
35.2610445865
 20
10.2035675828
 30
0.0
 10
35.3712833416
 20
9.8845477072
 30
0.0
 10
35.5119517429
 20
9.5959627076
 30
0.0
 10
35.6819645964
 20
9.3402140202
 30
0.0
 10
35.8800910843
 20
9.1198680179
 30
0.0
 10
36.0309589287
 20
8.9970406327
 30
0.0
 10
36.1097319421
 20
8.9428255895
 30
0.0
  0
SPLINE
  5
259
100
AcDbEntity
  8
0
100
AcDbSpline
 62
7
  6
BYLAYER
 70
0
 71
3
 72
9
 73
5
 74
0
 42
0.0000001
 43
0.0000001
 44
0.0000000001
 40
0.0
 40
0.0
 40
0.0
 40
0.0
 40
0.4972313911
 40
1.0
 40
1.0
 40
1.0
 40
1.0
 10
36.1097319421
 20
8.9428255895
 30
0.0
 10
36.1951541842
 20
8.8840342554
 30
0.0
 10
36.3777021606
 20
8.7806903963
 30
0.0
 10
36.5754252555
 20
8.7108343431
 30
0.0
 10
36.6768379959
 20
8.6841946839
 30
0.0
  0
SPLINE
  5
25A
100
AcDbEntity
  8
0
100
AcDbSpline
 62
7
  6
BYLAYER
 70
0
 71
3
 72
9
 73
5
 74
0
 42
0.0000001
 43
0.0000001
 44
0.0000000001
 40
0.0
 40
0.0
 40
0.0
 40
0.0
 40
0.2544651082
 40
1.0
 40
1.0
 40
1.0
 40
1.0
 10
37.9309536728
 20
8.4148386058
 30
0.0
 10
37.9019737425
 20
8.4162655676
 30
0.0
 10
37.788219797
 20
8.4241993024
 30
0.0
 10
37.6750920686
 20
8.4417063619
 30
0.0
 10
37.5921815314
 20
8.4604761947
 30
0.0
  0
SPLINE
  5
25B
100
AcDbEntity
  8
0
100
AcDbSpline
 62
7
  6
BYLAYER
 70
0
 71
3
 72
15
 73
11
 74
0
 42
0.0000001
 43
0.0000001
 44
0.0000000001
 40
0.0
 40
0.0
 40
0.0
 40
0.0
 40
0.1141521029
 40
0.2373134618
 40
0.3669493111
 40
0.4999646085
 40
0.6329899355
 40
0.7626477792
 40
0.8858359305
 40
1.0
 40
1.0
 40
1.0
 40
1.0
 10
38.8943842517
 20
17.8375766085
 30
0.0
 10
38.6363212072
 20
17.6885847309
 30
0.0
 10
38.1266147679
 20
17.3312880127
 30
0.0
 10
37.4252968517
 20
16.6751584502
 30
0.0
 10
36.7789910936
 20
15.8995811688
 30
0.0
 10
36.2120196977
 20
15.0336082041
 30
0.0
 10
35.7454838812
 20
14.1095798642
 30
0.0
 10
35.3968678533
 20
13.1619456128
 30
0.0
 10
35.1792528657
 20
12.2263689546
 30
0.0
 10
35.1246592302
 20
11.6062014221
 30
0.0
 10
35.124659229
 20
11.3081850931
 30
0.0
  0
SPLINE
  5
25C
100
AcDbEntity
  8
0
100
AcDbSpline
 62
7
  6
BYLAYER
 70
0
 71
3
 72
9
 73
5
 74
0
 42
0.0000001
 43
0.0000001
 44
0.0000000001
 40
0.0
 40
0.0
 40
0.0
 40
0.0
 40
0.4882603756
 40
1.0
 40
1.0
 40
1.0
 40
1.0
 10
31.4583140405
 20
58.9758794013
 30
0.0
 10
33.0243271301
 20
58.0017206125
 30
0.0
 10
36.1365484501
 20
55.850961993
 30
0.0
 10
39.0542247313
 20
53.4449386083
 30
0.0
 10
40.4975372942
 20
52.1591606622
 30
0.0
  0
SPLINE
  5
25D
100
AcDbEntity
  8
0
100
AcDbSpline
 62
7
  6
BYLAYER
 70
0
 71
3
 72
11
 73
7
 74
0
 42
0.0000001
 43
0.0000001
 44
0.0000000001
 40
0.0
 40
0.0
 40
0.0
 40
0.0
 40
0.2366435348
 40
0.4789981214
 40
0.732233092
 40
1.0
 40
1.0
 40
1.0
 40
1.0
 10
30.2340385527
 20
67.5470524222
 30
0.0
 10
30.2340404872
 20
67.6759976278
 30
0.0
 10
30.2085069011
 20
67.9376648539
 30
0.0
 10
30.0947487484
 20
68.3223511345
 30
0.0
 10
29.90761606
 20
68.6959734548
 30
0.0
 10
29.7412637972
 20
68.9275255624
 30
0.0
 10
29.6482635159
 20
69.0399486492
 30
0.0
  0
SPLINE
  5
25E
100
AcDbEntity
  8
0
100
AcDbSpline
 62
7
  6
BYLAYER
 70
0
 71
3
 72
15
 73
11
 74
0
 42
0.0000001
 43
0.0000001
 44
0.0000000001
 40
0.0
 40
0.0
 40
0.0
 40
0.0
 40
0.1485251574
 40
0.289499659
 40
0.4227398928
 40
0.5486431049
 40
0.667993794
 40
0.7819381439
 40
0.8919874623
 40
1.0
 40
1.0
 40
1.0
 40
1.0
 10
25.648327273
 20
8.4763419506
 30
0.0
 10
25.7610496247
 20
8.4112631428
 30
0.0
 10
25.986183603
 20
8.2934588748
 30
0.0
 10
26.3295580774
 20
8.1528438955
 30
0.0
 10
26.6668892469
 20
8.0545292093
 30
0.0
 10
26.9948508926
 20
7.999493905
 30
0.0
 10
27.3104452499
 20
7.9885789311
 30
0.0
 10
27.6106651806
 20
8.0219982175
 30
0.0
 10
27.8922756767
 20
8.0999279336
 30
0.0
 10
28.0663366282
 20
8.1813998455
 30
0.0
 10
28.1483118128
 20
8.228727948
 30
0.0
  0
SPLINE
  5
25F
100
AcDbEntity
  8
0
100
AcDbSpline
 62
7
  6
BYLAYER
 70
0
 71
3
 72
14
 73
10
 74
0
 42
0.0000001
 43
0.0000001
 44
0.0000000001
 40
0.0
 40
0.0
 40
0.0
 40
0.0
 40
0.2892446615
 40
0.4225664807
 40
0.5485147684
 40
0.6678910929
 40
0.7818650067
 40
0.8919547961
 40
1.0
 40
1.0
 40
1.0
 40
1.0
 10
14.3345716707
 20
47.6683939688
 30
0.0
 10
14.3345716707
 20
47.4656705959
 30
0.0
 10
14.3108672063
 20
47.1680559356
 30
0.0
 10
14.219417464
 20
46.7939768783
 30
0.0
 10
14.1263203389
 20
46.5447042905
 30
0.0
 10
14.0076755346
 20
46.3216784437
 30
0.0
 10
13.8643658215
 20
46.1271077825
 30
0.0
 10
13.6978103367
 20
45.9630872676
 30
0.0
 10
13.571690831
 20
45.8751364346
 30
0.0
 10
13.5061099454
 20
45.8372742275
 30
0.0
  0
SPLINE
  5
260
100
AcDbEntity
  8
0
100
AcDbSpline
 62
7
  6
BYLAYER
 70
0
 71
3
 72
14
 73
10
 74
0
 42
0.0000001
 43
0.0000001
 44
0.0000000001
 40
0.0
 40
0.0
 40
0.0
 40
0.0
 40
0.2892446615
 40
0.4225664807
 40
0.5485147684
 40
0.6678910929
 40
0.7818650067
 40
0.8919547961
 40
1.0
 40
1.0
 40
1.0
 40
1.0
 10
28.4767661736
 20
39.5035788784
 30
0.0
 10
28.4767661736
 20
39.3008555055
 30
0.0
 10
28.4530617092
 20
39.0032408452
 30
0.0
 10
28.3616119669
 20
38.6291617879
 30
0.0
 10
28.2685148419
 20
38.3798892001
 30
0.0
 10
28.1498700376
 20
38.1568633533
 30
0.0
 10
28.0065603245
 20
37.9622926921
 30
0.0
 10
27.8400048397
 20
37.7982721772
 30
0.0
 10
27.713885334
 20
37.7103213442
 30
0.0
 10
27.6483044483
 20
37.6724591371
 30
0.0
  0
SPLINE
  5
261
100
AcDbEntity
  8
0
100
AcDbSpline
 62
7
  6
BYLAYER
 70
0
 71
3
 72
11
 73
7
 74
0
 42
0.0000001
 43
0.0000001
 44
0.0000000001
 40
0.0
 40
0.0
 40
0.0
 40
0.0
 40
0.2893966051
 40
0.5491278405
 40
0.7823136736
 40
1.0
 40
1.0
 40
1.0
 40
1.0
 10
22.890599345
 20
48.0359465504
 30
0.0
 10
22.890599345
 20
48.0005173643
 30
0.0
 10
22.8851543118
 20
47.9330743235
 30
0.0
 10
22.8579411813
 20
47.840358829
 30
0.0
 10
22.8119022153
 20
47.7651350325
 30
0.0
 10
22.7686951845
 20
47.728830914
 30
0.0
 10
22.7456060723
 20
47.7155222365
 30
0.0
  0
SPLINE
  5
262
100
AcDbEntity
  8
0
100
AcDbSpline
 62
7
  6
BYLAYER
 70
0
 71
3
 72
11
 73
7
 74
0
 42
0.0000001
 43
0.0000001
 44
0.0000000001
 40
0.0
 40
0.0
 40
0.0
 40
0.0
 40
0.2893966051
 40
0.5491278405
 40
0.7823136736
 40
1.0
 40
1.0
 40
1.0
 40
1.0
 10
14.8295484783
 20
52.6898911519
 30
0.0
 10
14.8295484783
 20
52.6544619659
 30
0.0
 10
14.8241034451
 20
52.5870189251
 30
0.0
 10
14.7968903146
 20
52.4943034306
 30
0.0
 10
14.7508513486
 20
52.419079634
 30
0.0
 10
14.7076443178
 20
52.3827755155
 30
0.0
 10
14.6845552057
 20
52.369466838
 30
0.0
  0
SPLINE
  5
263
100
AcDbEntity
  8
0
100
AcDbSpline
 62
7
  6
BYLAYER
 70
0
 71
3
 72
10
 73
6
 74
0
 42
0.0000001
 43
0.0000001
 44
0.0000000001
 40
0.0
 40
0.0
 40
0.0
 40
0.0
 40
0.2416107203
 40
0.4868471168
 40
1.0
 40
1.0
 40
1.0
 40
1.0
 10
27.7340591333
 20
68.3635548989
 30
0.0
 10
27.7340674179
 20
68.3046400382
 30
0.0
 10
27.7249880476
 20
68.1857105789
 30
0.0
 10
27.6702533723
 20
67.9474090024
 30
0.0
 10
27.589451587
 20
67.7777850516
 30
0.0
 10
27.5226840466
 20
67.6719588783
 30
0.0
  0
SPLINE
  5
264
100
AcDbEntity
  8
0
100
AcDbSpline
 62
7
  6
BYLAYER
 70
0
 71
3
 72
10
 73
6
 74
0
 42
0.0000001
 43
0.0000001
 44
0.0000000001
 40
0.0
 40
0.0
 40
0.0
 40
0.0
 40
0.2468340936
 40
0.4966103286
 40
1.0
 40
1.0
 40
1.0
 40
1.0
 10
27.5210273235
 20
64.9411278747
 30
0.0
 10
27.4285256884
 20
64.9945406834
 30
0.0
 10
27.2492925082
 20
65.1142560741
 30
0.0
 10
26.9168650498
 20
65.3920194016
 30
0.0
 10
26.6971326348
 20
65.6359992112
 30
0.0
 10
26.5661831391
 20
65.8100833443
 30
0.0
  0
SPLINE
  5
265
100
AcDbEntity
  8
0
100
AcDbSpline
 62
7
  6
BYLAYER
 70
0
 71
3
 72
14
 73
10
 74
0
 42
0.0000001
 43
0.0000001
 44
0.0000000001
 40
0.0
 40
0.0
 40
0.0
 40
0.0
 40
0.283189503
 40
0.4148440548
 40
0.5403545632
 40
0.6604702289
 40
0.7762292875
 40
0.8889106473
 40
1.0
 40
1.0
 40
1.0
 40
1.0
 10
18.2233270225
 20
60.2908986088
 30
0.0
 10
17.9581096136
 20
60.1027590748
 30
0.0
 10
17.5893480287
 20
59.7956593151
 30
0.0
 10
17.1779050221
 20
59.3299939704
 30
0.0
 10
16.927802006
 20
58.9750469595
 30
0.0
 10
16.7309968086
 20
58.6084908436
 30
0.0
 10
16.5889966291
 20
58.2329575322
 30
0.0
 10
16.5032501833
 20
57.8513248839
 30
0.0
 10
16.4840865293
 20
57.5939874302
 30
0.0
 10
16.4840751975
 20
57.4664292606
 30
0.0
  0
SPLINE
  5
266
100
AcDbEntity
  8
0
100
AcDbSpline
 62
7
  6
BYLAYER
 70
0
 71
3
 72
17
 73
13
 74
0
 42
0.0000001
 43
0.0000001
 44
0.0000000001
 40
0.0
 40
0.0
 40
0.0
 40
0.0
 40
0.0428572716
 40
0.0874788458
 40
0.1353175345
 40
0.1872738754
 40
0.3045409073
 40
0.4382063355
 40
0.5825472936
 40
0.7296721167
 40
0.8713406818
 40
1.0
 40
1.0
 40
1.0
 40
1.0
 10
13.9845881357
 20
53.5818525222
 30
0.0
 10
14.0018513108
 20
53.5918031009
 30
0.0
 10
14.0398805843
 20
53.6076145525
 30
0.0
 10
14.1026698315
 20
53.6168606934
 30
0.0
 10
14.1700965658
 20
53.611851268
 30
0.0
 10
14.2680894354
 20
53.5858451975
 30
0.0
 10
14.3933291153
 20
53.5173169144
 30
0.0
 10
14.5317203379
 20
53.3947775515
 30
0.0
 10
14.6540126752
 20
53.2382018211
 30
0.0
 10
14.7503449922
 20
53.0602706925
 30
0.0
 10
14.8127752018
 20
52.8755292629
 30
0.0
 10
14.8295484783
 20
52.7497087626
 30
0.0
 10
14.8295484783
 20
52.6898911519
 30
0.0
  0
SPLINE
  5
267
100
AcDbEntity
  8
0
100
AcDbSpline
 62
7
  6
BYLAYER
 70
0
 71
3
 72
15
 73
11
 74
0
 42
0.0000001
 43
0.0000001
 44
0.0000000001
 40
0.0
 40
0.0
 40
0.0
 40
0.0
 40
0.1265926833
 40
0.2593812796
 40
0.3936805276
 40
0.5261378777
 40
0.654238637
 40
0.7762274945
 40
0.8913212163
 40
1.0
 40
1.0
 40
1.0
 40
1.0
 10
27.5226866598
 20
67.6719588937
 30
0.0
 10
27.5162687657
 20
67.5809798307
 30
0.0
 10
27.4960162133
 20
67.3950113266
 30
0.0
 10
27.4446871878
 20
67.1157866931
 30
0.0
 10
27.368829804
 20
66.8376774738
 30
0.0
 10
27.2660406166
 20
66.5717531775
 30
0.0
 10
27.1341893407
 20
66.3286739288
 30
0.0
 10
26.972836469
 20
66.1190983232
 30
0.0
 10
26.7841440834
 20
65.9537271877
 30
0.0
 10
26.639962605
 20
65.8773657853
 30
0.0
 10
26.5665767318
 20
65.8500669311
 30
0.0
  0
SPLINE
  5
268
100
AcDbEntity
  8
0
100
AcDbSpline
 62
7
  6
BYLAYER
 70
0
 71
3
 72
9
 73
5
 74
0
 42
0.0000001
 43
0.0000001
 44
0.0000000001
 40
0.0
 40
0.0
 40
0.0
 40
0.0
 40
0.4962231802
 40
1.0
 40
1.0
 40
1.0
 40
1.0
 10
25.4319848933
 20
66.4649001135
 30
0.0
 10
25.1370132547
 20
66.4028660656
 30
0.0
 10
24.5314760373
 20
66.3272781123
 30
0.0
 10
23.9216698985
 20
66.343019892
 30
0.0
 10
23.6172790243
 20
66.3744813312
 30
0.0
  0
SPLINE
  5
269
100
AcDbEntity
  8
0
100
AcDbSpline
 62
7
  6
BYLAYER
 70
0
 71
3
 72
17
 73
13
 74
0
 42
0.0000001
 43
0.0000001
 44
0.0000000001
 40
0.0
 40
0.0
 40
0.0
 40
0.0
 40
0.0428572716
 40
0.0874788458
 40
0.1353175345
 40
0.1872738754
 40
0.3045409073
 40
0.4382063355
 40
0.5825472936
 40
0.7296721167
 40
0.8713406818
 40
1.0
 40
1.0
 40
1.0
 40
1.0
 10
22.0456390024
 20
48.9279079206
 30
0.0
 10
22.0629021774
 20
48.9378584994
 30
0.0
 10
22.1009314509
 20
48.953669951
 30
0.0
 10
22.1637206982
 20
48.9629160919
 30
0.0
 10
22.2311474325
 20
48.9579066665
 30
0.0
 10
22.3291403021
 20
48.931900596
 30
0.0
 10
22.454379982
 20
48.8633723128
 30
0.0
 10
22.5927712045
 20
48.74083295
 30
0.0
 10
22.7150635419
 20
48.5842572196
 30
0.0
 10
22.8113958589
 20
48.406326091
 30
0.0
 10
22.8738260684
 20
48.2215846613
 30
0.0
 10
22.890599345
 20
48.095764161
 30
0.0
 10
22.890599345
 20
48.0359465504
 30
0.0
  0
SPLINE
  5
26A
100
AcDbEntity
  8
0
100
AcDbSpline
 62
7
  6
BYLAYER
 70
0
 71
3
 72
9
 73
5
 74
0
 42
0.0000001
 43
0.0000001
 44
0.0000000001
 40
0.0
 40
0.0
 40
0.0
 40
0.0
 40
0.749896337
 40
1.0
 40
1.0
 40
1.0
 40
1.0
 10
29.6482635159
 20
69.0399486492
 30
0.0
 10
29.4594310949
 20
69.1365038777
 30
0.0
 10
29.2067527724
 20
69.2635940699
 30
0.0
 10
28.952381796
 20
69.3872240816
 30
0.0
 10
28.8886370278
 20
69.4178831269
 30
0.0
  0
SPLINE
  5
26B
100
AcDbEntity
  8
0
100
AcDbSpline
 62
7
  6
BYLAYER
 70
0
 71
3
 72
13
 73
9
 74
0
 42
0.0000001
 43
0.0000001
 44
0.0000000001
 40
0.0
 40
0.0
 40
0.0
 40
0.0
 40
0.2806218284
 40
0.5367330651
 40
0.657221572
 40
0.7737909902
 40
0.8876076797
 40
1.0
 40
1.0
 40
1.0
 40
1.0
 10
19.4254299006
 20
69.6188227918
 30
0.0
 10
19.242453199
 20
69.4772544858
 30
0.0
 10
18.9122621775
 20
69.178953378
 30
0.0
 10
18.585008728
 20
68.7414879767
 30
0.0
 10
18.4022884969
 20
68.3772546524
 30
0.0
 10
18.305526386
 20
68.1037805776
 30
0.0
 10
18.2470949777
 20
67.8264563631
 30
0.0
 10
18.2340842745
 20
67.6397101746
 30
0.0
 10
18.2340828846
 20
67.5470524583
 30
0.0
  0
SPLINE
  5
26C
100
AcDbEntity
  8
0
100
AcDbSpline
 62
7
  6
BYLAYER
 70
0
 71
3
 72
14
 73
10
 74
0
 42
0.0000001
 43
0.0000001
 44
0.0000000001
 40
0.0
 40
0.0
 40
0.0
 40
0.0
 40
0.2885088423
 40
0.4217871836
 40
0.5479247246
 40
0.6676211952
 40
0.7819043958
 40
0.8921341774
 40
1.0
 40
1.0
 40
1.0
 40
1.0
 10
36.7414193345
 20
10.7428867184
 30
0.0
 10
36.7414193357
 20
10.5025926299
 30
0.0
 10
36.7687093441
 20
10.1496944101
 30
0.0
 10
36.8736838043
 20
9.7048394384
 30
0.0
 10
36.9805760903
 20
9.4069026564
 30
0.0
 10
37.1169263877
 20
9.138781773
 30
0.0
 10
37.2816192546
 20
8.9028612333
 30
0.0
 10
37.4733981298
 20
8.7017211462
 30
0.0
 10
37.6189912047
 20
8.5915000538
 30
0.0
 10
37.6948784646
 20
8.5434139035
 30
0.0
  0
SPLINE
  5
26D
100
AcDbEntity
  8
0
100
AcDbSpline
 62
7
  6
BYLAYER
 70
0
 71
3
 72
9
 73
5
 74
0
 42
0.0000001
 43
0.0000001
 44
0.0000000001
 40
0.0
 40
0.0
 40
0.0
 40
0.0
 40
0.4955266855
 40
1.0
 40
1.0
 40
1.0
 40
1.0
 10
37.6948784646
 20
8.5434139035
 30
0.0
 10
37.780871208
 20
8.4889243885
 30
0.0
 10
37.9652369413
 20
8.3952015132
 30
0.0
 10
38.1636764755
 20
8.3373415468
 30
0.0
 10
38.2653080989
 20
8.3170318149
 30
0.0
  0
SPLINE
  5
26E
100
AcDbEntity
  8
0
100
AcDbSpline
 62
7
  6
BYLAYER
 70
0
 71
3
 72
15
 73
11
 74
0
 42
0.0000001
 43
0.0000001
 44
0.0000000001
 40
0.0
 40
0.0
 40
0.0
 40
0.0
 40
0.1141521029
 40
0.2373134618
 40
0.3669493111
 40
0.4999646085
 40
0.6329899355
 40
0.7626477792
 40
0.8858359305
 40
1.0
 40
1.0
 40
1.0
 40
1.0
 10
40.1923407877
 20
16.7200911885
 30
0.0
 10
39.9561019928
 20
16.5836994719
 30
0.0
 10
39.4895011463
 20
16.2566191406
 30
0.0
 10
38.8474933002
 20
15.6559780939
 30
0.0
 10
38.2558452641
 20
14.9459909561
 30
0.0
 10
37.736822327
 20
14.1532528482
 30
0.0
 10
37.3097411876
 20
13.3073690763
 30
0.0
 10
36.9906074252
 20
12.4398757317
 30
0.0
 10
36.7913960172
 20
11.5834202763
 30
0.0
 10
36.7414193358
 20
11.0156999706
 30
0.0
 10
36.7414193345
 20
10.7428867184
 30
0.0
  0
SPLINE
  5
26F
100
AcDbEntity
  8
0
100
AcDbSpline
 62
7
  6
BYLAYER
 70
0
 71
3
 72
24
 73
20
 74
0
 42
0.0000001
 43
0.0000001
 44
0.0000000001
 40
0.0
 40
0.0
 40
0.0
 40
0.0
 40
0.0213329443
 40
0.0428944499
 40
0.0874729751
 40
0.1352525238
 40
0.1871561479
 40
0.2435983319
 40
0.3045503937
 40
0.3696409311
 40
0.4382431446
 40
0.5095343419
 40
0.5825626833
 40
0.6562981415
 40
0.7296823462
 40
0.801664444
 40
0.8712565134
 40
0.9376321549
 40
1.0
 40
1.0
 40
1.0
 40
1.0
 10
23.6483500978
 20
44.6006246557
 30
0.0
 10
23.697491241
 20
44.6289956074
 30
0.0
 10
23.8000768204
 20
44.67978253
 30
0.0
 10
24.0204540152
 20
44.7559912724
 30
0.0
 10
24.3232780853
 20
44.8005854867
 30
0.0
 10
24.7084689359
 20
44.7720978899
 30
0.0
 10
25.111794351
 20
44.665017054
 30
0.0
 10
25.5250763487
 20
44.4823377386
 30
0.0
 10
25.9401618592
 20
44.228377529
 30
0.0
 10
26.3486369436
 20
43.9086298477
 30
0.0
 10
26.7419706124
 20
43.529801779
 30
0.0
 10
27.1119077611
 20
43.0999572119
 30
0.0
 10
27.4506363689
 20
42.6282624276
 30
0.0
 10
27.7508808852
 20
42.1247140111
 30
0.0
 10
28.006246737
 20
41.6000693768
 30
0.0
 10
28.2113563012
 20
41.0655680332
 30
0.0
 10
28.3618006138
 20
40.5324139058
 30
0.0
 10
28.454222437
 20
40.0121338666
 30
0.0
 10
28.4767661736
 20
39.6694695185
 30
0.0
 10
28.4767661736
 20
39.5035788784
 30
0.0
  0
SPLINE
  5
270
100
AcDbEntity
  8
0
100
AcDbSpline
 62
7
  6
BYLAYER
 70
0
 71
3
 72
9
 73
5
 74
0
 42
0.0000001
 43
0.0000001
 44
0.0000000001
 40
0.0
 40
0.0
 40
0.0
 40
0.0
 40
0.2462487732
 40
1.0
 40
1.0
 40
1.0
 40
1.0
 10
42.5942533517
 20
17.1245139389
 30
0.0
 10
42.6124127106
 20
17.1048707347
 30
0.0
 10
42.6844209312
 20
17.0235071071
 30
0.0
 10
42.7494178893
 20
16.9359914603
 30
0.0
 10
42.7943281735
 20
16.8675231031
 30
0.0
  0
SPLINE
  5
271
100
AcDbEntity
  8
0
100
AcDbSpline
 62
7
  6
BYLAYER
 70
0
 71
3
 72
9
 73
5
 74
0
 42
0.0000001
 43
0.0000001
 44
0.0000000001
 40
0.0
 40
0.0
 40
0.0
 40
0.0
 40
0.5027626722
 40
1.0
 40
1.0
 40
1.0
 40
1.0
 10
41.9428147891
 20
17.8053420515
 30
0.0
 10
41.8691947781
 20
17.8796826243
 30
0.0
 10
41.7102291413
 20
18.0157428738
 30
0.0
 10
41.5298944086
 20
18.122003213
 30
0.0
 10
41.4365038134
 20
18.1665604112
 30
0.0
  0
SPLINE
  5
272
100
AcDbEntity
  8
0
100
AcDbSpline
 62
7
  6
BYLAYER
 70
0
 71
3
 72
14
 73
10
 74
0
 42
0.0000001
 43
0.0000001
 44
0.0000000001
 40
0.0
 40
0.0
 40
0.0
 40
0.0
 40
0.1077585528
 40
0.2181569313
 40
0.3327295867
 40
0.4527009403
 40
0.5790020194
 40
0.7122623363
 40
1.0
 40
1.0
 40
1.0
 40
1.0
 10
41.4365038134
 20
18.1665604112
 30
0.0
 10
41.3501633504
 20
18.2077539501
 30
0.0
 10
41.1683397574
 20
18.2771815676
 30
0.0
 10
40.8783513312
 20
18.3387339946
 30
0.0
 10
40.5717367773
 20
18.358278773
 30
0.0
 10
40.2513221436
 20
18.3358992454
 30
0.0
 10
39.9197408006
 20
18.2719088148
 30
0.0
 10
39.454787276
 20
18.1284669651
 30
0.0
 10
39.1156042374
 20
17.9652972632
 30
0.0
 10
38.8943842517
 20
17.8375766085
 30
0.0
  0
SPLINE
  5
273
100
AcDbEntity
  8
0
100
AcDbSpline
 62
7
  6
BYLAYER
 70
0
 71
3
 72
24
 73
20
 74
0
 42
0.0000001
 43
0.0000001
 44
0.0000000001
 40
0.0
 40
0.0
 40
0.0
 40
0.0
 40
0.0213329443
 40
0.0428944499
 40
0.0874729751
 40
0.1352525238
 40
0.1871561479
 40
0.2435983319
 40
0.3045503937
 40
0.3696409311
 40
0.4382431446
 40
0.5095343419
 40
0.5825626833
 40
0.6562981415
 40
0.7296823462
 40
0.801664444
 40
0.8712565134
 40
0.9376321549
 40
1.0
 40
1.0
 40
1.0
 40
1.0
 10
9.5061555948
 20
52.7654397461
 30
0.0
 10
9.5552967381
 20
52.7938106978
 30
0.0
 10
9.6578823175
 20
52.8445976204
 30
0.0
 10
9.8782595123
 20
52.9208063628
 30
0.0
 10
10.1810835824
 20
52.9654005771
 30
0.0
 10
10.566274433
 20
52.9369129803
 30
0.0
 10
10.9695998481
 20
52.8298321444
 30
0.0
 10
11.3828818457
 20
52.647152829
 30
0.0
 10
11.7979673563
 20
52.3931926194
 30
0.0
 10
12.2064424407
 20
52.0734449381
 30
0.0
 10
12.5997761095
 20
51.6946168694
 30
0.0
 10
12.9697132582
 20
51.2647723023
 30
0.0
 10
13.3084418659
 20
50.7930775181
 30
0.0
 10
13.6086863823
 20
50.2895291015
 30
0.0
 10
13.8640522341
 20
49.7648844672
 30
0.0
 10
14.0691617983
 20
49.2303831236
 30
0.0
 10
14.2196061109
 20
48.6972289962
 30
0.0
 10
14.312027934
 20
48.176948957
 30
0.0
 10
14.3345716707
 20
47.8342846089
 30
0.0
 10
14.3345716707
 20
47.6683939688
 30
0.0
  0
SPLINE
  5
274
100
AcDbEntity
  8
0
100
AcDbSpline
 62
7
  6
BYLAYER
 70
0
 71
3
 72
11
 73
7
 74
0
 42
0.0000001
 43
0.0000001
 44
0.0000000001
 40
0.0
 40
0.0
 40
0.0
 40
0.0
 40
0.2366434849
 40
0.4789980884
 40
0.7322330809
 40
1.0
 40
1.0
 40
1.0
 40
1.0
 10
18.2340828846
 20
67.5470524583
 30
0.0
 10
18.2340809505
 20
67.4181072865
 30
0.0
 10
18.2596145512
 20
67.1564400935
 30
0.0
 10
18.3733726916
 20
66.7717538388
 30
0.0
 10
18.5605053716
 20
66.3981315064
 30
0.0
 10
18.7268576422
 20
66.1665793998
 30
0.0
 10
18.8198579226
 20
66.054156314
 30
0.0
  0
SPLINE
  5
275
100
AcDbEntity
  8
0
100
AcDbSpline
 62
7
  6
BYLAYER
 70
0
 71
3
 72
15
 73
11
 74
0
 42
0.0000001
 43
0.0000001
 44
0.0000000001
 40
0.0
 40
0.0
 40
0.0
 40
0.0
 40
0.1141536803
 40
0.2373245991
 40
0.3669741054
 40
0.4999983967
 40
0.6330229109
 40
0.7626730686
 40
0.8858450136
 40
1.0
 40
1.0
 40
1.0
 40
1.0
 10
38.268444309
 20
17.9351542769
 30
0.0
 10
38.0260172174
 20
17.7951897658
 30
0.0
 10
37.5471786608
 20
17.4595292975
 30
0.0
 10
36.8883208289
 20
16.8431176438
 30
0.0
 10
36.2811453338
 20
16.1144699827
 30
0.0
 10
35.7485241018
 20
15.3009195369
 30
0.0
 10
35.3102829054
 20
14.4328772292
 30
0.0
 10
34.9828453626
 20
13.5427182968
 30
0.0
 10
34.7784467012
 20
12.663917258
 30
0.0
 10
34.7271748537
 20
12.0813950863
 30
0.0
 10
34.7271748537
 20
11.8014616081
 30
0.0
  0
SPLINE
  5
276
100
AcDbEntity
  8
0
100
AcDbSpline
 62
7
  6
BYLAYER
 70
0
 71
3
 72
11
 73
7
 74
0
 42
0.0000001
 43
0.0000001
 44
0.0000000001
 40
0.0
 40
0.0
 40
0.0
 40
0.0
 40
0.2457887587
 40
0.4999835695
 40
0.7541762292
 40
1.0
 40
1.0
 40
1.0
 40
1.0
 10
26.5142408245
 20
43.6399713008
 30
0.0
 10
26.5860289903
 20
43.3617295854
 30
0.0
 10
26.7749386158
 20
42.8061867998
 30
0.0
 10
27.167161479
 20
42.0139275119
 30
0.0
 10
27.6570860821
 20
41.2780171978
 30
0.0
 10
28.0437364889
 20
40.8365859642
 30
0.0
 10
28.248811811
 20
40.6352414056
 30
0.0
  0
SPLINE
  5
277
100
AcDbEntity
  8
0
100
AcDbSpline
 62
7
  6
BYLAYER
 70
0
 71
3
 72
15
 73
11
 74
0
 42
0.0000001
 43
0.0000001
 44
0.0000000001
 40
0.0
 40
0.0
 40
0.0
 40
0.0
 40
0.1080111667
 40
0.2180596801
 40
0.3320010793
 40
0.4513578919
 40
0.5772628144
 40
0.710492937
 40
0.8514575194
 40
1.0
 40
1.0
 40
1.0
 40
1.0
 10
16.4840751975
 20
57.4664292606
 30
0.0
 10
16.4840621637
 20
57.3197123968
 30
0.0
 10
16.5095656365
 20
57.0229173174
 30
0.0
 10
16.6232621579
 20
56.5845249982
 30
0.0
 10
16.8110290703
 20
56.1556028538
 30
0.0
 10
17.0703307899
 20
55.7404530204
 30
0.0
 10
17.3983641824
 20
55.3428622443
 30
0.0
 10
17.7917661195
 20
54.9662713504
 30
0.0
 10
18.246627924
 20
54.6143150336
 30
0.0
 10
18.5792648509
 20
54.4034216246
 30
0.0
 10
18.7540059809
 20
54.3025370685
 30
0.0
  0
SPLINE
  5
278
100
AcDbEntity
  8
0
100
AcDbSpline
 62
7
  6
BYLAYER
 70
0
 71
3
 72
25
 73
21
 74
0
 42
0.0000001
 43
0.0000001
 44
0.0000000001
 40
0.0
 40
0.0
 40
0.0
 40
0.0
 40
0.0230501594
 40
0.0462568683
 40
0.0936610196
 40
0.143348319
 40
0.1961249287
 40
0.2524930347
 40
0.3126494999
 40
0.3441390354
 40
0.3765092075
 40
0.4436408382
 40
0.5134795657
 40
0.5852420494
 40
0.6580158739
 40
0.7307799212
 40
0.8024463376
 40
0.8718959501
 40
0.9380748947
 40
1.0
 40
1.0
 40
1.0
 40
1.0
 10
31.9840528631
 20
56.43526598
 30
0.0
 10
31.9840529638
 20
56.3149570797
 30
0.0
 10
31.9699675447
 20
56.0732689303
 30
0.0
 10
31.8852526174
 20
55.5909085074
 30
0.0
 10
31.6700298611
 20
54.9949841366
 30
0.0
 10
31.251232987
 20
54.3281207953
 30
0.0
 10
30.6810185316
 20
53.7200166406
 30
0.0
 10
29.9724932975
 20
53.1856818754
 30
0.0
 10
29.2901773403
 20
52.8175337748
 30
0.0
 10
28.6929300683
 20
52.5671181914
 30
0.0
 10
28.046764602
 20
52.3424468856
 30
0.0
 10
27.1873077733
 20
52.127662066
 30
0.0
 10
26.1068675043
 20
51.974965014
 30
0.0
 10
24.9875512473
 20
51.9237634602
 30
0.0
 10
23.8530174079
 20
51.9716656211
 30
0.0
 10
22.7268997697
 20
52.1128709746
 30
0.0
 10
21.6328624671
 20
52.3408412037
 30
0.0
 10
20.5938543515
 20
52.647217317
 30
0.0
 10
19.6322543106
 20
53.0228941134
 30
0.0
 10
19.033919366
 20
53.3244302391
 30
0.0
 10
18.7540059809
 20
53.4860346514
 30
0.0
  0
SPLINE
  5
279
100
AcDbEntity
  8
0
100
AcDbSpline
 62
7
  6
BYLAYER
 70
0
 71
3
 72
15
 73
11
 74
0
 42
0.0000001
 43
0.0000001
 44
0.0000000001
 40
0.0
 40
0.0
 40
0.0
 40
0.0
 40
0.1141536803
 40
0.2373245991
 40
0.3669741054
 40
0.4999983967
 40
0.6330229109
 40
0.7626730686
 40
0.8858450136
 40
1.0
 40
1.0
 40
1.0
 40
1.0
 10
39.5561938451
 20
16.8584201972
 30
0.0
 10
39.3335247079
 20
16.7298628783
 30
0.0
 10
38.8937117828
 20
16.4215589409
 30
0.0
 10
38.2885512621
 20
15.8553852093
 30
0.0
 10
37.7308609366
 20
15.1861227727
 30
0.0
 10
37.2416486568
 20
14.4388771796
 30
0.0
 10
36.8391243825
 20
13.6415808443
 30
0.0
 10
36.5383731972
 20
12.8239704025
 30
0.0
 10
36.3506331502
 20
12.0167921792
 30
0.0
 10
36.3035399892
 20
11.4817459163
 30
0.0
 10
36.3035399892
 20
11.2246271856
 30
0.0
  0
SPLINE
  5
27A
100
AcDbEntity
  8
0
100
AcDbSpline
 62
7
  6
BYLAYER
 70
0
 71
3
 72
15
 73
11
 74
0
 42
0.0000001
 43
0.0000001
 44
0.0000000001
 40
0.0
 40
0.0
 40
0.0
 40
0.0
 40
0.1485267301
 40
0.2895019023
 40
0.4227431412
 40
0.5486476934
 40
0.6679992321
 40
0.7819431069
 40
0.8919898846
 40
1.0
 40
1.0
 40
1.0
 40
1.0
 10
19.991437696
 20
55.4252155464
 30
0.0
 10
19.8561687822
 20
55.5033113234
 30
0.0
 10
19.5986556913
 20
55.6665910964
 30
0.0
 10
19.2464893174
 20
55.9390631676
 30
0.0
 10
18.941908713
 20
56.2306359394
 30
0.0
 10
18.6879268347
 20
56.5384408591
 30
0.0
 10
18.487221246
 20
56.859867985
 30
0.0
 10
18.3418152397
 20
57.1919146086
 30
0.0
 10
18.253830795
 20
57.5313253304
 30
0.0
 10
18.2340645414
 20
57.7610944874
 30
0.0
 10
18.2340670291
 20
57.8746804662
 30
0.0
  0
SPLINE
  5
27B
100
AcDbEntity
  8
0
100
AcDbSpline
 62
7
  6
BYLAYER
 70
0
 71
3
 72
25
 73
21
 74
0
 42
0.0000001
 43
0.0000001
 44
0.0000000001
 40
0.0
 40
0.0
 40
0.0
 40
0.0
 40
0.0623767057
 40
0.1287264317
 40
0.1983139703
 40
0.2702919865
 40
0.3436692501
 40
0.4174011681
 40
0.4904256301
 40
0.5617122017
 40
0.6303098858
 40
0.6953980113
 40
0.7563456082
 40
0.812782698
 40
0.8646832769
 40
0.9124583312
 40
0.9351026309
 40
0.9571080619
 40
0.9786681004
 40
1.0
 40
1.0
 40
1.0
 40
1.0
 10
18.7540059809
 20
54.3025370685
 30
0.0
 10
19.0324198561
 20
54.1417983791
 30
0.0
 10
19.629156686
 20
53.8476148275
 30
0.0
 10
20.5916956484
 20
53.4988008469
 30
0.0
 10
21.6319318695
 20
53.2347791835
 30
0.0
 10
22.727471661
 20
53.0610293741
 30
0.0
 10
23.8551872455
 20
52.9813124536
 30
0.0
 10
24.9909727425
 20
52.9973040008
 30
0.0
 10
26.1106121635
 20
53.1086548721
 30
0.0
 10
27.190248879
 20
53.3129912523
 30
0.0
 10
28.2069495266
 20
53.6059921757
 30
0.0
 10
29.139219486
 20
53.9815661804
 30
0.0
 10
29.9674498756
 20
54.4320353426
 30
0.0
 10
30.6743388889
 20
54.9486154934
 30
0.0
 10
31.2447299872
 20
55.5213064729
 30
0.0
 10
31.601838194
 20
56.046716227
 30
0.0
 10
31.8007678584
 20
56.4805527923
 30
0.0
 10
31.906302545
 20
56.8059489199
 30
0.0
 10
31.9698416126
 20
57.1351742843
 30
0.0
 10
31.9840364742
 20
57.3564869455
 30
0.0
 10
31.9840462411
 20
57.4664292615
 30
0.0
  0
SPLINE
  5
27C
100
AcDbEntity
  8
0
100
AcDbSpline
 62
7
  6
BYLAYER
 70
0
 71
3
 72
10
 73
6
 74
0
 42
0.0000001
 43
0.0000001
 44
0.0000000001
 40
0.0
 40
0.0
 40
0.0
 40
0.0
 40
0.2348910616
 40
0.4784386296
 40
1.0
 40
1.0
 40
1.0
 40
1.0
 10
41.515450214
 20
17.231745748
 30
0.0
 10
41.4361028323
 20
17.25508333
 30
0.0
 10
41.2705744844
 20
17.2902250281
 30
0.0
 10
40.91839483
 20
17.3137493737
 30
0.0
 10
40.647959316
 20
17.2773668461
 30
0.0
 10
40.4693639684
 20
17.2345824197
 30
0.0
  0
SPLINE
  5
27D
100
AcDbEntity
  8
0
100
AcDbSpline
 62
7
  6
BYLAYER
 70
0
 71
3
 72
9
 73
5
 74
0
 42
0.0000001
 43
0.0000001
 44
0.0000000001
 40
0.0
 40
0.0
 40
0.0
 40
0.0
 40
0.480348202
 40
1.0
 40
1.0
 40
1.0
 40
1.0
 10
40.4693639684
 20
17.2345824197
 30
0.0
 10
40.3151866378
 20
17.1976475905
 30
0.0
 10
40.0006804293
 20
17.0925400656
 30
0.0
 10
39.7047277259
 20
16.9441757614
 30
0.0
 10
39.5561938451
 20
16.8584201972
 30
0.0
  0
SPLINE
  5
27E
100
AcDbEntity
  8
0
100
AcDbSpline
 62
7
  6
BYLAYER
 70
0
 71
3
 72
15
 73
11
 74
0
 42
0.0000001
 43
0.0000001
 44
0.0000000001
 40
0.0
 40
0.0
 40
0.0
 40
0.0
 40
0.150948986
 40
0.2927239651
 40
0.4252926737
 40
0.5494860008
 40
0.6667423165
 40
0.7791150029
 40
0.8892314196
 40
1.0
 40
1.0
 40
1.0
 40
1.0
 10
38.3407516624
 20
18.2913420774
 30
0.0
 10
38.4862728343
 20
18.3753582629
 30
0.0
 10
38.7766831205
 20
18.5247075928
 30
0.0
 10
39.2203486624
 20
18.6930365701
 30
0.0
 10
39.6532994377
 20
18.7961256961
 30
0.0
 10
40.0697969018
 20
18.8321892056
 30
0.0
 10
40.4644287063
 20
18.8002389808
 30
0.0
 10
40.8314959458
 20
18.6996696686
 30
0.0
 10
41.1649866849
 20
18.5316943539
 30
0.0
 10
41.3592844862
 20
18.3779078331
 30
0.0
 10
41.4482179123
 20
18.2924969958
 30
0.0
  0
SPLINE
  5
27F
100
AcDbEntity
  8
0
100
AcDbSpline
 62
7
  6
BYLAYER
 70
0
 71
3
 72
15
 73
11
 74
0
 42
0.0000001
 43
0.0000001
 44
0.0000000001
 40
0.0
 40
0.0
 40
0.0
 40
0.0
 40
0.1141522443
 40
0.237314817
 40
0.3669509345
 40
0.4999675559
 40
0.6329917284
 40
0.7626506531
 40
0.8858373605
 40
1.0
 40
1.0
 40
1.0
 40
1.0
 10
34.4548655626
 20
11.5607525578
 30
0.0
 10
34.4548666985
 20
11.8679202032
 30
0.0
 10
34.5111210598
 20
12.507097673
 30
0.0
 10
34.7353896469
 20
13.4713509385
 30
0.0
 10
35.0946432525
 20
14.4480621499
 30
0.0
 10
35.5754804424
 20
15.4005367932
 30
0.0
 10
36.1599130884
 20
16.2932746256
 30
0.0
 10
36.8261907148
 20
17.0929061559
 30
0.0
 10
37.5492256408
 20
17.7693743476
 30
0.0
 10
38.0747120563
 20
18.1377449574
 30
0.0
 10
38.3407516624
 20
18.2913420774
 30
0.0
  0
SPLINE
  5
280
100
AcDbEntity
  8
0
100
AcDbSpline
 62
7
  6
BYLAYER
 70
0
 71
3
 72
9
 73
5
 74
0
 42
0.0000001
 43
0.0000001
 44
0.0000000001
 40
0.0
 40
0.0
 40
0.0
 40
0.0
 40
0.4828622419
 40
1.0
 40
1.0
 40
1.0
 40
1.0
 10
19.991437696
 20
58.93617594
 30
0.0
 10
20.2413915058
 20
58.7918683053
 30
0.0
 10
20.7820991029
 20
58.5321206544
 30
0.0
 10
21.3503093834
 20
58.3419460882
 30
0.0
 10
21.6482968232
 20
58.2597816776
 30
0.0
  0
SPLINE
  5
281
100
AcDbEntity
  8
0
100
AcDbSpline
 62
7
  6
BYLAYER
 70
0
 71
3
 72
9
 73
5
 74
0
 42
0.0000001
 43
0.0000001
 44
0.0000000001
 40
0.0
 40
0.0
 40
0.0
 40
0.0
 40
0.4760985113
 40
1.0
 40
1.0
 40
1.0
 40
1.0
 10
18.8198579226
 20
59.8927446956
 30
0.0
 10
18.9734549674
 20
59.7070694088
 30
0.0
 10
19.3401855908
 20
59.3528075251
 30
0.0
 10
19.7617953612
 20
59.0687570045
 30
0.0
 10
19.991437696
 20
58.93617594
 30
0.0
  0
SPLINE
  5
282
100
AcDbEntity
  8
0
100
AcDbSpline
 62
7
  6
BYLAYER
 70
0
 71
3
 72
25
 73
21
 74
0
 42
0.0000001
 43
0.0000001
 44
0.0000000001
 40
0.0
 40
0.0
 40
0.0
 40
0.0
 40
0.0628331233
 40
0.1297427132
 40
0.199940688
 40
0.272535283
 40
0.3464778905
 40
0.4206700896
 40
0.4939992693
 40
0.5653914047
 40
0.6338655872
 40
0.6985912095
 40
0.7589564774
 40
0.8146457851
 40
0.8657336896
 40
0.9127877556
 40
0.9351739673
 40
0.9570220844
 40
0.9785521672
 40
1.0
 40
1.0
 40
1.0
 40
1.0
 10
30.4848721346
 20
13.3101356105
 30
0.0
 10
30.4848734077
 20
13.5712329268
 30
0.0
 10
30.5210719859
 20
14.1107326391
 30
0.0
 10
30.6695085841
 20
14.929656452
 30
0.0
 10
30.9107978494
 20
15.7684221435
 30
0.0
 10
31.239332935
 20
16.6082848719
 30
0.0
 10
31.6479905139
 20
17.4307362447
 30
0.0
 10
32.1276303064
 20
18.2174748519
 30
0.0
 10
32.6675827548
 20
18.9510412909
 30
0.0
 10
33.2558767494
 20
19.6151424388
 30
0.0
 10
33.8795293711
 20
20.1950597854
 30
0.0
 10
34.5249083411
 20
20.6779838609
 30
0.0
 10
35.1780828028
 20
21.0532772834
 30
0.0
 10
35.8254177432
 20
21.3124168262
 30
0.0
 10
36.4533466537
 20
21.4489797103
 30
0.0
 10
36.9585176158
 20
21.4562248681
 30
0.0
 10
37.3336570082
 20
21.3945929142
 30
0.0
 10
37.5965408254
 20
21.317257695
 30
0.0
 10
37.843822843
 20
21.2086180919
 30
0.0
 10
37.9970669173
 20
21.1157401037
 30
0.0
 10
38.0701308836
 20
21.0647025111
 30
0.0
  0
SPLINE
  5
283
100
AcDbEntity
  8
0
100
AcDbSpline
 62
7
  6
BYLAYER
 70
0
 71
3
 72
10
 73
6
 74
0
 42
0.0000001
 43
0.0000001
 44
0.0000000001
 40
0.0
 40
0.0
 40
0.0
 40
0.0
 40
0.4700095223
 40
0.7274871897
 40
1.0
 40
1.0
 40
1.0
 40
1.0
 10
30.8597514715
 20
11.4852117011
 30
0.0
 10
30.7294771133
 20
11.7487442741
 30
0.0
 10
30.5893589899
 20
12.1884879922
 30
0.0
 10
30.4994850773
 20
12.8077911972
 30
0.0
 10
30.4848721347
 20
13.1396885677
 30
0.0
 10
30.4848721346
 20
13.3101356105
 30
0.0
  0
SPLINE
  5
284
100
AcDbEntity
  8
0
100
AcDbSpline
 62
7
  6
BYLAYER
 70
0
 71
3
 72
15
 73
11
 74
0
 42
0.0000001
 43
0.0000001
 44
0.0000000001
 40
0.0
 40
0.0
 40
0.0
 40
0.0
 40
0.1371658612
 40
0.2668195435
 40
0.3903197533
 40
0.5098314173
 40
0.6279442513
 40
0.7474016001
 40
0.8707743635
 40
1.0
 40
1.0
 40
1.0
 40
1.0
 10
28.6568850533
 20
67.017143585
 30
0.0
 10
28.737758156
 20
67.1056943623
 30
0.0
 10
28.8844514759
 20
67.2881730932
 30
0.0
 10
29.0581360783
 20
67.5834503232
 30
0.0
 10
29.1758699056
 20
67.8889754374
 30
0.0
 10
29.2358886642
 20
68.2007446114
 30
0.0
 10
29.2369444732
 20
68.514769997
 30
0.0
 10
29.1791574263
 20
68.8268268367
 30
0.0
 10
29.0633786455
 20
69.1324603963
 30
0.0
 10
28.9521397525
 20
69.3244366336
 30
0.0
 10
28.8886370278
 20
69.4178831269
 30
0.0
  0
SPLINE
  5
285
100
AcDbEntity
  8
0
100
AcDbSpline
 62
7
  6
BYLAYER
 70
0
 71
3
 72
9
 73
5
 74
0
 42
0.0000001
 43
0.0000001
 44
0.0000000001
 40
0.0
 40
0.0
 40
0.0
 40
0.0
 40
0.5052034966
 40
1.0
 40
1.0
 40
1.0
 40
1.0
 10
39.0200222174
 20
8.1772162086
 30
0.0
 10
38.9085176245
 20
8.1962355202
 30
0.0
 10
38.690784823
 20
8.2556228009
 30
0.0
 10
38.4905189926
 20
8.3601059411
 30
0.0
 10
38.3984018649
 20
8.4216504652
 30
0.0
  0
SPLINE
  5
286
100
AcDbEntity
  8
0
100
AcDbSpline
 62
7
  6
BYLAYER
 70
0
 71
3
 72
14
 73
10
 74
0
 42
0.0000001
 43
0.0000001
 44
0.0000000001
 40
0.0
 40
0.0
 40
0.0
 40
0.0
 40
0.1077858644
 40
0.21811979
 40
0.3325894044
 40
0.4524653632
 40
0.5787141342
 40
0.7119884691
 40
1.0
 40
1.0
 40
1.0
 40
1.0
 10
38.3984018649
 20
8.4216504652
 30
0.0
 10
38.3286081524
 20
8.4682804559
 30
0.0
 10
38.1948288819
 20
8.5743377757
 30
0.0
 10
38.0190029087
 20
8.7658217239
 30
0.0
 10
37.8680347918
 20
8.9888627709
 30
0.0
 10
37.7431130954
 20
9.2412137604
 30
0.0
 10
37.64519566
 20
9.5207018979
 30
0.0
 10
37.549118853
 20
9.9367792081
 30
0.0
 10
37.5240601981
 20
10.2662764952
 30
0.0
 10
37.5240601894
 20
10.4905637221
 30
0.0
  0
SPLINE
  5
287
100
AcDbEntity
  8
0
100
AcDbSpline
 62
7
  6
BYLAYER
 70
0
 71
3
 72
11
 73
7
 74
0
 42
0.0000001
 43
0.0000001
 44
0.0000000001
 40
0.0
 40
0.0
 40
0.0
 40
0.0
 40
0.2491068253
 40
0.5039525932
 40
0.756774563
 40
1.0
 40
1.0
 40
1.0
 40
1.0
 10
22.4079233113
 20
65.6762636526
 30
0.0
 10
22.748225401
 20
65.599182241
 30
0.0
 10
23.4480870438
 20
65.4906185457
 30
0.0
 10
24.5101884071
 20
65.4594095454
 30
0.0
 10
25.5599624591
 20
65.5575459441
 30
0.0
 10
26.240266918
 20
65.7108651496
 30
0.0
 10
26.5661836285
 20
65.8100838304
 30
0.0
  0
SPLINE
  5
288
100
AcDbEntity
  8
0
100
AcDbSpline
 62
7
  6
BYLAYER
 70
0
 71
3
 72
17
 73
13
 74
0
 42
0.0000001
 43
0.0000001
 44
0.0000000001
 40
0.0
 40
0.0
 40
0.0
 40
0.0
 40
0.0428572716
 40
0.0874788458
 40
0.1353175345
 40
0.1872738754
 40
0.3045409073
 40
0.4382063355
 40
0.5825472936
 40
0.7296721167
 40
0.8713406818
 40
1.0
 40
1.0
 40
1.0
 40
1.0
 10
14.6845552057
 20
52.369466838
 30
0.0
 10
14.6672920306
 20
52.3595162593
 30
0.0
 10
14.6292627571
 20
52.3437048077
 30
0.0
 10
14.5664735099
 20
52.3344586668
 30
0.0
 10
14.4990467756
 20
52.3394680922
 30
0.0
 10
14.401053906
 20
52.3654741627
 30
0.0
 10
14.275814226
 20
52.4340024458
 30
0.0
 10
14.1374230035
 20
52.5565418087
 30
0.0
 10
14.0151306662
 20
52.7131175391
 30
0.0
 10
13.9187983492
 20
52.8910486677
 30
0.0
 10
13.8563681396
 20
53.0757900973
 30
0.0
 10
13.8395948631
 20
53.2016105976
 30
0.0
 10
13.8395948631
 20
53.2614282083
 30
0.0
  0
SPLINE
  5
289
100
AcDbEntity
  8
0
100
AcDbSpline
 62
7
  6
BYLAYER
 70
0
 71
3
 72
15
 73
11
 74
0
 42
0.0000001
 43
0.0000001
 44
0.0000000001
 40
0.0
 40
0.0
 40
0.0
 40
0.0
 40
0.123491849
 40
0.2505520579
 40
0.3795804337
 40
0.5090427265
 40
0.6373172277
 40
0.762828947
 40
0.8841766994
 40
1.0
 40
1.0
 40
1.0
 40
1.0
 10
21.6482968232
 20
64.4211932959
 30
0.0
 10
21.899375112
 20
64.3519631981
 30
0.0
 10
22.4154396222
 20
64.2347460457
 30
0.0
 10
23.2089970335
 20
64.1230466799
 30
0.0
 10
24.0215474943
 20
64.0744732779
 30
0.0
 10
24.837940087
 20
64.0898146932
 30
0.0
 10
25.6432078718
 20
64.1688906103
 30
0.0
 10
26.4226181724
 20
64.3101546139
 30
0.0
 10
27.1616407484
 20
64.5111021661
 30
0.0
 10
27.6309204781
 20
64.6870170995
 30
0.0
 10
27.854763279
 20
64.7848155561
 30
0.0
  0
SPLINE
  5
28A
100
AcDbEntity
  8
0
100
AcDbSpline
 62
7
  6
BYLAYER
 70
0
 71
3
 72
13
 73
9
 74
0
 42
0.0000001
 43
0.0000001
 44
0.0000000001
 40
0.0
 40
0.0
 40
0.0
 40
0.0
 40
0.2867204328
 40
0.5485708112
 40
0.6696698537
 40
0.7845346531
 40
0.8942283763
 40
1.0
 40
1.0
 40
1.0
 40
1.0
 10
29.0185471682
 20
65.4567323608
 30
0.0
 10
28.9473995965
 20
65.3398782378
 30
0.0
 10
28.7903278591
 20
65.1278076762
 30
0.0
 10
28.5397618125
 20
64.9220657308
 30
0.0
 10
28.3246769528
 20
64.8188557882
 30
0.0
 10
28.164936566
 20
64.7741461585
 30
0.0
 10
28.0068810656
 20
64.7611781182
 30
0.0
 10
27.9039629538
 20
64.7735665725
 30
0.0
 10
27.854763279
 20
64.7848155561
 30
0.0
  0
SPLINE
  5
28B
100
AcDbEntity
  8
0
100
AcDbSpline
 62
7
  6
BYLAYER
 70
0
 71
3
 72
13
 73
9
 74
0
 42
0.0000001
 43
0.0000001
 44
0.0000000001
 40
0.0
 40
0.0
 40
0.0
 40
0.0
 40
0.2810379925
 40
0.5372793688
 40
0.6577142307
 40
0.7741617522
 40
0.8878064675
 40
1.0
 40
1.0
 40
1.0
 40
1.0
 10
29.0185471682
 20
65.4567323608
 30
0.0
 10
29.2050094581
 20
65.5989973854
 30
0.0
 10
29.5415808405
 20
65.8990786969
 30
0.0
 10
29.8756774002
 20
66.3403784365
 30
0.0
 10
30.0622755434
 20
66.7082357113
 30
0.0
 10
30.1610749036
 20
66.984473216
 30
0.0
 10
30.2207485459
 20
67.2646875458
 30
0.0
 10
30.2340371481
 20
67.4534226791
 30
0.0
 10
30.2340385527
 20
67.5470524222
 30
0.0
  0
SPLINE
  5
28C
100
AcDbEntity
  8
0
100
AcDbSpline
 62
7
  6
BYLAYER
 70
0
 71
3
 72
11
 73
7
 74
0
 42
0.0000001
 43
0.0000001
 44
0.0000000001
 40
0.0
 40
0.0
 40
0.0
 40
0.0
 40
0.259066268
 40
0.5136776839
 40
0.7616410796
 40
1.0
 40
1.0
 40
1.0
 40
1.0
 10
28.6568854925
 20
67.0171437062
 30
0.0
 10
28.7185976563
 20
66.8915605865
 30
0.0
 10
28.8295424832
 20
66.6367255529
 30
0.0
 10
28.9545485073
 20
66.2438871169
 30
0.0
 10
29.0281849959
 20
65.8494426909
 30
0.0
 10
29.0326957009
 20
65.5844889824
 30
0.0
 10
29.0185210184
 20
65.4565293273
 30
0.0
  0
SPLINE
  5
28D
100
AcDbEntity
  8
0
100
AcDbSpline
 62
7
  6
BYLAYER
 70
0
 71
3
 72
25
 73
21
 74
0
 42
0.0000001
 43
0.0000001
 44
0.0000000001
 40
0.0
 40
0.0
 40
0.0
 40
0.0
 40
0.0213317068
 40
0.0428920888
 40
0.0648971769
 40
0.0875423744
 40
0.1353169953
 40
0.1872173264
 40
0.2436549907
 40
0.3046022363
 40
0.3696886732
 40
0.4382851037
 40
0.5095715806
 40
0.5825959627
 40
0.6563265573
 40
0.729703423
 40
0.8016823621
 40
0.8712695265
 40
0.9376260544
 40
1.0
 40
1.0
 40
1.0
 40
1.0
 10
30.2340544094
 20
57.874680473
 30
0.0
 10
30.2340525453
 20
57.7895647284
 30
0.0
 10
30.2230331647
 20
57.6182256686
 30
0.0
 10
30.1738296277
 20
57.3633492722
 30
0.0
 10
30.09217686
 20
57.1114074771
 30
0.0
 10
29.9380910441
 20
56.7755671925
 30
0.0
 10
29.6616771292
 20
56.3687705811
 30
0.0
 10
29.220080144
 20
55.9253915815
 30
0.0
 10
28.6727997236
 20
55.5254783224
 30
0.0
 10
28.0315873828
 20
55.1767467031
 30
0.0
 10
27.3098504476
 20
54.885970229
 30
0.0
 10
26.5227458115
 20
54.6591122162
 30
0.0
 10
25.6869025396
 20
54.5009252814
 30
0.0
 10
24.8200911108
 20
54.4147327545
 30
0.0
 10
23.9407825543
 20
54.4023425297
 30
0.0
 10
23.0677151625
 20
54.4640408798
 30
0.0
 10
22.2195559861
 20
54.5985565762
 30
0.0
 10
21.4141814061
 20
54.8029579233
 30
0.0
 10
20.6689846863
 20
55.0730316037
 30
0.0
 10
20.2069740843
 20
55.3007783697
 30
0.0
 10
19.991437696
 20
55.4252155464
 30
0.0
  0
SPLINE
  5
28E
100
AcDbEntity
  8
0
100
AcDbSpline
 62
7
  6
BYLAYER
 70
0
 71
3
 72
15
 73
11
 74
0
 42
0.0000001
 43
0.0000001
 44
0.0000000001
 40
0.0
 40
0.0
 40
0.0
 40
0.0
 40
0.1552321476
 40
0.3011289433
 40
0.4372868479
 40
0.5639638531
 40
0.6819315029
 40
0.7925300507
 40
0.8977120976
 40
1.0
 40
1.0
 40
1.0
 40
1.0
 10
18.7540059809
 20
53.4860346514
 30
0.0
 10
18.5796983384
 20
53.5866689391
 30
0.0
 10
18.2483564563
 20
53.7940625241
 30
0.0
 10
17.7935402392
 20
54.1337816826
 30
0.0
 10
17.4001496393
 20
54.4902526272
 30
0.0
 10
17.0720774911
 20
54.8607827224
 30
0.0
 10
16.8124927902
 20
55.24302476
 30
0.0
 10
16.6241349326
 20
55.634648026
 30
0.0
 10
16.5095893456
 20
56.0329694396
 30
0.0
 10
16.4839631393
 20
56.3026370079
 30
0.0
 10
16.4840066087
 20
56.4352621691
 30
0.0
  0
SPLINE
  5
28F
100
AcDbEntity
  8
0
100
AcDbSpline
 62
7
  6
BYLAYER
 70
0
 71
3
 72
15
 73
11
 74
0
 42
0.0000001
 43
0.0000001
 44
0.0000000001
 40
0.0
 40
0.0
 40
0.0
 40
0.0
 40
0.1386484274
 40
0.2738240653
 40
0.4052115706
 40
0.5326149816
 40
0.6558683223
 40
0.7748613859
 40
0.8895729646
 40
1.0
 40
1.0
 40
1.0
 40
1.0
 10
29.1838758988
 20
45.6272542002
 30
0.0
 10
28.3311253446
 20
46.3869287741
 30
0.0
 10
26.6127297522
 20
47.8493886103
 30
0.0
 10
23.969068292
 20
49.889060857
 30
0.0
 10
21.3014161448
 20
51.7394954696
 30
0.0
 10
18.6216612441
 20
53.3924184343
 30
0.0
 10
15.9413837019
 20
54.8408153427
 30
0.0
 10
13.2719437607
 20
56.0782473048
 30
0.0
 10
10.6252636004
 20
57.0990136064
 30
0.0
 10
8.8500849111
 20
57.6424448569
 30
0.0
 10
7.9705841444
 20
57.8744768359
 30
0.0
  0
SPLINE
  5
290
100
AcDbEntity
  8
0
100
AcDbSpline
 62
7
  6
BYLAYER
 70
0
 71
3
 72
17
 73
13
 74
0
 42
0.0000001
 43
0.0000001
 44
0.0000000001
 40
0.0
 40
0.0
 40
0.0
 40
0.0
 40
0.0428572716
 40
0.0874788458
 40
0.1353175345
 40
0.1872738754
 40
0.3045409073
 40
0.4382063355
 40
0.5825472936
 40
0.7296721167
 40
0.8713406818
 40
1.0
 40
1.0
 40
1.0
 40
1.0
 10
22.7456060723
 20
47.7155222365
 30
0.0
 10
22.7283428973
 20
47.7055716578
 30
0.0
 10
22.6903136238
 20
47.6897602062
 30
0.0
 10
22.6275243766
 20
47.6805140652
 30
0.0
 10
22.5600976422
 20
47.6855234907
 30
0.0
 10
22.4621047726
 20
47.7115295612
 30
0.0
 10
22.3368650927
 20
47.7800578443
 30
0.0
 10
22.1984738702
 20
47.9025972072
 30
0.0
 10
22.0761815328
 20
48.0591729375
 30
0.0
 10
21.9798492159
 20
48.2371040662
 30
0.0
 10
21.9174190063
 20
48.4218454958
 30
0.0
 10
21.9006457298
 20
48.5476659961
 30
0.0
 10
21.9006457298
 20
48.6074836067
 30
0.0
  0
SPLINE
  5
291
100
AcDbEntity
  8
0
100
AcDbSpline
 62
7
  6
BYLAYER
 70
0
 71
3
 72
15
 73
11
 74
0
 42
0.0000001
 43
0.0000001
 44
0.0000000001
 40
0.0
 40
0.0
 40
0.0
 40
0.0
 40
0.1513403343
 40
0.2930990496
 40
0.4253027816
 40
0.5489175037
 40
0.6655893993
 40
0.777664468
 40
0.8880801054
 40
1.0
 40
1.0
 40
1.0
 40
1.0
 10
39.6448951879
 20
17.200696126
 30
0.0
 10
39.7845215074
 20
17.2813089373
 30
0.0
 10
40.0631085918
 20
17.4239499122
 30
0.0
 10
40.4888789904
 20
17.5822224918
 30
0.0
 10
40.9036093417
 20
17.6752666308
 30
0.0
 10
41.3014037389
 20
17.7012444961
 30
0.0
 10
41.6766215845
 20
17.6591430067
 30
0.0
 10
42.0232623393
 20
17.5485228251
 30
0.0
 10
42.3349838872
 20
17.3708679027
 30
0.0
 10
42.51331608
 20
17.2120647919
 30
0.0
 10
42.5942533517
 20
17.1245139389
 30
0.0
  0
SPLINE
  5
292
100
AcDbEntity
  8
0
100
AcDbSpline
 62
7
  6
BYLAYER
 70
0
 71
3
 72
15
 73
11
 74
0
 42
0.0000001
 43
0.0000001
 44
0.0000000001
 40
0.0
 40
0.0
 40
0.0
 40
0.0
 40
0.1141522451
 40
0.2373148161
 40
0.366950935
 40
0.4999675557
 40
0.6329917284
 40
0.7626506531
 40
0.8858373605
 40
1.0
 40
1.0
 40
1.0
 40
1.0
 10
36.0514758691
 20
10.9766767426
 30
0.0
 10
36.0514758701
 20
11.2607257678
 30
0.0
 10
36.1034978976
 20
11.8517962713
 30
0.0
 10
36.3108864651
 20
12.7434761213
 30
0.0
 10
36.6431014699
 20
13.6466762713
 30
0.0
 10
37.087748936
 20
14.527464003
 30
0.0
 10
37.628194943
 20
15.3530109393
 30
0.0
 10
38.2443259401
 20
16.0924591161
 30
0.0
 10
38.9129424689
 20
16.7180137015
 30
0.0
 10
39.3988787491
 20
17.0586593178
 30
0.0
 10
39.6448951879
 20
17.200696126
 30
0.0
  0
SPLINE
  5
293
100
AcDbEntity
  8
0
100
AcDbSpline
 62
7
  6
BYLAYER
 70
0
 71
3
 72
14
 73
10
 74
0
 42
0.0000001
 43
0.0000001
 44
0.0000000001
 40
0.0
 40
0.0
 40
0.0
 40
0.0
 40
0.2892423448
 40
0.4225630317
 40
0.548510524
 40
0.6678864157
 40
0.7818604966
 40
0.8919517306
 40
1.0
 40
1.0
 40
1.0
 40
1.0
 10
41.8556696535
 20
14.8368476762
 30
0.0
 10
42.0202533672
 20
14.9318695605
 30
0.0
 10
42.2729863201
 20
15.0521253816
 30
0.0
 10
42.6195519286
 20
15.1532234527
 30
0.0
 10
42.8655643677
 20
15.1944844985
 30
0.0
 10
43.1022439352
 20
15.2027026443
 30
0.0
 10
43.3273849193
 20
15.1775595685
 30
0.0
 10
43.5386220149
 20
15.1192223967
 30
0.0
 10
43.669145929
 20
15.0580548175
 30
0.0
 10
43.7306271921
 20
15.0225587997
 30
0.0
  0
SPLINE
  5
294
100
AcDbEntity
  8
0
100
AcDbSpline
 62
7
  6
BYLAYER
 70
0
 71
3
 72
14
 73
10
 74
0
 42
0.0000001
 43
0.0000001
 44
0.0000000001
 40
0.0
 40
0.0
 40
0.0
 40
0.0
 40
0.2892446615
 40
0.4225664807
 40
0.5485147684
 40
0.6678910929
 40
0.7818650067
 40
0.8919547961
 40
1.0
 40
1.0
 40
1.0
 40
1.0
 10
8.6776938695
 20
50.9343200049
 30
0.0
 10
8.6776938695
 20
51.1370433778
 30
0.0
 10
8.7013983339
 20
51.4346580381
 30
0.0
 10
8.7928480762
 20
51.8087370953
 30
0.0
 10
8.8859452013
 20
52.0580096831
 30
0.0
 10
9.0045900056
 20
52.28103553
 30
0.0
 10
9.1478997187
 20
52.4756061912
 30
0.0
 10
9.3144552035
 20
52.639626706
 30
0.0
 10
9.4405747091
 20
52.7275775391
 30
0.0
 10
9.5061555948
 20
52.7654397461
 30
0.0
  0
SPLINE
  5
295
100
AcDbEntity
  8
0
100
AcDbSpline
 62
7
  6
BYLAYER
 70
0
 71
3
 72
11
 73
7
 74
0
 42
0.0000001
 43
0.0000001
 44
0.0000000001
 40
0.0
 40
0.0
 40
0.0
 40
0.0
 40
0.283776885
 40
0.5433800505
 40
0.7804404181
 40
1.0
 40
1.0
 40
1.0
 40
1.0
 10
36.3035399892
 20
11.2246271856
 30
0.0
 10
36.3035399892
 20
11.0334328128
 30
0.0
 10
36.3276011702
 20
10.6665733742
 30
0.0
 10
36.4468487803
 20
10.1516392719
 30
0.0
 10
36.6462709933
 20
9.7084216762
 30
0.0
 10
36.8366576292
 20
9.4618532755
 30
0.0
 10
36.9422134819
 20
9.3582160955
 30
0.0
  0
SPLINE
  5
296
100
AcDbEntity
  8
0
100
AcDbSpline
 62
7
  6
BYLAYER
 70
0
 71
3
 72
14
 73
10
 74
0
 42
0.0000001
 43
0.0000001
 44
0.0000000001
 40
0.0
 40
0.0
 40
0.0
 40
0.0
 40
0.2892446615
 40
0.4225664807
 40
0.5485147684
 40
0.6678910929
 40
0.7818650067
 40
0.8919547961
 40
1.0
 40
1.0
 40
1.0
 40
1.0
 10
22.8198883724
 20
42.7695049145
 30
0.0
 10
22.8198883724
 20
42.9722282874
 30
0.0
 10
22.8435928368
 20
43.2698429477
 30
0.0
 10
22.9350425791
 20
43.6439220049
 30
0.0
 10
23.0281397042
 20
43.8931945927
 30
0.0
 10
23.1467845085
 20
44.1162204396
 30
0.0
 10
23.2900942216
 20
44.3107911008
 30
0.0
 10
23.4566497064
 20
44.4748116156
 30
0.0
 10
23.5827692121
 20
44.5627624487
 30
0.0
 10
23.6483500978
 20
44.6006246557
 30
0.0
  0
SPLINE
  5
297
100
AcDbEntity
  8
0
100
AcDbSpline
 62
7
  6
BYLAYER
 70
0
 71
3
 72
14
 73
10
 74
0
 42
0.0000001
 43
0.0000001
 44
0.0000000001
 40
0.0
 40
0.0
 40
0.0
 40
0.0
 40
0.288030029
 40
0.4212925164
 40
0.5475318991
 40
0.6674038703
 40
0.781870804
 40
0.8922045493
 40
1.0
 40
1.0
 40
1.0
 40
1.0
 10
40.8021857223
 20
16.1684752175
 30
0.0
 10
40.9964662231
 20
16.2806424406
 30
0.0
 10
41.2944006199
 20
16.423712836
 30
0.0
 10
41.7028417291
 20
16.5485333592
 30
0.0
 10
41.9938741542
 20
16.6034594959
 30
0.0
 10
42.2749086827
 20
16.621411424
 30
0.0
 10
42.5435884649
 20
16.6021711676
 30
0.0
 10
42.7973546273
 20
16.5455448489
 30
0.0
 10
42.9561177046
 20
16.4826919042
 30
0.0
 10
43.0314048025
 20
16.4455334567
 30
0.0
  0
SPLINE
  5
298
100
AcDbEntity
  8
0
100
AcDbSpline
 62
7
  6
BYLAYER
 70
0
 71
3
 72
9
 73
5
 74
0
 42
0.0000001
 43
0.0000001
 44
0.0000000001
 40
0.0
 40
0.0
 40
0.0
 40
0.0
 40
0.4947755265
 40
1.0
 40
1.0
 40
1.0
 40
1.0
 10
43.0314048025
 20
16.4455334567
 30
0.0
 10
43.1306784897
 20
16.3965362687
 30
0.0
 10
43.3211337393
 20
16.2753737598
 30
0.0
 10
43.4813266316
 20
16.1166148597
 30
0.0
 10
43.5534988242
 20
16.0296074588
 30
0.0
  0
SPLINE
  5
299
100
AcDbEntity
  8
0
100
AcDbSpline
 62
7
  6
BYLAYER
 70
0
 71
3
 72
15
 73
11
 74
0
 42
0.0000001
 43
0.0000001
 44
0.0000000001
 40
0.0
 40
0.0
 40
0.0
 40
0.0
 40
0.1141522451
 40
0.2373148161
 40
0.366950935
 40
0.4999675557
 40
0.6329917284
 40
0.7626506531
 40
0.8858373605
 40
1.0
 40
1.0
 40
1.0
 40
1.0
 10
37.5240601894
 20
10.4905637221
 30
0.0
 10
37.5240601994
 20
10.7496897186
 30
0.0
 10
37.5715176966
 20
11.288898516
 30
0.0
 10
37.7607095832
 20
12.1023405955
 30
0.0
 10
38.0637753782
 20
12.9262921611
 30
0.0
 10
38.4694085884
 20
13.7297978186
 30
0.0
 10
38.9624347836
 20
14.4829096182
 30
0.0
 10
39.5245052166
 20
15.1574771362
 30
0.0
 10
40.1344559977
 20
15.7281443104
 30
0.0
 10
40.5777552542
 20
16.0389010076
 30
0.0
 10
40.8021857223
 20
16.1684752175
 30
0.0
  0
SPLINE
  5
29A
100
AcDbEntity
  8
0
100
AcDbSpline
 62
7
  6
BYLAYER
 70
0
 71
3
 72
23
 73
19
 74
0
 42
0.0000001
 43
0.0000001
 44
0.0000000001
 40
0.0
 40
0.0
 40
0.0
 40
0.0
 40
0.042813673
 40
0.0873959611
 40
0.1351793407
 40
0.187087479
 40
0.2435350611
 40
0.3044931858
 40
0.3695904588
 40
0.4381998006
 40
0.5094978714
 40
0.5825335826
 40
0.6562770121
 40
0.7296674059
 40
0.8016539358
 40
0.8712493722
 40
0.9376280206
 40
1.0
 40
1.0
 40
1.0
 40
1.0
 10
39.9807121149
 20
8.5273684243
 30
0.0
 10
39.8882608414
 20
8.5807448822
 30
0.0
 10
39.7129932161
 20
8.714866299
 30
0.0
 10
39.5020881573
 20
8.9815611399
 30
0.0
 10
39.3445146478
 20
9.3077190724
 30
0.0
 10
39.2424356422
 20
9.6853567816
 30
0.0
 10
39.1970148473
 20
10.1065446543
 30
0.0
 10
39.2086372452
 20
10.5626045536
 30
0.0
 10
39.2767680634
 20
11.044139777
 30
0.0
 10
39.3999696542
 20
11.5410737507
 30
0.0
 10
39.5755547185
 20
12.0429272457
 30
0.0
 10
39.7997516912
 20
12.5390594215
 30
0.0
 10
40.067852633
 20
13.0188733733
 30
0.0
 10
40.37410863
 20
13.4721370176
 30
0.0
 10
40.7119260044
 20
13.889203733
 30
0.0
 10
41.0742644752
 20
14.2612548795
 30
0.0
 10
41.4533475416
 20
14.5801659047
 30
0.0
 10
41.7209844288
 20
14.7590875897
 30
0.0
 10
41.8556696535
 20
14.8368476762
 30
0.0
  0
SPLINE
  5
29B
100
AcDbEntity
  8
0
100
AcDbSpline
 62
7
  6
BYLAYER
 70
0
 71
3
 72
11
 73
7
 74
0
 42
0.0000001
 43
0.0000001
 44
0.0000000001
 40
0.0
 40
0.0
 40
0.0
 40
0.0
 40
0.2893966051
 40
0.5491278405
 40
0.7823136736
 40
1.0
 40
1.0
 40
1.0
 40
1.0
 10
21.9006457298
 20
48.6074836067
 30
0.0
 10
21.9006457298
 20
48.6429127928
 30
0.0
 10
21.9060907629
 20
48.7103558336
 30
0.0
 10
21.9333038934
 20
48.8030713281
 30
0.0
 10
21.9793428595
 20
48.8782951247
 30
0.0
 10
22.0225498902
 20
48.9145992432
 30
0.0
 10
22.0456390024
 20
48.9279079206
 30
0.0
  0
SPLINE
  5
29C
100
AcDbEntity
  8
0
100
AcDbSpline
 62
7
  6
BYLAYER
 70
0
 71
3
 72
24
 73
20
 74
0
 42
0.0000001
 43
0.0000001
 44
0.0000000001
 40
0.0
 40
0.0
 40
0.0
 40
0.0
 40
0.0213329443
 40
0.0428944499
 40
0.0874729751
 40
0.1352525238
 40
0.1871561479
 40
0.2435983319
 40
0.3045503937
 40
0.3696409311
 40
0.4382431446
 40
0.5095343419
 40
0.5825626833
 40
0.6562981415
 40
0.7296823462
 40
0.801664444
 40
0.8712565134
 40
0.9376321549
 40
1.0
 40
1.0
 40
1.0
 40
1.0
 10
27.6483044483
 20
37.6724591371
 30
0.0
 10
27.599163305
 20
37.6440881855
 30
0.0
 10
27.4965777256
 20
37.5933012629
 30
0.0
 10
27.2762005308
 20
37.5170925205
 30
0.0
 10
26.9733764607
 20
37.4724983062
 30
0.0
 10
26.5881856101
 20
37.5009859029
 30
0.0
 10
26.184860195
 20
37.6080667389
 30
0.0
 10
25.7715781974
 20
37.7907460543
 30
0.0
 10
25.3564926869
 20
38.0447062638
 30
0.0
 10
24.9480176024
 20
38.3644539452
 30
0.0
 10
24.5546839336
 20
38.7432820138
 30
0.0
 10
24.1847467849
 20
39.1731265809
 30
0.0
 10
23.8460181772
 20
39.6448213652
 30
0.0
 10
23.5457736609
 20
40.1483697817
 30
0.0
 10
23.2904078091
 20
40.673014416
 30
0.0
 10
23.0852982449
 20
41.2075157596
 30
0.0
 10
22.9348539323
 20
41.740669887
 30
0.0
 10
22.8424321091
 20
42.2609499262
 30
0.0
 10
22.8198883724
 20
42.6036142744
 30
0.0
 10
22.8198883724
 20
42.7695049145
 30
0.0
  0
SPLINE
  5
29D
100
AcDbEntity
  8
0
100
AcDbSpline
 62
7
  6
BYLAYER
 70
0
 71
3
 72
11
 73
7
 74
0
 42
0.0000001
 43
0.0000001
 44
0.0000000001
 40
0.0
 40
0.0
 40
0.0
 40
0.0
 40
0.2893966051
 40
0.5491278405
 40
0.7823136736
 40
1.0
 40
1.0
 40
1.0
 40
1.0
 10
13.8395948631
 20
53.2614282083
 30
0.0
 10
13.8395948631
 20
53.2968573943
 30
0.0
 10
13.8450398963
 20
53.3643004351
 30
0.0
 10
13.8722530267
 20
53.4570159296
 30
0.0
 10
13.9182919928
 20
53.5322397262
 30
0.0
 10
13.9614990236
 20
53.5685438447
 30
0.0
 10
13.9845881357
 20
53.5818525222
 30
0.0
  0
SPLINE
  5
29E
100
AcDbEntity
  8
0
100
AcDbSpline
 62
7
  6
BYLAYER
 70
0
 71
3
 72
15
 73
11
 74
0
 42
0.0000001
 43
0.0000001
 44
0.0000000001
 40
0.0
 40
0.0
 40
0.0
 40
0.0
 40
0.1119007552
 40
0.2223058344
 40
0.3343781161
 40
0.4510553083
 40
0.5746760918
 40
0.7068939831
 40
0.8486661616
 40
1.0
 40
1.0
 40
1.0
 40
1.0
 10
37.5921815314
 20
8.4604761947
 30
0.0
 10
37.4759094296
 20
8.486798638
 30
0.0
 10
37.2492240155
 20
8.5617848482
 30
0.0
 10
36.9395399728
 20
8.7429262063
 30
0.0
 10
36.6703849948
 20
8.9877789502
 30
0.0
 10
36.4462998583
 20
9.29169559
 30
0.0
 10
36.2698663347
 20
9.6492114599
 30
0.0
 10
36.1430582142
 20
10.0549479081
 30
0.0
 10
36.0672453766
 20
10.5028507877
 30
0.0
 10
36.0514758697
 20
10.8154519823
 30
0.0
 10
36.0514758691
 20
10.9766767426
 30
0.0
  0
SPLINE
  5
29F
100
AcDbEntity
  8
0
100
AcDbSpline
 62
7
  6
BYLAYER
 70
0
 71
3
 72
24
 73
20
 74
0
 42
0.0000001
 43
0.0000001
 44
0.0000000001
 40
0.0
 40
0.0
 40
0.0
 40
0.0
 40
0.0213329443
 40
0.0428944499
 40
0.0874729751
 40
0.1352525238
 40
0.1871561479
 40
0.2435983319
 40
0.3045503937
 40
0.3696409311
 40
0.4382431446
 40
0.5095343419
 40
0.5825626833
 40
0.6562981415
 40
0.7296823462
 40
0.801664444
 40
0.8712565134
 40
0.9376321549
 40
1.0
 40
1.0
 40
1.0
 40
1.0
 10
13.5061099454
 20
45.8372742275
 30
0.0
 10
13.4569688021
 20
45.8089032759
 30
0.0
 10
13.3543832227
 20
45.7581163533
 30
0.0
 10
13.1340060279
 20
45.6819076109
 30
0.0
 10
12.8311819578
 20
45.6373133966
 30
0.0
 10
12.4459911072
 20
45.6658009933
 30
0.0
 10
12.0426656921
 20
45.7728818293
 30
0.0
 10
11.6293836945
 20
45.9555611447
 30
0.0
 10
11.2142981839
 20
46.2095213543
 30
0.0
 10
10.8058230995
 20
46.5292690356
 30
0.0
 10
10.4124894307
 20
46.9080971042
 30
0.0
 10
10.042552282
 20
47.3379416713
 30
0.0
 10
9.7038236743
 20
47.8096364556
 30
0.0
 10
9.4035791579
 20
48.3131848722
 30
0.0
 10
9.1482133061
 20
48.8378295064
 30
0.0
 10
8.9431037419
 20
49.37233085
 30
0.0
 10
8.7926594293
 20
49.9054849774
 30
0.0
 10
8.7002376062
 20
50.4257650166
 30
0.0
 10
8.6776938695
 20
50.7684293648
 30
0.0
 10
8.6776938695
 20
50.9343200049
 30
0.0
  0
SPLINE
  5
2A0
100
AcDbEntity
  8
0
100
AcDbSpline
 62
7
  6
BYLAYER
 70
0
 71
3
 72
15
 73
11
 74
0
 42
0.0000001
 43
0.0000001
 44
0.0000000001
 40
0.0
 40
0.0
 40
0.0
 40
0.0
 40
0.1080120351
 40
0.2180609276
 40
0.3320049916
 40
0.4513555801
 40
0.5772588794
 40
0.7104993721
 40
0.8514742921
 40
1.0
 40
1.0
 40
1.0
 40
1.0
 10
28.1483118128
 20
8.228727948
 30
0.0
 10
28.2302888126
 20
8.2760570984
 30
0.0
 10
28.3878799701
 20
8.3860643637
 30
0.0
 10
28.5961791195
 20
8.5909861909
 30
0.0
 10
28.7752346131
 20
8.8342812176
 30
0.0
 10
28.9235814138
 20
9.1130595471
 30
0.0
 10
29.0399011917
 20
9.4246097306
 30
0.0
 10
29.1234232998
 20
9.7659149443
 30
0.0
 10
29.1733325299
 20
10.1336048333
 30
0.0
 10
29.1838758988
 20
10.3874864696
 30
0.0
 10
29.1838758988
 20
10.5176502637
 30
0.0
  0
SPLINE
  5
2A1
100
AcDbEntity
  8
0
100
AcDbSpline
 62
7
  6
BYLAYER
 70
0
 71
3
 72
11
 73
7
 74
0
 42
0.0000001
 43
0.0000001
 44
0.0000000001
 40
0.0
 40
0.0
 40
0.0
 40
0.0
 40
0.2457887587
 40
0.4999835695
 40
0.7541762292
 40
1.0
 40
1.0
 40
1.0
 40
1.0
 10
12.3720463215
 20
51.8047863912
 30
0.0
 10
12.4438344873
 20
51.5265446758
 30
0.0
 10
12.6327441128
 20
50.9710018902
 30
0.0
 10
13.024966976
 20
50.1787426023
 30
0.0
 10
13.5148915792
 20
49.4428322882
 30
0.0
 10
13.9015419859
 20
49.0014010546
 30
0.0
 10
14.1066173081
 20
48.800056496
 30
0.0
  0
SPLINE
  5
2A2
100
AcDbEntity
  8
0
100
AcDbSpline
 62
7
  6
BYLAYER
 70
0
 71
3
 72
13
 73
9
 74
0
 42
0.0000001
 43
0.0000001
 44
0.0000000001
 40
0.0
 40
0.0
 40
0.0
 40
0.0
 40
0.1824054154
 40
0.286896979
 40
0.4026315445
 40
0.5309697947
 40
0.672930642
 40
1.0
 40
1.0
 40
1.0
 40
1.0
 10
31.5659671563
 20
10.5757671569
 30
0.0
 10
31.5019951504
 20
10.6067721515
 30
0.0
 10
31.4094307695
 20
10.6726574145
 30
0.0
 10
31.2984474223
 20
10.7836452709
 30
0.0
 10
31.2116197951
 20
10.8884022153
 30
0.0
 10
31.1245380036
 20
11.0112063803
 30
0.0
 10
31.001418811
 20
11.2089286032
 30
0.0
 10
30.9162396754
 20
11.3709414645
 30
0.0
 10
30.8597514715
 20
11.4852117011
 30
0.0
  0
SPLINE
  5
2A3
100
AcDbEntity
  8
0
100
AcDbSpline
 62
7
  6
BYLAYER
 70
0
 71
3
 72
15
 73
11
 74
0
 42
0.0000001
 43
0.0000001
 44
0.0000000001
 40
0.0
 40
0.0
 40
0.0
 40
0.0
 40
0.1107507347
 40
0.2208584023
 40
0.3332297663
 40
0.4504900605
 40
0.574689797
 40
0.7072722871
 40
0.8490589515
 40
1.0
 40
1.0
 40
1.0
 40
1.0
 10
36.0076543873
 20
8.8689525779
 30
0.0
 10
35.8892332634
 20
8.9032562918
 30
0.0
 10
35.65890977
 20
8.9945944287
 30
0.0
 10
35.3467095365
 20
9.1994123984
 30
0.0
 10
35.0760669327
 20
9.4670093567
 30
0.0
 10
34.8510428892
 20
9.7927989465
 30
0.0
 10
34.6740081208
 20
10.1715659556
 30
0.0
 10
34.5467855333
 20
10.5981026532
 30
0.0
 10
34.4707373825
 20
11.0665305917
 30
0.0
 10
34.4548655626
 20
11.3927225174
 30
0.0
 10
34.4548655626
 20
11.5607525578
 30
0.0
  0
ELLIPSE
  5
2A4
100
AcDbEntity
  8
0
100
AcDbEllipse
 62
7
  6
BYLAYER
 10
46.861571924
 20
8.8848699712
 30
0.0
 11
3.0095731532
 21
2.5798185717
 31
0.0
 40
0.2183911805
 41
0.0
 42
6.2831853072
  0
ENDSEC
  0
SECTION
  2
OBJECTS
  0
DICTIONARY
  5
C
100
AcDbDictionary
280
0
281
1
  3
ACAD_GROUP
350
D
  3
ACAD_MLINESTYLE
350
17
  3
ACAD_LAYOUT
350
1A
  3
ACAD_PLOTSETTINGS
350
19
  3
ACAD_PLOTSTYLENAME
350
E
  0
DICTIONARY
  5
D
102
{ACAD_REACTORS
330
C
102
}
100
AcDbDictionary
280
0
281
1
  0
ACDBDICTIONARYWDFLT
  5
E
102
{ACAD_REACTORS
330
C
102
}
100
AcDbDictionary
281
1
  3
Normal
350
F
100
AcDbDictionaryWithDefault
340
F
  0
DICTIONARY
  5
17
102
{ACAD_REACTORS
330
C
102
}
100
AcDbDictionary
280
0
281
1
  3
Standard
350
18
  0
DICTIONARY
  5
19
102
{ACAD_REACTORS
330
C
102
}
100
AcDbDictionary
281
1
  0
DICTIONARY
  5
1A
102
{ACAD_REACTORS
330
C
102
}
100
AcDbDictionary
281
1
  3
Model
350
2A5
  3
Layout1
350
2A6
  0
ACDBPLACEHOLDER
  5
F
102
{ACAD_REACTORS
330
E
102
}
  0
MLINESTYLE
  5
18
102
{ACAD_REACTORS
330
17
102
}
100
AcDbMlineStyle
  2
STANDARD
 70
0
  3

 62
256
 51
90.0
 52
90.0
 71
2
 49
0.5
 62
256
  6
BYLAYER
 49
-0.5
 62
256
  6
BYLAYER
  0
LAYOUT
  5
2A5
102
{ACAD_REACTORS
330
1A
102
}
100
AcDbPlotSettings
  1

  2
none_device
  4

  6

 40
0.0
 41
0.0
 42
0.0
 43
0.0
 44
210.0
 45
297.0
 46
0.0
 47
0.0
 48
0.0
 49
0.0
140
0.0
141
0.0
142
1.0
143
1.0
 70
1024
 72
1
 73
0
 74
0
  7

 75
0
147
1.0
148
0.0
149
0.0
100
AcDbLayout
  1
Model
 70
0
 71
0
 10
0.0
 20
0.0
 11
210.0
 21
297.0
 12
0.0
 22
0.0
 32
0.0
 14
0.0
 24
0.0
 34
0.0
 15
0.0
 25
0.0
 35
0.0
146
0.0
 13
0.0
 23
0.0
 33
0.0
 16
1.0
 26
0.0
 36
0.0
 17
0.0
 27
1.0
 37
0.0
 76
0
330
210
345
0
346
0
  0
LAYOUT
  5
2A6
102
{ACAD_REACTORS
330
1A
102
}
100
AcDbPlotSettings
  1

  2
none_device
  4

  6

 40
0.0
 41
0.0
 42
0.0
 43
0.0
 44
210.0
 45
297.0
 46
0.0
 47
0.0
 48
0.0
 49
0.0
140
0.0
141
0.0
142
1.0
143
1.0
 70
0
 72
1
 73
0
 74
0
  7

 75
0
147
1.0
148
0.0
149
0.0
100
AcDbLayout
  1
Layout1
 70
0
 71
1
 10
0.0
 20
0.0
 11
210.0
 21
297.0
 12
0.0
 22
0.0
 32
0.0
 14
0.0
 24
0.0
 34
0.0
 15
0.0
 25
0.0
 35
0.0
146
0.0
 13
0.0
 23
0.0
 33
0.0
 16
1.0
 26
0.0
 36
0.0
 17
0.0
 27
1.0
 37
0.0
 76
0
330
211
345
0
346
0
  0
ENDSEC
  0
EOF
