999
DXF file: C:\Users\sesa63760\Dev\_Creo\CAD\MCADID0003539_3D-CAD\drw0001_1.dxf
999
Pro/ENGINEER 2019471 by Parametric Technology Corporation
  0
SECTION
  2
HEADER
  9
$ACADVER
  1
AC1024
  9
$DWGCODEPAGE
  3
ANSI_1252
  9
$EXTMAX
 10
59.5793820926
 20
84.2622689595
 30
0.0
  9
$EXTMIN
 10
0.0
 20
0.0
 30
0.0
  9
$LIMMIN
 10
0.0
 20
0.0
  9
$LIMMAX
 10
59.5793820926
 20
84.2622689595
  9
$VIEWCTR
 10
29.7896910463
 20
42.1311344797
  9
$VIEWSIZE
 40
84.2622689595
  9
$CLAYER
  8
0
  9
$LTSCALE
 40
5.4926516062
  9
$CELTYPE
  6
BYLAYER
  9
$DIMSCALE
 40
1.0
  9
$DIMASZ
 40
0.7092783582
  9
$DIMEXO
 40
1.0
  9
$DIMDLI
 40
3.794922928
  9
$DIMEXE
 40
1.0
  9
$DIMCEN
 40
0.8987975356
  9
$DIMLFAC
 40
1.0
  9
$DIMBLK
  1
_FILLED
  9
$DIMALT
 70
0
  9
$DIMALTF
 40
0.0393700787
  9
$DIMTXT
 40
0.9929897015
  9
$DIMTOL
 70
1
  9
$DIMLIM
 70
0
  9
$DIMTFAC
 40
1.0
  9
$DIMTP
 40
0.01
  9
$DIMTM
 40
0.01
  9
$DIMGAP
 40
0.625
  9
$DIMDSEP
 70
46
  9
$AUNITS
 70
0
  9
$PDMODE
 70
3
  9
$PDSIZE
 40
0.3125
  9
$HANDSEED
  5
2C2
  9
$TILEMODE
 70
1
  9
$MEASUREMENT
 70
1
  9
$INSUNITS
 70
4
  0
ENDSEC
  0
SECTION
  2
CLASSES
  0
CLASS
  1
ACDBDICTIONARYWDFLT
  2
AcDbDictionaryWithDefault
  3
AutoCAD 2000
 90
0
 91
1
280
0
281
0
  0
CLASS
  1
ACDBPLACEHOLDER
  2
AcDbPlaceHolder
  3
AutoCAD 2000
 90
0
 91
1
280
0
281
0
  0
CLASS
  1
LAYOUT
  2
AcDbLayout
  3
AutoCAD 2000
 90
0
 91
0
280
0
281
0
  0
ENDSEC
  0
SECTION
  2
TABLES
  0
TABLE
  2
VPORT
  5
8
100
AcDbSymbolTable
 70
2
  0
VPORT
  5
1F4
100
AcDbSymbolTableRecord
100
AcDbViewportTableRecord
  2
*ACTIVE
 70
0
 10
0.0
 20
0.0
 11
1.0
 21
1.0
 12
29.7896910463
 22
42.1311344797
 13
0.0
 23
0.0
 14
1.0
 24
1.0
 15
0.0
 25
0.0
 16
0.0
 26
0.0
 36
1.0
 17
0.0
 27
0.0
 37
0.0
 40
84.2622689595
 41
0.7070707071
 42
50.0
 43
0.0
 44
0.0
 50
0.0
 51
0.0
 71
0
 72
100
 73
1
 74
1
 75
0
 76
0
 77
0
 78
0
  0
ENDTAB
  0
TABLE
  2
LTYPE
  5
5
100
AcDbSymbolTable
 70
6
  0
LTYPE
  5
14
100
AcDbSymbolTableRecord
100
AcDbLinetypeTableRecord
  2
BYBLOCK
 70
0
  3

 72
65
 73
0
 40
0.0
  0
LTYPE
  5
15
100
AcDbSymbolTableRecord
100
AcDbLinetypeTableRecord
  2
BYLAYER
 70
0
  3

 72
65
 73
0
 40
0.0
  0
LTYPE
  5
16
100
AcDbSymbolTableRecord
100
AcDbLinetypeTableRecord
  2
CONTINUOUS
 70
64
  3
Solid line
 72
65
 73
0
 40
0.0
  0
LTYPE
  5
1F5
100
AcDbSymbolTableRecord
100
AcDbLinetypeTableRecord
  2
CENTER
 70
64
  3
____ _ ____ _ ____ _ ____ _ ____ _ ____ _ ____
 72
65
 73
4
 40
0.6
 49
0.375
 74
0
 49
-0.075
 74
0
 49
0.075
 74
0
 49
-0.075
 74
0
  0
LTYPE
  5
1F6
100
AcDbSymbolTableRecord
100
AcDbLinetypeTableRecord
  2
HIDDEN
 70
64
  3
- - - - - - - - - - - - - - - - - - - -
 72
65
 73
2
 40
0.2
 49
0.1
 74
0
 49
-0.1
 74
0
  0
LTYPE
  5
1F7
100
AcDbSymbolTableRecord
100
AcDbLinetypeTableRecord
  2
PHANTOM
 70
64
  3
_____ _ _ _____ _ _ _____ _ _ _____
 72
65
 73
6
 40
0.8
 49
0.45
 74
0
 49
-0.05
 74
0
 49
0.1
 74
0
 49
-0.05
 74
0
 49
0.1
 74
0
 49
-0.05
 74
0
  0
LTYPE
  5
1F8
100
AcDbSymbolTableRecord
100
AcDbLinetypeTableRecord
  2
DOT
 70
64
  3
. . . . . . . . . . . . . . . . . . . .
 72
65
 73
2
 40
0.2
 49
0.1
 74
0
 49
-0.1
 74
0
  0
LTYPE
  5
1F9
100
AcDbSymbolTableRecord
100
AcDbLinetypeTableRecord
  2
DASHED
 70
64
  3
- - - - - - - - - - - - - - - - - - - -
 72
65
 73
2
 40
0.2
 49
0.1
 74
0
 49
-0.1
 74
0
  0
ENDTAB
  0
TABLE
  2
LAYER
  5
2
100
AcDbSymbolTable
 70
36
  0
LAYER
  5
10
100
AcDbSymbolTableRecord
100
AcDbLayerTableRecord
  2
0
 70
0
 62
7
  6
CONTINUOUS
370
-3
390
F
  0
LAYER
  5
1FA
100
AcDbSymbolTableRecord
100
AcDbLayerTableRecord
  2
DEFAULT_1
 70
0
 62
7
  6
CENTER
370
-3
390
F
  0
LAYER
  5
1FB
100
AcDbSymbolTableRecord
100
AcDbLayerTableRecord
  2
DEFAULT_2
 70
0
 62
7
  6
HIDDEN
370
-3
390
F
  0
LAYER
  5
1FC
100
AcDbSymbolTableRecord
100
AcDbLayerTableRecord
  2
DEFAULT_3
 70
0
 62
7
  6
PHANTOM
370
-3
390
F
  0
LAYER
  5
1FD
100
AcDbSymbolTableRecord
100
AcDbLayerTableRecord
  2
00_COMPONENTS
 70
0
 62
7
  6
CONTINUOUS
370
-3
390
F
  0
LAYER
  5
1FE
100
AcDbSymbolTableRecord
100
AcDbLayerTableRecord
  2
01_1_DEFAULT_DATUMS
 70
0
 62
7
  6
CONTINUOUS
370
-3
390
F
  0
LAYER
  5
1FF
100
AcDbSymbolTableRecord
100
AcDbLayerTableRecord
  2
01_PLANES
 70
0
 62
7
  6
CONTINUOUS
370
-3
390
F
  0
LAYER
  5
200
100
AcDbSymbolTableRecord
100
AcDbLayerTableRecord
  2
02_COORD_SYS
 70
0
 62
7
  6
CONTINUOUS
370
-3
390
F
  0
LAYER
  5
201
100
AcDbSymbolTableRecord
100
AcDbLayerTableRecord
  2
03_AXES
 70
0
 62
7
  6
CONTINUOUS
370
-3
390
F
  0
LAYER
  5
202
100
AcDbSymbolTableRecord
100
AcDbLayerTableRecord
  2
04_POINTS
 70
0
 62
7
  6
CONTINUOUS
370
-3
390
F
  0
LAYER
  5
203
100
AcDbSymbolTableRecord
100
AcDbLayerTableRecord
  2
05_CURVES
 70
0
 62
7
  6
CONTINUOUS
370
-3
390
F
  0
LAYER
  5
204
100
AcDbSymbolTableRecord
100
AcDbLayerTableRecord
  2
06_SURFS
 70
0
 62
7
  6
CONTINUOUS
370
-3
390
F
  0
LAYER
  5
205
100
AcDbSymbolTableRecord
100
AcDbLayerTableRecord
  2
07_COSMETICS
 70
0
 62
7
  6
CONTINUOUS
370
-3
390
F
  0
LAYER
  5
206
100
AcDbSymbolTableRecord
100
AcDbLayerTableRecord
  2
10_NOTES
 70
0
 62
7
  6
CONTINUOUS
370
-3
390
F
  0
LAYER
  5
207
100
AcDbSymbolTableRecord
100
AcDbLayerTableRecord
  2
11_NOTES_PUB
 70
0
 62
7
  6
CONTINUOUS
370
-3
390
F
  0
LAYER
  5
208
100
AcDbSymbolTableRecord
100
AcDbLayerTableRecord
  2
13_REF_GTOL
 70
0
 62
7
  6
CONTINUOUS
370
-3
390
F
  0
LAYER
  5
209
100
AcDbSymbolTableRecord
100
AcDbLayerTableRecord
  2
16_MISC
 70
0
 62
7
  6
CONTINUOUS
370
-3
390
F
  0
LAYER
  5
20A
100
AcDbSymbolTableRecord
100
AcDbLayerTableRecord
  2
17_NO_PRINT
 70
0
 62
7
  6
CONTINUOUS
370
-3
390
F
  0
LAYER
  5
20B
100
AcDbSymbolTableRecord
100
AcDbLayerTableRecord
  2
18_DATUM_CAMS_JOINTS
 70
0
 62
7
  6
CONTINUOUS
370
-3
390
F
  0
LAYER
  5
20C
100
AcDbSymbolTableRecord
100
AcDbLayerTableRecord
  2
19_DATUM_FUNCTIONAL
 70
0
 62
7
  6
CONTINUOUS
370
-3
390
F
  0
LAYER
  5
20D
100
AcDbSymbolTableRecord
100
AcDbLayerTableRecord
  2
20_DATUM_KINEMATIC_SCHEME
 70
0
 62
7
  6
CONTINUOUS
370
-3
390
F
  0
ENDTAB
  0
TABLE
  2
STYLE
  5
3
100
AcDbSymbolTable
 70
1
  0
STYLE
  5
11
100
AcDbSymbolTableRecord
100
AcDbTextStyleTableRecord
  2
STANDARD
 70
0
 40
0.0
 41
1.0
 50
0.0
 71
0
 42
0.2
  3
ARIAL.TTF
  4

  0
STYLE
  5
20E
100
AcDbSymbolTableRecord
100
AcDbTextStyleTableRecord
  2
TEXTSTYLE_1
 70
0
 40
0.0
 41
0.8
 50
0.0
 71
0
 42
0.2
  3
gdt
  4

  0
ENDTAB
  0
TABLE
  2
VIEW
  5
6
100
AcDbSymbolTable
 70
0
  0
ENDTAB
  0
TABLE
  2
UCS
  5
7
100
AcDbSymbolTable
 70
0
  0
ENDTAB
  0
TABLE
  2
APPID
  5
9
100
AcDbSymbolTable
 70
1
  0
APPID
  5
20F
100
AcDbSymbolTableRecord
100
AcDbRegAppTableRecord
  2
ACAD
 70
0
  0
ENDTAB
  0
TABLE
  2
BLOCK_RECORD
  5
1
100
AcDbSymbolTable
 70
0
  0
BLOCK_RECORD
  5
210
100
AcDbSymbolTableRecord
100
AcDbBlockTableRecord
  2
*Model_Space
  0
BLOCK_RECORD
  5
211
100
AcDbSymbolTableRecord
100
AcDbBlockTableRecord
  2
*Paper_Space
  0
BLOCK_RECORD
  5
212
100
AcDbSymbolTableRecord
100
AcDbBlockTableRecord
  2
_FILLED
  0
ENDTAB
  0
TABLE
  2
DIMSTYLE
  5
A
100
AcDbSymbolTable
 70
1
100
AcDbDimStyleTable
 71
0
  0
DIMSTYLE
105
213
100
AcDbSymbolTableRecord
100
AcDbDimStyleTableRecord
  2
STANDARD
 70
0
  3

  4

 40
1.0
 41
0.7092783582
 42
1.0
 43
0.38
 44
1.0
 45
0.0
 46
0.0
 47
0.01
 48
0.01
140
0.9929897015
141
0.09
142
0.0
143
25.4
144
1.0
145
0.0
146
1.0
147
0.625
 71
1
 72
0
 73
0
 74
0
 75
0
 76
0
 77
1
 78
8
 79
2
170
0
171
1
172
0
173
0
174
0
175
0
176
0
177
0
178
0
270
2
179
2
271
2
272
2
273
2
274
2
275
0
280
0
281
0
282
0
283
1
284
8
285
0
286
0
287
3
288
0
340
11
278
46
341
212
342
212
343
212
344
212
  0
ENDTAB
  0
ENDSEC
  0
SECTION
  2
BLOCKS
  0
BLOCK
  5
20
100
AcDbEntity
  8
0
100
AcDbBlockBegin
  2
*Model_Space
 70
0
 10
0.0
 20
0.0
 30
0.0
  3
*Model_Space
  1

  0
ENDBLK
  5
21
100
AcDbEntity
  8
0
100
AcDbBlockEnd
  0
BLOCK
  5
1C
100
AcDbEntity
  8
0
100
AcDbBlockBegin
  2
*Paper_Space
 70
0
 10
0.0
 20
0.0
 30
0.0
  3
*Paper_Space
  1

  0
ENDBLK
  5
1D
100
AcDbEntity
  8
0
100
AcDbBlockEnd
  0
BLOCK
  5
214
100
AcDbEntity
  8
0
100
AcDbBlockBegin
  2
_FILLED
 70
64
 10
0.0
 20
0.0
  3
_FILLED
  1

  0
SOLID
  5
215
100
AcDbEntity
  8
0
  6
BYBLOCK
 62
0
100
AcDbTrace
 10
0.0
 20
0.0
 11
-1.0
 21
0.25
 12
-1.0
 22
-0.25
 13
-1.0
 23
-0.25
  0
ENDBLK
  5
216
100
AcDbEntity
  8
0
  6
BYBLOCK
 62
0
100
AcDbBlockEnd
  0
ENDSEC
  0
SECTION
  2
ENTITIES
  0
LINE
  5
217
100
AcDbEntity
  8
0
100
AcDbLine
 62
7
  6
BYLAYER
 10
28.147630931
 20
77.6933155078
 11
25.6020571171
 21
76.2236365539
  0
LINE
  5
218
100
AcDbEntity
  8
0
100
AcDbLine
 62
7
  6
BYLAYER
 10
25.3520261879
 20
70.3817814176
 11
26.4862174733
 21
71.036602001
  0
LINE
  5
219
100
AcDbEntity
  8
0
100
AcDbLine
 62
7
  6
BYLAYER
 10
23.7748310411
 20
67.1647214875
 11
13.5113544662
 21
61.2391358951
  0
LINE
  5
21A
100
AcDbEntity
  8
0
100
AcDbLine
 62
7
  6
BYLAYER
 10
28.5769344704
 20
69.8295535381
 11
27.4427449118
 21
69.1747316506
  0
LINE
  5
21B
100
AcDbEntity
  8
0
100
AcDbLine
 62
7
  6
BYLAYER
 10
26.4879201131
 20
68.3057853891
 11
26.1541930135
 21
68.1492648903
  0
LINE
  5
21C
100
AcDbEntity
  8
0
100
AcDbLine
 62
7
  6
BYLAYER
 10
31.1890975949
 20
11.8410010099
 11
13.5113544662
 21
22.0470198729
  0
LINE
  5
21D
100
AcDbEntity
  8
0
100
AcDbLine
 62
7
  6
BYLAYER
 10
26.5928843814
 20
16.3726247343
 11
21.6431163054
 21
19.2303100159
  0
LINE
  5
21E
100
AcDbEntity
  8
0
100
AcDbLine
 62
7
  6
BYLAYER
 10
21.7845370728
 20
19.3119588467
 11
26.7343051488
 21
16.454273565
  0
LINE
  5
21F
100
AcDbEntity
  8
0
100
AcDbLine
 62
7
  6
BYLAYER
 10
21.6431163054
 20
20.8633148502
 11
26.5928843814
 21
18.0056295685
  0
LWPOLYLINE
  5
220
100
AcDbEntity
  8
0
100
AcDbPolyline
 62
7
  6
BYLAYER
 90
4
 70
0
 10
23.7748310411
 20
63.5567708112
 10
22.6851655273
 20
62.6383756734
 10
22.0330989963
 20
61.0377130074
 10
22.0248310411
 20
60.8310883203
  0
LWPOLYLINE
  5
221
100
AcDbEntity
  8
0
100
AcDbPolyline
 62
7
  6
BYLAYER
 90
10
 70
0
 10
23.7748310411
 20
63.4630008747
 10
23.1428784523
 20
62.930437047
 10
22.5330057633
 20
61.4379911593
 10
22.9000414808
 20
59.9102440144
 10
24.1988816977
 20
58.5641126838
 10
25.1443262094
 20
58.018579957
 10
27.4675678866
 20
57.2712354099
 10
30.1028542977
 20
57.0578998627
 10
32.6920552907
 20
57.4074119204
 10
34.9013765484
 20
58.2795940586
  0
LINE
  5
222
100
AcDbEntity
  8
0
100
AcDbLine
 62
7
  6
BYLAYER
 10
17.4993895213
 20
58.3501946934
 11
17.3579687539
 21
58.2685458627
  0
LINE
  5
223
100
AcDbEntity
  8
0
100
AcDbLine
 62
7
  6
BYLAYER
 10
33.9476049651
 20
67.6474058326
 11
32.3606400202
 21
66.7311766636
  0
LINE
  5
224
100
AcDbEntity
  8
0
100
AcDbLine
 62
7
  6
BYLAYER
 10
36.669178829
 20
16.229828878
 11
36.8813117465
 21
16.1073566517
  0
LINE
  5
225
100
AcDbEntity
  8
0
100
AcDbLine
 62
7
  6
BYLAYER
 10
13.5113544662
 20
22.0470198729
 11
13.5113544662
 21
61.2391358951
  0
LINE
  5
226
100
AcDbEntity
  8
0
100
AcDbLine
 62
7
  6
BYLAYER
 10
17.3579687539
 20
56.499518425
 11
17.3579687539
 21
58.2685458627
  0
LINE
  5
227
100
AcDbEntity
  8
0
100
AcDbLine
 62
7
  6
BYLAYER
 10
26.3795367697
 20
74.6306407184
 11
26.2748808196
 21
74.1400777185
  0
LINE
  5
228
100
AcDbEntity
  8
0
100
AcDbLine
 62
7
  6
BYLAYER
 10
23.9111591068
 20
53.0427104062
 11
23.6283175719
 21
52.8794127447
  0
LINE
  5
229
100
AcDbEntity
  8
0
100
AcDbLine
 62
7
  6
BYLAYER
 10
22.2377884002
 20
52.0668495271
 11
22.0963676328
 21
51.9852006963
  0
LINE
  5
22A
100
AcDbEntity
  8
0
100
AcDbLine
 62
7
  6
BYLAYER
 10
22.0248310411
 20
59.7999245282
 11
22.0248310411
 21
60.8310883203
  0
LWPOLYLINE
  5
22B
100
AcDbEntity
  8
0
100
AcDbPolyline
 62
7
  6
BYLAYER
 90
4
 70
0
 10
34.9013765484
 20
58.2795940586
 10
36.4067836299
 20
59.5482420106
 10
37.0166563189
 20
61.0406878984
 10
36.6496206014
 20
62.5684350432
  0
LINE
  5
22C
100
AcDbEntity
  8
0
100
AcDbLine
 62
7
  6
BYLAYER
 10
22.7851876055
 20
49.6536281073
 11
22.6437668381
 21
49.5719792765
  0
LINE
  5
22D
100
AcDbEntity
  8
0
100
AcDbLine
 62
7
  6
BYLAYER
 10
23.1069069856
 20
48.5379281326
 11
22.9654862182
 21
48.4562793019
  0
LINE
  5
22E
100
AcDbEntity
  8
0
100
AcDbLine
 62
7
  6
BYLAYER
 10
23.4600918486
 20
47.5799138861
 11
23.3186710811
 21
47.4982650553
  0
LINE
  5
22F
100
AcDbEntity
  8
0
100
AcDbLine
 62
7
  6
BYLAYER
 10
23.6283175719
 20
53.6836890277
 11
23.6283175719
 21
52.8794127447
  0
LINE
  5
230
100
AcDbEntity
  8
0
100
AcDbLine
 62
7
  6
BYLAYER
 10
23.7748310411
 20
61.2393395288
 11
23.7748310411
 21
70.9117115409
  0
LINE
  5
231
100
AcDbEntity
  8
0
100
AcDbLine
 62
7
  6
BYLAYER
 10
23.9111591068
 20
53.5203940856
 11
23.9111591068
 21
53.0427104062
  0
LINE
  5
232
100
AcDbEntity
  8
0
100
AcDbLine
 62
7
  6
BYLAYER
 10
24.32484158
 20
52.4772835185
 11
24.32484158
 21
53.2815598015
  0
LINE
  5
233
100
AcDbEntity
  8
0
100
AcDbLine
 62
7
  6
BYLAYER
 10
26.5236079866
 20
51.2078538601
 11
26.1393946425
 21
49.6510107704
  0
LINE
  5
234
100
AcDbEntity
  8
0
100
AcDbLine
 62
7
  6
BYLAYER
 10
26.1393946425
 20
49.6510107704
 11
25.5918730097
 21
47.8699278903
  0
LINE
  5
235
100
AcDbEntity
  8
0
100
AcDbLine
 62
7
  6
BYLAYER
 10
25.5918730097
 20
47.8699278903
 11
25.2701238282
 21
47.1257262584
  0
LINE
  5
236
100
AcDbEntity
  8
0
100
AcDbLine
 62
7
  6
BYLAYER
 10
25.2701238282
 20
47.1257262584
 11
24.9169236618
 21
46.5755343727
  0
LINE
  5
237
100
AcDbEntity
  8
0
100
AcDbLine
 62
7
  6
BYLAYER
 10
30.736199388
 20
50.7080918412
 11
30.5947786206
 21
50.6264430104
  0
LINE
  5
238
100
AcDbEntity
  8
0
100
AcDbLine
 62
7
  6
BYLAYER
 10
24.259216528
 20
46.4281770619
 11
24.1177957606
 21
46.3465282311
  0
LINE
  5
239
100
AcDbEntity
  8
0
100
AcDbLine
 62
7
  6
BYLAYER
 10
30.736199388
 20
48.9390644035
 11
30.5947786206
 21
48.8574155727
  0
LINE
  5
23A
100
AcDbEntity
  8
0
100
AcDbLine
 62
7
  6
BYLAYER
 10
22.9654862182
 20
48.4562793019
 11
22.6437668381
 21
49.5719792765
  0
LINE
  5
23B
100
AcDbEntity
  8
0
100
AcDbLine
 62
7
  6
BYLAYER
 10
22.7851876055
 20
49.6536281073
 11
23.1069069856
 21
48.5379281326
  0
LINE
  5
23C
100
AcDbEntity
  8
0
100
AcDbLine
 62
7
  6
BYLAYER
 10
22.6437668381
 20
49.5719792765
 11
22.0963676328
 21
51.9852006963
  0
LINE
  5
23D
100
AcDbEntity
  8
0
100
AcDbLine
 62
7
  6
BYLAYER
 10
22.2377884002
 20
52.0668495271
 11
22.7851876055
 21
49.6536281073
  0
LINE
  5
23E
100
AcDbEntity
  8
0
100
AcDbLine
 62
7
  6
BYLAYER
 10
22.0963676328
 20
51.9852006963
 11
21.712374036
 21
53.9855582365
  0
LINE
  5
23F
100
AcDbEntity
  8
0
100
AcDbLine
 62
7
  6
BYLAYER
 10
21.8890486474
 20
53.8835574097
 11
22.2377884002
 21
52.0668495271
  0
LINE
  5
240
100
AcDbEntity
  8
0
100
AcDbLine
 62
7
  6
BYLAYER
 10
26.2748310411
 20
71.7282139581
 11
26.2748310411
 21
74.1400777195
  0
LINE
  5
241
100
AcDbEntity
  8
0
100
AcDbLine
 62
7
  6
BYLAYER
 10
34.7246462206
 20
48.9919132595
 11
46.038307616
 21
55.5238197214
  0
LINE
  5
242
100
AcDbEntity
  8
0
100
AcDbLine
 62
7
  6
BYLAYER
 10
23.3186710811
 20
47.4982650553
 11
22.9654862182
 21
48.4562793019
  0
LINE
  5
243
100
AcDbEntity
  8
0
100
AcDbLine
 62
7
  6
BYLAYER
 10
23.1069069856
 20
48.5379281326
 11
23.4600918486
 21
47.5799138861
  0
LINE
  5
244
100
AcDbEntity
  8
0
100
AcDbLine
 62
7
  6
BYLAYER
 10
30.5947786206
 20
50.6264430104
 11
30.5947786206
 21
48.8574155727
  0
LINE
  5
245
100
AcDbEntity
  8
0
100
AcDbLine
 62
7
  6
BYLAYER
 10
30.6245514986
 20
69.6046757033
 11
30.6245514986
 21
72.1798357666
  0
LINE
  5
246
100
AcDbEntity
  8
0
100
AcDbLine
 62
7
  6
BYLAYER
 10
30.736199388
 20
50.7080918412
 11
30.736199388
 21
48.9390644035
  0
LINE
  5
247
100
AcDbEntity
  8
0
100
AcDbLine
 62
7
  6
BYLAYER
 10
32.3606400202
 20
61.6244531677
 11
32.3606400202
 21
67.7858647861
  0
LINE
  5
248
100
AcDbEntity
  8
0
100
AcDbLine
 62
7
  6
BYLAYER
 10
33.2200567726
 20
66.9253634287
 11
33.2200567726
 21
67.2273581951
  0
LINE
  5
249
100
AcDbEntity
  8
0
100
AcDbLine
 62
7
  6
BYLAYER
 10
44.8290094567
 20
15.5475965012
 11
42.2606949461
 21
20.8223600015
  0
LINE
  5
24A
100
AcDbEntity
  8
0
100
AcDbLine
 62
7
  6
BYLAYER
 10
34.7246462206
 20
48.9919132595
 11
34.7246462206
 21
13.8823093229
  0
LINE
  5
24B
100
AcDbEntity
  8
0
100
AcDbLine
 62
7
  6
BYLAYER
 10
35.1890553691
 20
69.4188414016
 11
35.1890553691
 21
63.2574297832
  0
LINE
  5
24C
100
AcDbEntity
  8
0
100
AcDbLine
 62
7
  6
BYLAYER
 10
35.6085260171
 20
14.3926145153
 11
35.6085260171
 21
21.74123953
  0
LINE
  5
24D
100
AcDbEntity
  8
0
100
AcDbLine
 62
7
  6
BYLAYER
 10
35.7748310411
 20
61.2393395288
 11
35.7748310411
 21
70.9117115409
  0
LINE
  5
24E
100
AcDbEntity
  8
0
100
AcDbLine
 62
7
  6
BYLAYER
 10
37.821512468
 20
14.1191206415
 11
37.8007154998
 21
14.2869867588
  0
LINE
  5
24F
100
AcDbEntity
  8
0
100
AcDbLine
 62
7
  6
BYLAYER
 10
36.669178829
 20
21.292148097
 11
36.669178829
 21
16.229828878
  0
LINE
  5
250
100
AcDbEntity
  8
0
100
AcDbLine
 62
7
  6
BYLAYER
 10
36.8813117465
 20
21.414622363
 11
36.8813117465
 21
16.1073566517
  0
LINE
  5
251
100
AcDbEntity
  8
0
100
AcDbLine
 62
7
  6
BYLAYER
 10
37.5248310411
 20
59.7999245282
 11
37.5248310411
 21
60.8310883203
  0
LINE
  5
252
100
AcDbEntity
  8
0
100
AcDbLine
 62
7
  6
BYLAYER
 10
30.5947786206
 20
48.8574155727
 11
24.32484158
 21
52.4772835185
  0
LINE
  5
253
100
AcDbEntity
  8
0
100
AcDbLine
 62
7
  6
BYLAYER
 10
23.6283175719
 20
52.8794127447
 11
17.3579687539
 21
56.499518425
  0
LINE
  5
254
100
AcDbEntity
  8
0
100
AcDbLine
 62
7
  6
BYLAYER
 10
24.32484158
 20
53.2815598015
 11
23.6283175719
 21
53.6836890277
  0
LINE
  5
255
100
AcDbEntity
  8
0
100
AcDbLine
 62
7
  6
BYLAYER
 10
17.3579687539
 20
58.2685458627
 11
30.5947786206
 21
50.6264430104
  0
LINE
  5
256
100
AcDbEntity
  8
0
100
AcDbLine
 62
7
  6
BYLAYER
 10
17.4993895213
 20
58.3501946934
 11
30.736199388
 21
50.7080918412
  0
LINE
  5
257
100
AcDbEntity
  8
0
100
AcDbLine
 62
7
  6
BYLAYER
 10
46.9950101562
 20
8.8042440982
 11
44.8290094567
 21
15.5475965012
  0
LINE
  5
258
100
AcDbEntity
  8
0
100
AcDbLine
 62
7
  6
BYLAYER
 10
43.5987982
 20
25.2929418248
 11
43.5987982
 21
19.9856761134
  0
LINE
  5
259
100
AcDbEntity
  8
0
100
AcDbLine
 62
7
  6
BYLAYER
 10
44.8008729569
 20
25.9869558665
 11
44.8008729569
 21
18.3285052081
  0
LINE
  5
25A
100
AcDbEntity
  8
0
100
AcDbLine
 62
7
  6
BYLAYER
 10
45.0130058745
 20
26.1094301325
 11
45.0130058745
 21
27.1708860967
  0
LINE
  5
25B
100
AcDbEntity
  8
0
100
AcDbLine
 62
7
  6
BYLAYER
 10
45.1544278195
 20
27.2525356073
 11
45.1544278195
 21
19.9039105925
  0
LINE
  5
25C
100
AcDbEntity
  8
0
100
AcDbLine
 62
7
  6
BYLAYER
 10
46.038307616
 20
20.4142157849
 11
46.038307616
 21
55.5238197214
  0
LINE
  5
25D
100
AcDbEntity
  8
0
100
AcDbLine
 62
7
  6
BYLAYER
 10
21.6431163054
 20
19.2303100159
 11
21.7845370728
 21
19.3119588467
  0
LINE
  5
25E
100
AcDbEntity
  8
0
100
AcDbLine
 62
7
  6
BYLAYER
 10
36.6496206014
 20
62.5684350432
 11
35.3507803846
 21
63.9145663739
  0
LINE
  5
25F
100
AcDbEntity
  8
0
100
AcDbLine
 62
7
  6
BYLAYER
 10
35.0855552341
 20
69.5908434579
 11
35.1890553691
 21
69.4188414016
  0
LINE
  5
260
100
AcDbEntity
  8
0
100
AcDbLine
 62
7
  6
BYLAYER
 10
35.6085260171
 20
21.74123953
 11
45.1544278195
 21
27.2525356073
  0
LINE
  5
261
100
AcDbEntity
  8
0
100
AcDbLine
 62
7
  6
BYLAYER
 10
26.7343051488
 20
16.454273565
 11
26.5928843814
 21
16.3726247343
  0
LINE
  5
262
100
AcDbEntity
  8
0
100
AcDbLine
 62
7
  6
BYLAYER
 10
45.0130058745
 20
26.1094301325
 11
43.5987982
 21
25.2929418248
  0
LINE
  5
263
100
AcDbEntity
  8
0
100
AcDbLine
 62
7
  6
BYLAYER
 10
35.6085260171
 20
20.6797835659
 11
36.8813117465
 21
21.414622363
  0
LINE
  5
264
100
AcDbEntity
  8
0
100
AcDbLine
 62
7
  6
BYLAYER
 10
35.1890553691
 20
63.2574297832
 11
32.3606400202
 21
64.890379204
  0
LINE
  5
265
100
AcDbEntity
  8
0
100
AcDbLine
 62
7
  6
BYLAYER
 10
33.2200567726
 20
66.9253634287
 11
32.9585178942
 21
67.0763595546
  0
LINE
  5
266
100
AcDbEntity
  8
0
100
AcDbLine
 62
7
  6
BYLAYER
 10
31.6010072068
 20
69.0409314909
 11
30.3916414237
 21
69.7391433556
  0
LINE
  5
267
100
AcDbEntity
  8
0
100
AcDbLine
 62
7
  6
BYLAYER
 10
26.2748310411
 20
72.1159311681
 11
25.1202395265
 21
72.7825198096
  0
LINE
  5
268
100
AcDbEntity
  8
0
100
AcDbLine
 62
7
  6
BYLAYER
 10
36.8813117465
 20
16.1073566517
 11
37.8134626475
 21
16.6455310087
  0
LINE
  5
269
100
AcDbEntity
  8
0
100
AcDbLine
 62
7
  6
BYLAYER
 10
42.8723078236
 20
19.5662391995
 11
43.5987982
 21
19.9856761134
  0
LINE
  5
26A
100
AcDbEntity
  8
0
100
AcDbLine
 62
7
  6
BYLAYER
 10
30.6245514986
 20
72.1798357666
 11
26.3795367697
 21
74.6306407184
  0
LINE
  5
26B
100
AcDbEntity
  8
0
100
AcDbLine
 62
7
  6
BYLAYER
 10
46.038307616
 20
20.4142157849
 11
45.1544278195
 21
19.9039105925
  0
LINE
  5
26C
100
AcDbEntity
  8
0
100
AcDbLine
 62
7
  6
BYLAYER
 10
35.6085260171
 20
14.3926145153
 11
34.7246462206
 21
13.8823093229
  0
LINE
  5
26D
100
AcDbEntity
  8
0
100
AcDbLine
 62
7
  6
BYLAYER
 10
43.7659065574
 20
17.7309803302
 11
44.8008729569
 21
18.3285052081
  0
LINE
  5
26E
100
AcDbEntity
  8
0
100
AcDbLine
 62
7
  6
BYLAYER
 10
35.2549711545
 20
12.8172091308
 11
37.8007151046
 21
14.286987512
  0
LINE
  5
26F
100
AcDbEntity
  8
0
100
AcDbLine
 62
7
  6
BYLAYER
 10
45.0027477981
 20
18.1252860767
 11
43.8874438825
 21
17.4813689045
  0
LINE
  5
270
100
AcDbEntity
  8
0
100
AcDbLine
 62
7
  6
BYLAYER
 10
37.8697795812
 20
14.0070895389
 11
33.6890864027
 21
11.5933796148
  0
ARC
  5
271
100
AcDbEntity
  8
0
100
AcDbCircle
 62
7
  6
BYLAYER
 10
-122.0027215131
 20
-24.7855953167
 40
179.993118228
100
AcDbArc
 50
30.9510484338
 51
31.4180439627
  0
ARC
  5
272
100
AcDbEntity
  8
0
100
AcDbCircle
 62
7
  6
BYLAYER
 10
28.2386530715
 20
71.323152947
 40
0.9386913486
100
AcDbArc
 50
180.0000844695
 51
180.172490585
  0
ARC
  5
273
100
AcDbEntity
  8
0
100
AcDbCircle
 62
7
  6
BYLAYER
 10
24.5837256041
 20
46.9052180133
 40
0.539443893
100
AcDbArc
 50
283.8951335081
 51
287.0540026943
  0
SPLINE
  5
274
100
AcDbEntity
  8
0
100
AcDbSpline
 62
7
  6
BYLAYER
 70
0
 71
3
 72
13
 73
9
 74
0
 42
0.0000001
 43
0.0000001
 44
0.0000000001
 40
0.0
 40
0.0
 40
0.0
 40
0.0
 40
0.2688728436
 40
0.5217316996
 40
0.6438477791
 40
0.7638187995
 40
0.882304139
 40
1.0
 40
1.0
 40
1.0
 40
1.0
 10
28.1102423955
 20
70.1579879195
 30
0.0
 10
28.1102423955
 20
70.1061686881
 30
0.0
 10
28.0993490482
 20
70.0051399613
 30
0.0
 10
28.0553970834
 20
69.8874944209
 30
0.0
 10
28.0044584785
 20
69.8065346793
 30
0.0
 10
27.9596425319
 20
69.7531262735
 30
0.0
 10
27.9085166637
 20
69.7070108903
 30
0.0
 10
27.8706443145
 20
69.6814425533
 30
0.0
 10
27.8510009986
 20
69.670099281
 30
0.0
  0
SPLINE
  5
275
100
AcDbEntity
  8
0
100
AcDbSpline
 62
7
  6
BYLAYER
 70
0
 71
3
 72
9
 73
5
 74
0
 42
0.0000001
 43
0.0000001
 44
0.0000000001
 40
0.0
 40
0.0
 40
0.0
 40
0.0
 40
0.4880630641
 40
1.0
 40
1.0
 40
1.0
 40
1.0
 10
24.4008077283
 20
73.5684780925
 30
0.0
 10
24.4008077283
 20
73.3936263511
 30
0.0
 10
24.4179468466
 20
73.0352374689
 30
0.0
 10
24.4650932539
 20
72.6796739314
 30
0.0
 10
24.4960381197
 20
72.4988986485
 30
0.0
  0
SPLINE
  5
276
100
AcDbEntity
  8
0
100
AcDbSpline
 62
7
  6
BYLAYER
 70
0
 71
3
 72
15
 73
11
 74
0
 42
0.0000001
 43
0.0000001
 44
0.0000000001
 40
0.0
 40
0.0
 40
0.0
 40
0.0
 40
0.1485890993
 40
0.2895059594
 40
0.4227210292
 40
0.5486420784
 40
0.6680002927
 40
0.7819374504
 40
0.8919870704
 40
1.0
 40
1.0
 40
1.0
 40
1.0
 10
35.1488543539
 20
70.302564294
 30
0.0
 10
35.1488543539
 20
70.1515091567
 30
0.0
 10
35.136676761
 20
69.8569954906
 30
0.0
 10
35.0787032011
 20
69.4305043109
 30
0.0
 10
34.9818540725
 20
69.0346492851
 30
0.0
 10
34.8469091688
 20
68.6732571032
 30
0.0
 10
34.6748753068
 20
68.3498208118
 30
0.0
 10
34.467105904
 20
68.0676450914
 30
0.0
 10
34.225534566
 20
67.8298846551
 30
0.0
 10
34.0426954557
 20
67.7023153659
 30
0.0
 10
33.9476027477
 20
67.647409666
 30
0.0
  0
SPLINE
  5
277
100
AcDbEntity
  8
0
100
AcDbSpline
 62
7
  6
BYLAYER
 70
0
 71
3
 72
15
 73
11
 74
0
 42
0.0000001
 43
0.0000001
 44
0.0000000001
 40
0.0
 40
0.0
 40
0.0
 40
0.0
 40
0.1080125108
 40
0.2180618041
 40
0.3319988074
 40
0.4513570645
 40
0.5772781942
 40
0.7104934887
 40
0.8514108557
 40
1.0
 40
1.0
 40
1.0
 40
1.0
 10
25.6020594131
 20
76.2236325822
 30
0.0
 10
25.5069670541
 20
76.1687271355
 30
0.0
 10
25.3241285439
 20
76.0411583522
 30
0.0
 10
25.0825575268
 20
75.8033989128
 30
0.0
 10
24.8747882958
 20
75.5212236157
 30
0.0
 10
24.7027542073
 20
75.1977875189
 30
0.0
 10
24.567808522
 20
74.8363952548
 30
0.0
 10
24.4709591231
 20
74.4405394326
 30
0.0
 10
24.4129854944
 20
74.0140474843
 30
0.0
 10
24.4008077283
 20
73.7195332713
 30
0.0
 10
24.4008077283
 20
73.5684780925
 30
0.0
  0
SPLINE
  5
278
100
AcDbEntity
  8
0
100
AcDbSpline
 62
7
  6
BYLAYER
 70
0
 71
3
 72
26
 73
22
 74
0
 42
0.0000001
 43
0.0000001
 44
0.0000000001
 40
0.0
 40
0.0
 40
0.0
 40
0.0
 40
0.0217678075
 40
0.0436768712
 40
0.0658636127
 40
0.0884564823
 40
0.111571274
 40
0.1353103133
 40
0.1849541638
 40
0.2379287846
 40
0.2944872072
 40
0.3546677833
 40
0.4183297748
 40
0.485186881
 40
0.5548364763
 40
0.6267848798
 40
0.700469717
 40
0.7752797969
 40
0.8505735901
 40
0.9256969961
 40
1.0
 40
1.0
 40
1.0
 40
1.0
 10
28.1476331485
 20
77.6933116745
 30
0.0
 10
28.2029274072
 20
77.725238097
 30
0.0
 10
28.3171382742
 20
77.7838255481
 30
0.0
 10
28.4971567787
 20
77.85474354
 30
0.0
 10
28.6855109743
 20
77.9086363888
 30
0.0
 10
28.8815408227
 20
77.9452837517
 30
0.0
 10
29.0845898382
 20
77.9646345884
 30
0.0
 10
29.3679174345
 20
77.9673195247
 30
0.0
 10
29.7377539384
 20
77.9252037916
 30
0.0
 10
30.1907457873
 20
77.8067989912
 30
0.0
 10
30.6541044272
 20
77.6217503067
 30
0.0
 10
31.1219946496
 20
77.3726279477
 30
0.0
 10
31.5886022642
 20
77.0627194768
 30
0.0
 10
32.0480242958
 20
76.6960354392
 30
0.0
 10
32.494407471
 20
76.2773009416
 30
0.0
 10
32.9220234038
 20
75.8119117562
 30
0.0
 10
33.3253631343
 20
75.3058736691
 30
0.0
 10
33.6992172967
 20
74.7657308487
 30
0.0
 10
34.0387567021
 20
74.1984607583
 30
0.0
 10
34.3395682935
 20
73.6114422875
 30
0.0
 10
34.5131805609
 20
73.2085608626
 30
0.0
 10
34.5924300588
 20
73.005533883
 30
0.0
  0
SPLINE
  5
279
100
AcDbEntity
  8
0
100
AcDbSpline
 62
7
  6
BYLAYER
 70
0
 71
3
 72
11
 73
7
 74
0
 42
0.0000001
 43
0.0000001
 44
0.0000000001
 40
0.0
 40
0.0
 40
0.0
 40
0.0
 40
0.2657605137
 40
0.5225895703
 40
0.7680060394
 40
1.0
 40
1.0
 40
1.0
 40
1.0
 10
34.5924300588
 20
73.005533883
 30
0.0
 10
34.68179329
 20
72.7765968246
 30
0.0
 10
34.8399994351
 20
72.3193088406
 30
0.0
 10
35.015474508
 20
71.6302147822
 30
0.0
 10
35.1229836713
 20
70.9588314925
 30
0.0
 10
35.1488543539
 20
70.517098908
 30
0.0
 10
35.1488543539
 20
70.302564294
 30
0.0
  0
SPLINE
  5
27A
100
AcDbEntity
  8
0
100
AcDbSpline
 62
7
  6
BYLAYER
 70
0
 71
3
 72
25
 73
21
 74
0
 42
0.0000001
 43
0.0000001
 44
0.0000000001
 40
0.0
 40
0.0
 40
0.0
 40
0.0
 40
0.017273394
 40
0.0349812389
 40
0.0730676243
 40
0.0940898497
 40
0.1166469808
 40
0.1666964863
 40
0.2234215753
 40
0.2863172431
 40
0.354386489
 40
0.426353911
 40
0.500859887
 40
0.5765742481
 40
0.652273413
 40
0.7269001831
 40
0.7995625198
 40
0.8695541767
 40
0.9364508691
 40
1.0
 40
1.0
 40
1.0
 40
1.0
 10
26.8510005358
 20
71.4021616898
 30
0.0
 10
26.8607224653
 20
71.4077763196
 30
0.0
 10
26.8813697597
 20
71.4175694399
 30
0.0
 10
26.9270881772
 20
71.431001398
 30
0.0
 10
26.9775882027
 20
71.4341667662
 30
0.0
 10
27.0304296351
 20
71.4287775679
 30
0.0
 10
27.0901891881
 20
71.416805015
 30
0.0
 10
27.1701592545
 20
71.389889654
 30
0.0
 10
27.2698052903
 20
71.3422075744
 30
0.0
 10
27.3743978956
 20
71.2791146231
 30
0.0
 10
27.4815884444
 20
71.2020499502
 30
0.0
 10
27.588714316
 20
71.1126063926
 30
0.0
 10
27.6929250154
 20
71.0124635842
 30
0.0
 10
27.7913420616
 20
70.9033135338
 30
0.0
 10
27.8811683657
 20
70.7868591838
 30
0.0
 10
27.9596860493
 20
70.6648042267
 30
0.0
 10
28.0243432932
 20
70.5389696186
 30
0.0
 10
28.0727351589
 20
70.4112989384
 30
0.0
 10
28.102940823
 20
70.2841818395
 30
0.0
 10
28.1102423955
 20
70.199291348
 30
0.0
 10
28.1102423955
 20
70.1579879195
 30
0.0
  0
SPLINE
  5
27B
100
AcDbEntity
  8
0
100
AcDbSpline
 62
7
  6
BYLAYER
 70
0
 71
3
 72
10
 73
6
 74
0
 42
0.0000001
 43
0.0000001
 44
0.0000000001
 40
0.0
 40
0.0
 40
0.0
 40
0.0
 40
0.4826280003
 40
0.7370979814
 40
1.0
 40
1.0
 40
1.0
 40
1.0
 10
32.4750891433
 20
67.7321262249
 30
0.0
 10
32.5191253823
 20
67.9052786257
 30
0.0
 10
32.5669414281
 20
68.1749979774
 30
0.0
 10
32.598155785
 20
68.5439665
 30
0.0
 10
32.60328054
 20
68.7355614922
 30
0.0
 10
32.60328054
 20
68.83288534
 30
0.0
  0
SPLINE
  5
27C
100
AcDbEntity
  8
0
100
AcDbSpline
 62
7
  6
BYLAYER
 70
0
 71
3
 72
15
 73
11
 74
0
 42
0.0000001
 43
0.0000001
 44
0.0000000001
 40
0.0
 40
0.0
 40
0.0
 40
0.0
 40
0.1160898056
 40
0.2417907553
 40
0.3740012183
 40
0.5089533258
 40
0.6426382716
 40
0.7711527655
 40
0.8910948198
 40
1.0
 40
1.0
 40
1.0
 40
1.0
 10
27.2999659767
 20
71.320326994
 30
0.0
 10
27.3001486291
 20
71.2596262797
 30
0.0
 10
27.312539152
 20
71.1331086468
 30
0.0
 10
27.3605317915
 20
70.9429420316
 30
0.0
 10
27.4366627239
 20
70.7515454456
 30
0.0
 10
27.5376332525
 20
70.5672910645
 30
0.0
 10
27.659038435
 20
70.3981690845
 30
0.0
 10
27.7956513899
 20
70.2515131217
 30
0.0
 10
27.9415170533
 20
70.1336961615
 30
0.0
 10
28.046549778
 20
70.0746086597
 30
0.0
 10
28.0989392582
 20
70.0522928556
 30
0.0
  0
SPLINE
  5
27D
100
AcDbEntity
  8
0
100
AcDbSpline
 62
7
  6
BYLAYER
 70
0
 71
3
 72
32
 73
28
 74
0
 42
0.0000001
 43
0.0000001
 44
0.0000000001
 40
0.0
 40
0.0
 40
0.0
 40
0.0
 40
0.0306624614
 40
0.0623963692
 40
0.0951150349
 40
0.1287402288
 40
0.1983159092
 40
0.27027402
 40
0.3436327573
 40
0.4173456839
 40
0.4903514665
 40
0.5616199241
 40
0.6302000717
 40
0.6632305803
 40
0.6952958462
 40
0.726323537
 40
0.7562580192
 40
0.7850615044
 40
0.8127187409
 40
0.8392375405
 40
0.864654531
 40
0.8890352052
 40
0.9124790113
 40
0.9351180637
 40
0.9571180262
 40
0.9786731991
 40
1.0
 40
1.0
 40
1.0
 40
1.0
 10
32.60328054
 20
68.83288534
 30
0.0
 10
32.60328054
 20
68.9511838946
 30
0.0
 10
32.5954637716
 20
69.1919689476
 30
0.0
 10
32.5618741872
 20
69.5575785082
 30
0.0
 10
32.506327988
 20
69.9320672466
 30
0.0
 10
32.4022683859
 20
70.4462299608
 30
0.0
 10
32.218451303
 20
71.0977097939
 30
0.0
 10
31.9211000645
 20
71.8727466833
 30
0.0
 10
31.5507849865
 20
72.6334783693
 30
0.0
 10
31.1154245636
 20
73.3636201221
 30
0.0
 10
30.6242889747
 20
74.0476284957
 30
0.0
 10
30.0878882495
 20
74.6708678678
 30
0.0
 10
29.6066277744
 20
75.1343796739
 30
0.0
 10
29.2082652019
 20
75.4622615092
 30
0.0
 10
28.9093581044
 20
75.6821143627
 30
0.0
 10
28.6082191767
 20
75.8777763474
 30
0.0
 10
28.3064567716
 20
76.0482051354
 30
0.0
 10
28.0056689908
 20
76.1924556333
 30
0.0
 10
27.707467948
 20
76.3097671245
 30
0.0
 10
27.4134181991
 20
76.3994484985
 30
0.0
 10
27.125092072
 20
76.4610249554
 30
0.0
 10
26.8440100048
 20
76.4940636957
 30
0.0
 10
26.5716865702
 20
76.4983647578
 30
0.0
 10
26.309610739
 20
76.4737760133
 30
0.0
 10
26.0592384079
 20
76.4203781672
 30
0.0
 10
25.8220701379
 20
76.3383893411
 30
0.0
 10
25.6733153672
 20
76.2647751097
 30
0.0
 10
25.6020594131
 20
76.2236325822
 30
0.0
  0
SPLINE
  5
27E
100
AcDbEntity
  8
0
100
AcDbSpline
 62
7
  6
BYLAYER
 70
0
 71
3
 72
25
 73
21
 74
0
 42
0.0000001
 43
0.0000001
 44
0.0000000001
 40
0.0
 40
0.0
 40
0.0
 40
0.0
 40
0.0217946618
 40
0.0437295254
 40
0.0659399836
 40
0.0885513694
 40
0.1353807992
 40
0.1850127587
 40
0.2379451755
 40
0.2944358582
 40
0.3545302212
 40
0.4180961972
 40
0.4848587542
 40
0.5544271295
 40
0.6263179609
 40
0.6999822511
 40
0.7748196067
 40
0.850192266
 40
0.9254821093
 40
1.0
 40
1.0
 40
1.0
 40
1.0
 10
26.2748316156
 20
74.1400777184
 30
0.0
 10
26.274831823
 20
74.1018300843
 30
0.0
 10
26.2786148914
 20
74.025035343
 30
0.0
 10
26.2956224523
 20
73.9103993592
 30
0.0
 10
26.3238873061
 20
73.7965210674
 30
0.0
 10
26.3770186413
 20
73.64450121
 30
0.0
 10
26.4725749305
 20
73.4574038557
 30
0.0
 10
26.6282901918
 20
73.2452945902
 30
0.0
 10
26.824136364
 20
73.04525086
 30
0.0
 10
27.0574856856
 20
72.8596618342
 30
0.0
 10
27.3253425041
 20
72.6906839779
 30
0.0
 10
27.6243129844
 20
72.5403438564
 30
0.0
 10
27.9506292664
 20
72.4104868264
 30
0.0
 10
28.3001671042
 20
72.3027394881
 30
0.0
 10
28.6684898239
 20
72.2184413885
 30
0.0
 10
29.0509168749
 20
72.1586628148
 30
0.0
 10
29.4425669322
 20
72.1241728882
 30
0.0
 10
29.8384874837
 20
72.1153917395
 30
0.0
 10
30.233557588
 20
72.1324660253
 30
0.0
 10
30.4951234766
 20
72.16113493
 30
0.0
 10
30.6245514986
 20
72.1798357666
 30
0.0
  0
SPLINE
  5
27F
100
AcDbEntity
  8
0
100
AcDbSpline
 62
7
  6
BYLAYER
 70
0
 71
3
 72
15
 73
11
 74
0
 42
0.0000001
 43
0.0000001
 44
0.0000000001
 40
0.0
 40
0.0
 40
0.0
 40
0.0
 40
0.1640788393
 40
0.3165272097
 40
0.4565514419
 40
0.5842392437
 40
0.7003266771
 40
0.8064644125
 40
0.9052033478
 40
1.0
 40
1.0
 40
1.0
 40
1.0
 10
26.6960229452
 20
70.9744694285
 30
0.0
 10
26.6960229452
 20
71.0004155146
 30
0.0
 10
26.6974743649
 20
71.0504870268
 30
0.0
 10
26.7045054377
 20
71.1224033726
 30
0.0
 10
26.7163333244
 20
71.1878721366
 30
0.0
 10
26.73299703
 20
71.2463566498
 30
0.0
 10
26.7546042313
 20
71.2974775082
 30
0.0
 10
26.7812682289
 20
71.3409396943
 30
0.0
 10
26.8131073183
 20
71.3764228112
 30
0.0
 10
26.8380194631
 20
71.3946648325
 30
0.0
 10
26.8510005358
 20
71.4021616898
 30
0.0
  0
SPLINE
  5
280
100
AcDbEntity
  8
0
100
AcDbSpline
 62
7
  6
BYLAYER
 70
0
 71
3
 72
23
 73
19
 74
0
 42
0.0000001
 43
0.0000001
 44
0.0000000001
 40
0.0
 40
0.0
 40
0.0
 40
0.0
 40
0.0497050671
 40
0.1000567356
 40
0.1517567952
 40
0.2054768515
 40
0.2618037532
 40
0.3211587988
 40
0.3836942349
 40
0.4492831134
 40
0.5175549333
 40
0.5879211723
 40
0.6596013065
 40
0.7316601014
 40
0.8029968015
 40
0.8723605989
 40
0.9384747151
 40
1.0
 40
1.0
 40
1.0
 40
1.0
 10
27.8510009986
 20
69.670099281
 30
0.0
 10
27.8215535226
 20
69.6530944768
 30
0.0
 10
27.7584486093
 20
69.6250603969
 30
0.0
 10
27.656142062
 20
69.6035419438
 30
0.0
 10
27.5488301236
 20
69.6034969784
 30
0.0
 10
27.4396647781
 20
69.6253910852
 30
0.0
 10
27.3316493322
 20
69.669075778
 30
0.0
 10
27.2275996837
 20
69.7336490235
 30
0.0
 10
27.1298451391
 20
69.8173598112
 30
0.0
 10
27.040170665
 20
69.9178888804
 30
0.0
 10
26.9598652844
 20
70.0325651501
 30
0.0
 10
26.8897619438
 20
70.1584710382
 30
0.0
 10
26.8302673862
 20
70.2925129119
 30
0.0
 10
26.7815572326
 20
70.4315096566
 30
0.0
 10
26.7436590844
 20
70.5721723221
 30
0.0
 10
26.7165248105
 20
70.7111547994
 30
0.0
 10
26.7000909731
 20
70.8450325658
 30
0.0
 10
26.6960229452
 20
70.9323782133
 30
0.0
 10
26.6960229452
 20
70.9744694285
 30
0.0
  0
SPLINE
  5
281
100
AcDbEntity
  8
0
100
AcDbSpline
 62
7
  6
BYLAYER
 70
0
 71
3
 72
24
 73
20
 74
0
 42
0.0000001
 43
0.0000001
 44
0.0000000001
 40
0.0
 40
0.0
 40
0.0
 40
0.0
 40
0.0672777076
 40
0.1393179466
 40
0.2149070906
 40
0.2928649925
 40
0.4506242591
 40
0.5278349993
 40
0.6022086411
 40
0.6725522483
 40
0.7378125454
 40
0.7971173905
 40
0.8498456125
 40
0.8957526687
 40
0.9162329669
 40
0.9351816055
 40
0.969128544
 40
0.9847767827
 40
1.0
 40
1.0
 40
1.0
 40
1.0
 10
45.9505595221
 20
7.4899373547
 30
0.0
 10
45.8300218131
 20
7.4203452913
 30
0.0
 10
45.5743434955
 20
7.2866127234
 30
0.0
 10
45.167026331
 20
7.1077075621
 30
0.0
 10
44.7287910598
 20
6.9463745806
 30
0.0
 10
44.1125790313
 20
6.7583223772
 30
0.0
 10
43.4787434456
 20
6.6192897686
 30
0.0
 10
42.8442736559
 20
6.5336259898
 30
0.0
 10
42.386190345
 20
6.4986040142
 30
0.0
 10
41.9514972041
 20
6.4930207019
 30
0.0
 10
41.5485764434
 20
6.516879766
 30
0.0
 10
41.1850427598
 20
6.5696737404
 30
0.0
 10
40.8677434191
 20
6.6504575427
 30
0.0
 10
40.6381608983
 20
6.7431691339
 30
0.0
 10
40.485237405
 20
6.8320743783
 30
0.0
 10
40.3628386417
 20
6.9220697636
 30
0.0
 10
40.2641921602
 20
7.0273239113
 30
0.0
 10
40.1998299696
 20
7.1456452002
 30
0.0
 10
40.1796792814
 20
7.2067001404
 30
0.0
 10
40.1726302341
 20
7.2373950719
 30
0.0
  0
SPLINE
  5
282
100
AcDbEntity
  8
0
100
AcDbSpline
 62
7
  6
BYLAYER
 70
0
 71
3
 72
9
 73
5
 74
0
 42
0.0000001
 43
0.0000001
 44
0.0000000001
 40
0.0
 40
0.0
 40
0.0
 40
0.0
 40
0.494109457
 40
1.0
 40
1.0
 40
1.0
 40
1.0
 10
21.1431465199
 20
20.9127906723
 30
0.0
 10
21.1617825147
 20
20.9235501003
 30
0.0
 10
21.2017018576
 20
20.9417122549
 30
0.0
 10
21.2443132198
 20
20.9519611159
 30
0.0
 10
21.2661003294
 20
20.9552371668
 30
0.0
  0
SPLINE
  5
283
100
AcDbEntity
  8
0
100
AcDbSpline
 62
7
  6
BYLAYER
 70
0
 71
3
 72
11
 73
7
 74
0
 42
0.0000001
 43
0.0000001
 44
0.0000000001
 40
0.0
 40
0.0
 40
0.0
 40
0.0
 40
0.2218428031
 40
0.4609607584
 40
0.7203682409
 40
1.0
 40
1.0
 40
1.0
 40
1.0
 10
21.2661003294
 20
20.9552371668
 30
0.0
 10
21.2949745206
 20
20.9595788772
 30
0.0
 10
21.3561365038
 20
20.9617149616
 30
0.0
 10
21.4502082274
 20
20.9465064225
 30
0.0
 10
21.5476077131
 20
20.9136023787
 30
0.0
 10
21.6112421195
 20
20.8817170036
 30
0.0
 10
21.6431163054
 20
20.8633148502
 30
0.0
  0
SPLINE
  5
284
100
AcDbEntity
  8
0
100
AcDbSpline
 62
7
  6
BYLAYER
 70
0
 71
3
 72
15
 73
11
 74
0
 42
0.0000001
 43
0.0000001
 44
0.0000000001
 40
0.0
 40
0.0
 40
0.0
 40
0.0
 40
0.108643096
 40
0.2237350632
 40
0.3457314564
 40
0.4738263886
 40
0.6062833272
 40
0.7405870928
 40
0.8733899617
 40
1.0
 40
1.0
 40
1.0
 40
1.0
 10
27.4430430992
 20
69.2143987391
 30
0.0
 10
27.3696308939
 20
69.2416321681
 30
0.0
 10
27.2254151906
 20
69.3180068657
 30
0.0
 10
27.0365689421
 20
69.4832802068
 30
0.0
 10
26.8749844971
 20
69.6928077133
 30
0.0
 10
26.743073826
 20
69.9359721148
 30
0.0
 10
26.6401942001
 20
70.2019651083
 30
0.0
 10
26.5642636905
 20
70.4801750407
 30
0.0
 10
26.51289269
 20
70.7595209362
 30
0.0
 10
26.4926362607
 20
70.9455785178
 30
0.0
 10
26.4862150742
 20
71.0366021422
 30
0.0
  0
SPLINE
  5
285
100
AcDbEntity
  8
0
100
AcDbSpline
 62
7
  6
BYLAYER
 70
0
 71
3
 72
13
 73
9
 74
0
 42
0.0000001
 43
0.0000001
 44
0.0000000001
 40
0.0
 40
0.0
 40
0.0
 40
0.0
 40
0.1123920533
 40
0.226208512
 40
0.3427777446
 40
0.463266117
 40
0.7193774949
 40
1.0
 40
1.0
 40
1.0
 40
1.0
 10
35.7748088862
 20
70.9117115176
 30
0.0
 10
35.7748075031
 20
71.0043703418
 30
0.0
 10
35.7617964882
 20
71.1911188048
 30
0.0
 10
35.7033636179
 20
71.4684463031
 30
0.0
 10
35.6065992393
 20
71.7419235171
 30
0.0
 10
35.4238746199
 20
72.1061610332
 30
0.0
 10
35.0966131357
 20
72.5436309925
 30
0.0
 10
34.7664146269
 20
72.8419343589
 30
0.0
 10
34.5834337489
 20
72.9835035976
 30
0.0
  0
SPLINE
  5
286
100
AcDbEntity
  8
0
100
AcDbSpline
 62
7
  6
BYLAYER
 70
0
 71
3
 72
9
 73
5
 74
0
 42
0.0000001
 43
0.0000001
 44
0.0000000001
 40
0.0
 40
0.0
 40
0.0
 40
0.0
 40
0.2752734624
 40
1.0
 40
1.0
 40
1.0
 40
1.0
 10
35.6085260171
 20
14.3926145153
 30
0.0
 10
35.6085260171
 20
14.2436442076
 30
0.0
 10
35.5833184299
 20
13.7040656126
 30
0.0
 10
35.4448903358
 20
13.1603605868
 30
0.0
 10
35.2549711545
 20
12.8172091308
 30
0.0
  0
SPLINE
  5
287
100
AcDbEntity
  8
0
100
AcDbSpline
 62
7
  6
BYLAYER
 70
0
 71
3
 72
14
 73
10
 74
0
 42
0.0000001
 43
0.0000001
 44
0.0000000001
 40
0.0
 40
0.0
 40
0.0
 40
0.0
 40
0.111089422
 40
0.2237708412
 40
0.3395299419
 40
0.4596456254
 40
0.5851561253
 40
0.716810641
 40
1.0
 40
1.0
 40
1.0
 40
1.0
 10
37.5248165662
 20
60.8310883198
 30
0.0
 10
37.5248052337
 20
60.9586460568
 30
0.0
 10
37.5056417002
 20
61.2159826211
 30
0.0
 10
37.419895858
 20
61.5976139887
 30
0.0
 10
37.2778966256
 20
61.9731460743
 30
0.0
 10
37.0810927599
 20
62.3397010699
 30
0.0
 10
36.830991389
 20
62.6946470652
 30
0.0
 10
36.4195511032
 20
63.1603111904
 30
0.0
 10
36.0507918252
 20
63.4674103709
 30
0.0
 10
35.785576039
 20
63.6555496499
 30
0.0
  0
SPLINE
  5
288
100
AcDbEntity
  8
0
100
AcDbSpline
 62
7
  6
BYLAYER
 70
0
 71
3
 72
15
 73
11
 74
0
 42
0.0000001
 43
0.0000001
 44
0.0000000001
 40
0.0
 40
0.0
 40
0.0
 40
0.0
 40
0.1485251574
 40
0.289499659
 40
0.4227398928
 40
0.5486431049
 40
0.667993794
 40
0.7819381439
 40
0.8919874623
 40
1.0
 40
1.0
 40
1.0
 40
1.0
 10
31.1890975949
 20
11.8410010099
 30
0.0
 10
31.3018199466
 20
11.7759222021
 30
0.0
 10
31.5269539248
 20
11.658117934
 30
0.0
 10
31.8703283992
 20
11.5175029547
 30
0.0
 10
32.2076595687
 20
11.4191882685
 30
0.0
 10
32.5356212145
 20
11.3641529642
 30
0.0
 10
32.8512155718
 20
11.3532379904
 30
0.0
 10
33.1514355024
 20
11.3866572767
 30
0.0
 10
33.4330459985
 20
11.4645869928
 30
0.0
 10
33.60710695
 20
11.5460589047
 30
0.0
 10
33.6890821347
 20
11.5933870072
 30
0.0
  0
SPLINE
  5
289
100
AcDbEntity
  8
0
100
AcDbSpline
 62
7
  6
BYLAYER
 70
0
 71
3
 72
14
 73
10
 74
0
 42
0.0000001
 43
0.0000001
 44
0.0000000001
 40
0.0
 40
0.0
 40
0.0
 40
0.0
 40
0.2892446709
 40
0.4225665754
 40
0.5485149142
 40
0.6678912233
 40
0.7818650594
 40
0.8919547978
 40
1.0
 40
1.0
 40
1.0
 40
1.0
 10
19.8753419925
 20
51.033053028
 30
0.0
 10
19.8753419925
 20
50.8303296498
 30
0.0
 10
19.8516374938
 20
50.5327149304
 30
0.0
 10
19.7601877321
 20
50.1586357693
 30
0.0
 10
19.6670904859
 20
49.9093631429
 30
0.0
 10
19.5484457838
 20
49.6863372755
 30
0.0
 10
19.4051360431
 20
49.4917667571
 30
0.0
 10
19.238580621
 20
49.327746319
 30
0.0
 10
19.1124611376
 20
49.2397955168
 30
0.0
 10
19.0468802474
 20
49.2019333209
 30
0.0
  0
SPLINE
  5
28A
100
AcDbEntity
  8
0
100
AcDbSpline
 62
7
  6
BYLAYER
 70
0
 71
3
 72
14
 73
10
 74
0
 42
0.0000001
 43
0.0000001
 44
0.0000000001
 40
0.0
 40
0.0
 40
0.0
 40
0.0
 40
0.2892446709
 40
0.4225665754
 40
0.5485149142
 40
0.6678912233
 40
0.7818650594
 40
0.8919547978
 40
1.0
 40
1.0
 40
1.0
 40
1.0
 10
34.0175364955
 20
42.8682379376
 30
0.0
 10
34.0175364955
 20
42.6655145594
 30
0.0
 10
33.9938319967
 20
42.36789984
 30
0.0
 10
33.902382235
 20
41.9938206789
 30
0.0
 10
33.8092849889
 20
41.7445480525
 30
0.0
 10
33.6906402868
 20
41.5215221851
 30
0.0
 10
33.547330546
 20
41.3269516667
 30
0.0
 10
33.3807751239
 20
41.1629312286
 30
0.0
 10
33.2546556405
 20
41.0749804264
 30
0.0
 10
33.1890747503
 20
41.0371182305
 30
0.0
  0
SPLINE
  5
28B
100
AcDbEntity
  8
0
100
AcDbSpline
 62
7
  6
BYLAYER
 70
0
 71
3
 72
9
 73
5
 74
0
 42
0.0000001
 43
0.0000001
 44
0.0000000001
 40
0.0
 40
0.0
 40
0.0
 40
0.0
 40
0.2568941738
 40
1.0
 40
1.0
 40
1.0
 40
1.0
 10
24.9169236618
 20
46.5755343727
 30
0.0
 10
24.9106163792
 20
46.5639366485
 30
0.0
 10
24.8847607197
 20
46.5195202461
 30
0.0
 10
24.8535015956
 20
46.4781844391
 30
0.0
 10
24.8274481259
 20
46.450263652
 30
0.0
  0
SPLINE
  5
28C
100
AcDbEntity
  8
0
100
AcDbSpline
 62
7
  6
BYLAYER
 70
0
 71
3
 72
9
 73
5
 74
0
 42
0.0000001
 43
0.0000001
 44
0.0000000001
 40
0.0
 40
0.0
 40
0.0
 40
0.0
 40
0.2536673192
 40
1.0
 40
1.0
 40
1.0
 40
1.0
 10
24.8274481259
 20
46.450263652
 30
0.0
 10
24.8185442196
 20
46.4407215805
 30
0.0
 10
24.7821427503
 20
46.4043437617
 30
0.0
 10
24.7403510599
 20
46.3733317683
 30
0.0
 10
24.7070946128
 20
46.3541366049
 30
0.0
  0
SPLINE
  5
28D
100
AcDbEntity
  8
0
100
AcDbSpline
 62
7
  6
BYLAYER
 70
0
 71
3
 72
13
 73
9
 74
0
 42
0.0000001
 43
0.0000001
 44
0.0000000001
 40
0.0
 40
0.0
 40
0.0
 40
0.0
 40
0.1141759018
 40
0.2375697245
 40
0.4999990825
 40
0.762428944
 40
0.8858232992
 40
1.0
 40
1.0
 40
1.0
 40
1.0
 10
26.5928843814
 20
18.0056295685
 30
0.0
 10
26.6412569695
 20
17.9777022736
 30
0.0
 10
26.7368552387
 20
17.9106223424
 30
0.0
 10
26.9159490721
 20
17.7431615462
 30
0.0
 10
27.1049486975
 20
17.4847753248
 30
0.0
 10
27.2342192259
 20
17.19190409
 30
0.0
 10
27.2896993596
 20
16.9530733756
 30
0.0
 10
27.2999941066
 20
16.8367423253
 30
0.0
 10
27.2999941066
 20
16.7808863969
 30
0.0
  0
SPLINE
  5
28E
100
AcDbEntity
  8
0
100
AcDbSpline
 62
7
  6
BYLAYER
 70
0
 71
3
 72
11
 73
7
 74
0
 42
0.0000001
 43
0.0000001
 44
0.0000000001
 40
0.0
 40
0.0
 40
0.0
 40
0.0
 40
0.2796329527
 40
0.5390409393
 40
0.7781584564
 40
1.0
 40
1.0
 40
1.0
 40
1.0
 10
27.2999941066
 20
16.7808863969
 30
0.0
 10
27.2999941066
 20
16.7440795215
 30
0.0
 10
27.2957907925
 20
16.6730241005
 30
0.0
 10
27.2755861331
 20
16.5722164955
 30
0.0
 10
27.2417194206
 20
16.4831395923
 30
0.0
 10
27.209286381
 20
16.4312378415
 30
0.0
 10
27.1910880514
 20
16.4084022712
 30
0.0
  0
SPLINE
  5
28F
100
AcDbEntity
  8
0
100
AcDbSpline
 62
7
  6
BYLAYER
 70
0
 71
3
 72
9
 73
5
 74
0
 42
0.0000001
 43
0.0000001
 44
0.0000000001
 40
0.0
 40
0.0
 40
0.0
 40
0.0
 40
0.505890155
 40
1.0
 40
1.0
 40
1.0
 40
1.0
 10
27.1910880514
 20
16.4084022712
 30
0.0
 10
27.177357582
 20
16.3911730471
 30
0.0
 10
27.1471768302
 20
16.3593966761
 30
0.0
 10
27.1114894477
 20
16.333907928
 30
0.0
 10
27.0928541669
 20
16.3231489122
 30
0.0
  0
SPLINE
  5
290
100
AcDbEntity
  8
0
100
AcDbSpline
 62
7
  6
BYLAYER
 70
0
 71
3
 72
23
 73
19
 74
0
 42
0.0000001
 43
0.0000001
 44
0.0000000001
 40
0.0
 40
0.0
 40
0.0
 40
0.0
 40
0.0428128193
 40
0.0873951844
 40
0.1351788108
 40
0.1870868571
 40
0.2435338694
 40
0.304491145
 40
0.3695872333
 40
0.4381952679
 40
0.5094925316
 40
0.5825271006
 40
0.6562688194
 40
0.7296592198
 40
0.8016473989
 40
0.8712454268
 40
0.9376267986
 40
1.0
 40
1.0
 40
1.0
 40
1.0
 10
15.0469259365
 20
56.1300987712
 30
0.0
 10
15.1455382776
 20
56.1870312065
 30
0.0
 10
15.3629093812
 20
56.2773959568
 30
0.0
 10
15.7217486161
 20
56.3299867673
 30
0.0
 10
16.1070771807
 20
56.3015939344
 30
0.0
 10
16.5103610341
 20
56.1944843587
 30
0.0
 10
16.9236556099
 20
56.0118135691
 30
0.0
 10
17.3387373732
 20
55.7578507013
 30
0.0
 10
17.7472135
 20
55.4381037847
 30
0.0
 10
18.1405466862
 20
55.0592755279
 30
0.0
 10
18.5104838069
 20
54.6294311073
 30
0.0
 10
18.8492123089
 20
54.1577364127
 30
0.0
 10
19.1494566504
 20
53.6541882053
 30
0.0
 10
19.4048223944
 20
53.1295439835
 30
0.0
 10
19.6099318471
 20
52.5950429002
 30
0.0
 10
19.7603762941
 20
52.0618887354
 30
0.0
 10
19.852798171
 20
51.5416083747
 30
0.0
 10
19.8753419925
 20
51.1989437604
 30
0.0
 10
19.8753419925
 20
51.033053028
 30
0.0
  0
SPLINE
  5
291
100
AcDbEntity
  8
0
100
AcDbSpline
 62
7
  6
BYLAYER
 70
0
 71
3
 72
9
 73
5
 74
0
 42
0.0000001
 43
0.0000001
 44
0.0000000001
 40
0.0
 40
0.0
 40
0.0
 40
0.0
 40
0.4884543365
 40
1.0
 40
1.0
 40
1.0
 40
1.0
 10
37.1289232817
 20
62.2595294176
 30
0.0
 10
38.6718464543
 20
61.2940043882
 30
0.0
 10
41.7380383301
 20
59.1667585135
 30
0.0
 10
44.6150075913
 20
56.791769457
 30
0.0
 10
46.038307616
 20
55.5238197214
 30
0.0
  0
SPLINE
  5
292
100
AcDbEntity
  8
0
100
AcDbSpline
 62
7
  6
BYLAYER
 70
0
 71
3
 72
15
 73
11
 74
0
 42
0.0000001
 43
0.0000001
 44
0.0000000001
 40
0.0
 40
0.0
 40
0.0
 40
0.0
 40
0.148525705
 40
0.2895006365
 40
0.4227411389
 40
0.5486444378
 40
0.6679950214
 40
0.7819390827
 40
0.8919879708
 40
1.0
 40
1.0
 40
1.0
 40
1.0
 10
46.038307616
 20
20.4142157849
 30
0.0
 10
46.038307616
 20
20.2840519934
 30
0.0
 10
46.0277642392
 20
20.0301703502
 30
0.0
 10
45.9778550109
 20
19.6624804453
 30
0.0
 10
45.8943328965
 20
19.3211752144
 30
0.0
 10
45.7780131146
 20
19.0096250283
 30
0.0
 10
45.6296663047
 20
18.730846712
 30
0.0
 10
45.4506108165
 20
18.4875516961
 30
0.0
 10
45.2423116772
 20
18.2826298733
 30
0.0
 10
45.084720521
 20
18.1726226244
 30
0.0
 10
45.0027435301
 20
18.1252934692
 30
0.0
  0
SPLINE
  5
293
100
AcDbEntity
  8
0
100
AcDbSpline
 62
7
  6
BYLAYER
 70
0
 71
3
 72
23
 73
19
 74
0
 42
0.0000001
 43
0.0000001
 44
0.0000000001
 40
0.0
 40
0.0
 40
0.0
 40
0.0
 40
0.0428128193
 40
0.0873951844
 40
0.1351788108
 40
0.1870868571
 40
0.2435338694
 40
0.304491145
 40
0.3695872333
 40
0.4381952679
 40
0.5094925316
 40
0.5825271006
 40
0.6562688194
 40
0.7296592198
 40
0.8016473989
 40
0.8712454268
 40
0.9376267986
 40
1.0
 40
1.0
 40
1.0
 40
1.0
 10
29.1891204394
 20
47.9652836808
 30
0.0
 10
29.2877327806
 20
48.0222161161
 30
0.0
 10
29.5051038841
 20
48.1125808664
 30
0.0
 10
29.8639431191
 20
48.1651716769
 30
0.0
 10
30.2492716836
 20
48.136778844
 30
0.0
 10
30.652555537
 20
48.0296692683
 30
0.0
 10
31.0658501128
 20
47.8469984787
 30
0.0
 10
31.4809318762
 20
47.5930356109
 30
0.0
 10
31.8894080029
 20
47.2732886943
 30
0.0
 10
32.2827411891
 20
46.8944604375
 30
0.0
 10
32.6526783098
 20
46.4646160169
 30
0.0
 10
32.9914068118
 20
45.9929213223
 30
0.0
 10
33.2916511533
 20
45.4893731149
 30
0.0
 10
33.5470168973
 20
44.9647288931
 30
0.0
 10
33.75212635
 20
44.4302278098
 30
0.0
 10
33.902570797
 20
43.897073645
 30
0.0
 10
33.9949926739
 20
43.3767932843
 30
0.0
 10
34.0175364955
 20
43.03412867
 30
0.0
 10
34.0175364955
 20
42.8682379376
 30
0.0
  0
SPLINE
  5
294
100
AcDbEntity
  8
0
100
AcDbSpline
 62
7
  6
BYLAYER
 70
0
 71
3
 72
9
 73
5
 74
0
 42
0.0000001
 43
0.0000001
 44
0.0000000001
 40
0.0
 40
0.0
 40
0.0
 40
0.0
 40
0.5037764745
 40
1.0
 40
1.0
 40
1.0
 40
1.0
 10
30.3916414237
 20
69.7391433556
 30
0.0
 10
30.0872508021
 20
69.7076804323
 30
0.0
 10
29.4774445004
 20
69.6919356584
 30
0.0
 10
28.8719067448
 20
69.7675209629
 30
0.0
 10
28.5769344704
 20
69.8295535381
 30
0.0
  0
SPLINE
  5
295
100
AcDbEntity
  8
0
100
AcDbSpline
 62
7
  6
BYLAYER
 70
0
 71
3
 72
10
 73
6
 74
0
 42
0.0000001
 43
0.0000001
 44
0.0000000001
 40
0.0
 40
0.0
 40
0.0
 40
0.0
 40
0.5131534105
 40
0.7583896209
 40
1.0
 40
1.0
 40
1.0
 40
1.0
 10
26.4862174733
 20
71.036602001
 30
0.0
 10
26.4194469281
 20
71.1424301964
 30
0.0
 10
26.3386415214
 20
71.3120579421
 30
0.0
 10
26.2839042025
 20
71.5503653159
 30
0.0
 10
26.2748243519
 20
71.669297681
 30
0.0
 10
26.2748326298
 20
71.7282139581
 30
0.0
  0
SPLINE
  5
296
100
AcDbEntity
  8
0
100
AcDbSpline
 62
7
  6
BYLAYER
 70
0
 71
3
 72
10
 73
6
 74
0
 42
0.0000001
 43
0.0000001
 44
0.0000000001
 40
0.0
 40
0.0
 40
0.0
 40
0.0
 40
0.2414811209
 40
0.4895406092
 40
1.0
 40
1.0
 40
1.0
 40
1.0
 10
40.1726221359
 20
7.2373932118
 30
0.0
 10
40.0414131934
 20
7.8087036825
 30
0.0
 10
39.7435254785
 20
8.9598220129
 30
0.0
 10
39.0153246333
 20
11.2761871104
 30
0.0
 10
38.3323778066
 20
12.990196323
 30
0.0
 10
37.8213979724
 20
14.1190484229
 30
0.0
  0
SPLINE
  5
297
100
AcDbEntity
  8
0
100
AcDbSpline
 62
7
  6
BYLAYER
 70
0
 71
3
 72
11
 73
7
 74
0
 42
0.0000001
 43
0.0000001
 44
0.0000000001
 40
0.0
 40
0.0
 40
0.0
 40
0.0
 40
0.2677663864
 40
0.5210012301
 40
0.7633560527
 40
1.0
 40
1.0
 40
1.0
 40
1.0
 10
24.3606067131
 20
72.4045816802
 30
0.0
 10
24.2676097131
 20
72.2921601527
 30
0.0
 10
24.1012633915
 20
72.060611483
 30
0.0
 10
23.9141377172
 20
71.6869955993
 30
0.0
 10
23.8003838824
 20
71.3023164484
 30
0.0
 10
23.7748512714
 20
71.0406542891
 30
0.0
 10
23.774853196
 20
70.9117115178
 30
0.0
  0
SPLINE
  5
298
100
AcDbEntity
  8
0
100
AcDbSpline
 62
7
  6
BYLAYER
 70
0
 71
3
 72
9
 73
5
 74
0
 42
0.0000001
 43
0.0000001
 44
0.0000000001
 40
0.0
 40
0.0
 40
0.0
 40
0.0
 40
0.2501036716
 40
1.0
 40
1.0
 40
1.0
 40
1.0
 10
25.1202395265
 20
72.7825198096
 30
0.0
 10
25.0564942285
 20
72.7518604583
 30
0.0
 10
24.8021211443
 20
72.6282292247
 30
0.0
 10
24.5494407123
 20
72.5011378194
 30
0.0
 10
24.3606067131
 20
72.4045816802
 30
0.0
  0
SPLINE
  5
299
100
AcDbEntity
  8
0
100
AcDbSpline
 62
7
  6
BYLAYER
 70
0
 71
3
 72
10
 73
6
 74
0
 42
0.0000001
 43
0.0000001
 44
0.0000000001
 40
0.0
 40
0.0
 40
0.0
 40
0.0
 40
0.5033893203
 40
0.7531656045
 40
1.0
 40
1.0
 40
1.0
 40
1.0
 10
27.4427454494
 20
69.1747311925
 30
0.0
 10
27.3117975642
 20
69.0006475129
 30
0.0
 10
27.0920676445
 20
68.7566680497
 30
0.0
 10
26.7596435742
 20
68.4789043428
 30
0.0
 10
26.5804120667
 20
68.3591882847
 30
0.0
 10
26.4879111833
 20
68.3057750685
 30
0.0
  0
SPLINE
  5
29A
100
AcDbEntity
  8
0
100
AcDbSpline
 62
7
  6
BYLAYER
 70
0
 71
3
 72
15
 73
11
 74
0
 42
0.0000001
 43
0.0000001
 44
0.0000000001
 40
0.0
 40
0.0
 40
0.0
 40
0.0
 40
0.0852416838
 40
0.1763089977
 40
0.2778022332
 40
0.3925844562
 40
0.5221462316
 40
0.6669379019
 40
0.8266479833
 40
1.0
 40
1.0
 40
1.0
 40
1.0
 10
46.995002058
 20
8.8042422381
 30
0.0
 10
47.0063017025
 20
8.7550381693
 30
0.0
 10
47.0142704199
 20
8.6491899234
 30
0.0
 10
46.9808108141
 20
8.4863911564
 30
0.0
 10
46.9043781466
 20
8.3198301643
 30
0.0
 10
46.7871496851
 20
8.1508891425
 30
0.0
 10
46.6305734497
 20
7.9809987678
 30
0.0
 10
46.4365321587
 20
7.8117457054
 30
0.0
 10
46.207320193
 20
7.6452357353
 30
0.0
 10
46.0394733733
 20
7.5412714842
 30
0.0
 10
45.9505595221
 20
7.4899373547
 30
0.0
  0
SPLINE
  5
29B
100
AcDbEntity
  8
0
100
AcDbSpline
 62
7
  6
BYLAYER
 70
0
 71
3
 72
15
 73
11
 74
0
 42
0.0000001
 43
0.0000001
 44
0.0000000001
 40
0.0
 40
0.0
 40
0.0
 40
0.0
 40
0.1386484274
 40
0.2738240653
 40
0.4052115706
 40
0.5326149816
 40
0.6558683223
 40
0.7748613859
 40
0.8895729646
 40
1.0
 40
1.0
 40
1.0
 40
1.0
 10
34.7246462206
 20
48.9919132595
 30
0.0
 10
33.8718956664
 20
49.7515878333
 30
0.0
 10
32.153500074
 20
51.2140476696
 30
0.0
 10
29.5098386138
 20
53.2537199162
 30
0.0
 10
26.8421864667
 20
55.1041545288
 30
0.0
 10
24.162431566
 20
56.7570774935
 30
0.0
 10
21.4821540238
 20
58.2054744019
 30
0.0
 10
18.8127140825
 20
59.4429063641
 30
0.0
 10
16.1660339222
 20
60.4636726656
 30
0.0
 10
14.3908552329
 20
61.0071039161
 30
0.0
 10
13.5113544662
 20
61.2391358951
 30
0.0
  0
SPLINE
  5
29C
100
AcDbEntity
  8
0
100
AcDbSpline
 62
7
  6
BYLAYER
 70
0
 71
3
 72
14
 73
10
 74
0
 42
0.0000001
 43
0.0000001
 44
0.0000000001
 40
0.0
 40
0.0
 40
0.0
 40
0.0
 40
0.2892446709
 40
0.4225665754
 40
0.5485149142
 40
0.6678912233
 40
0.7818650594
 40
0.8919547978
 40
1.0
 40
1.0
 40
1.0
 40
1.0
 10
14.2184641913
 20
54.2989790642
 30
0.0
 10
14.2184641913
 20
54.5017024424
 30
0.0
 10
14.2421686901
 20
54.7993171618
 30
0.0
 10
14.3336184518
 20
55.1733963228
 30
0.0
 10
14.4267156979
 20
55.4226689492
 30
0.0
 10
14.5453604
 20
55.6456948166
 30
0.0
 10
14.6886701408
 20
55.840265335
 30
0.0
 10
14.8552255628
 20
56.0042857731
 30
0.0
 10
14.9813450463
 20
56.0922365753
 30
0.0
 10
15.0469259365
 20
56.1300987712
 30
0.0
  0
SPLINE
  5
29D
100
AcDbEntity
  8
0
100
AcDbSpline
 62
7
  6
BYLAYER
 70
0
 71
3
 72
11
 73
7
 74
0
 42
0.0000001
 43
0.0000001
 44
0.0000000001
 40
0.0
 40
0.0
 40
0.0
 40
0.0
 40
0.2457882298
 40
0.4999826657
 40
0.7541755291
 40
1.0
 40
1.0
 40
1.0
 40
1.0
 10
32.0550063884
 20
47.0046489102
 30
0.0
 10
32.126792551
 20
46.7264111327
 30
0.0
 10
32.3156970066
 20
46.1708757306
 30
0.0
 10
32.7079100773
 20
45.3786252478
 30
0.0
 10
33.1978234034
 20
44.6427204301
 30
0.0
 10
33.584465192
 20
44.2012903871
 30
0.0
 10
33.789536205
 20
43.9999455462
 30
0.0
  0
SPLINE
  5
29E
100
AcDbEntity
  8
0
100
AcDbSpline
 62
7
  6
BYLAYER
 70
0
 71
3
 72
23
 73
19
 74
0
 42
0.0000001
 43
0.0000001
 44
0.0000000001
 40
0.0
 40
0.0
 40
0.0
 40
0.0
 40
0.0428128193
 40
0.0873951844
 40
0.1351788108
 40
0.1870868571
 40
0.2435338694
 40
0.304491145
 40
0.3695872333
 40
0.4381952679
 40
0.5094925316
 40
0.5825271006
 40
0.6562688194
 40
0.7296592198
 40
0.8016473989
 40
0.8712454268
 40
0.9376267986
 40
1.0
 40
1.0
 40
1.0
 40
1.0
 10
33.1890747503
 20
41.0371182305
 30
0.0
 10
33.0904624091
 20
40.9801857953
 30
0.0
 10
32.8730913056
 20
40.8898210449
 30
0.0
 10
32.5142520706
 20
40.8372302345
 30
0.0
 10
32.1289235061
 20
40.8656230674
 30
0.0
 10
31.7256396527
 20
40.972732643
 30
0.0
 10
31.3123450769
 20
41.1554034327
 30
0.0
 10
30.8972633135
 20
41.4093663004
 30
0.0
 10
30.4887871868
 20
41.729113217
 30
0.0
 10
30.0954540006
 20
42.1079414739
 30
0.0
 10
29.7255168799
 20
42.5377858945
 30
0.0
 10
29.3867883779
 20
43.0094805891
 30
0.0
 10
29.0865440364
 20
43.5130287964
 30
0.0
 10
28.8311782924
 20
44.0376730182
 30
0.0
 10
28.6260688397
 20
44.5721741016
 30
0.0
 10
28.4756243927
 20
45.1053282663
 30
0.0
 10
28.3832025158
 20
45.625608627
 30
0.0
 10
28.3606586943
 20
45.9682732413
 30
0.0
 10
28.3606586943
 20
46.1341639738
 30
0.0
  0
SPLINE
  5
29F
100
AcDbEntity
  8
0
100
AcDbSpline
 62
7
  6
BYLAYER
 70
0
 71
3
 72
14
 73
10
 74
0
 42
0.0000001
 43
0.0000001
 44
0.0000000001
 40
0.0
 40
0.0
 40
0.0
 40
0.0
 40
0.2892446709
 40
0.4225665754
 40
0.5485149142
 40
0.6678912233
 40
0.7818650594
 40
0.8919547978
 40
1.0
 40
1.0
 40
1.0
 40
1.0
 10
28.3606586943
 20
46.1341639738
 30
0.0
 10
28.3606586943
 20
46.336887352
 30
0.0
 10
28.384363193
 20
46.6345020714
 30
0.0
 10
28.4758129547
 20
47.0085812324
 30
0.0
 10
28.5689102008
 20
47.2578538588
 30
0.0
 10
28.687554903
 20
47.4808797262
 30
0.0
 10
28.8308646437
 20
47.6754502446
 30
0.0
 10
28.9974200658
 20
47.8394706827
 30
0.0
 10
29.1235395492
 20
47.9274214849
 30
0.0
 10
29.1891204394
 20
47.9652836808
 30
0.0
  0
SPLINE
  5
2A0
100
AcDbEntity
  8
0
100
AcDbSpline
 62
7
  6
BYLAYER
 70
0
 71
3
 72
11
 73
7
 74
0
 42
0.0000001
 43
0.0000001
 44
0.0000000001
 40
0.0
 40
0.0
 40
0.0
 40
0.0
 40
0.2267366541
 40
0.4639847986
 40
0.7202329744
 40
1.0
 40
1.0
 40
1.0
 40
1.0
 10
24.7070946128
 20
46.3541366049
 30
0.0
 10
24.6672556983
 20
46.331142132
 30
0.0
 10
24.5787898518
 20
46.2952234555
 30
0.0
 10
24.4323629424
 20
46.2771583492
 30
0.0
 10
24.2752445198
 20
46.2938589394
 30
0.0
 10
24.1706492472
 20
46.3258428146
 30
0.0
 10
24.1177957606
 20
46.3465282311
 30
0.0
  0
SPLINE
  5
2A1
100
AcDbEntity
  8
0
100
AcDbSpline
 62
7
  6
BYLAYER
 70
0
 71
3
 72
11
 73
7
 74
0
 42
0.0000001
 43
0.0000001
 44
0.0000000001
 40
0.0
 40
0.0
 40
0.0
 40
0.0
 40
0.2457882298
 40
0.4999826657
 40
0.7541755291
 40
1.0
 40
1.0
 40
1.0
 40
1.0
 10
17.9128118854
 20
55.1694640006
 30
0.0
 10
17.9845980481
 20
54.8912262231
 30
0.0
 10
18.1735025037
 20
54.335690821
 30
0.0
 10
18.5657155743
 20
53.5434403382
 30
0.0
 10
19.0556289005
 20
52.8075355205
 30
0.0
 10
19.4422706891
 20
52.3661054775
 30
0.0
 10
19.6473417021
 20
52.1647606366
 30
0.0
  0
SPLINE
  5
2A2
100
AcDbEntity
  8
0
100
AcDbSpline
 62
7
  6
BYLAYER
 70
0
 71
3
 72
10
 73
6
 74
0
 42
0.0000001
 43
0.0000001
 44
0.0000000001
 40
0.0
 40
0.0
 40
0.0
 40
0.0
 40
0.233684705
 40
0.4781119453
 40
1.0
 40
1.0
 40
1.0
 40
1.0
 10
37.8007151046
 20
14.286987512
 30
0.0
 10
37.7527990282
 20
14.4542645319
 30
0.0
 10
37.6707828913
 20
14.8012875758
 30
0.0
 10
37.5605014299
 20
15.5382371307
 30
0.0
 10
37.5438819579
 20
16.1115770643
 30
0.0
 10
37.5602175176
 20
16.4998377283
 30
0.0
  0
SPLINE
  5
2A3
100
AcDbEntity
  8
0
100
AcDbSpline
 62
7
  6
BYLAYER
 70
0
 71
3
 72
15
 73
11
 74
0
 42
0.0000001
 43
0.0000001
 44
0.0000000001
 40
0.0
 40
0.0
 40
0.0
 40
0.0
 40
0.1485422169
 40
0.2895065925
 40
0.4227365852
 40
0.5486414656
 40
0.6679983291
 40
0.7819398679
 40
0.8919885884
 40
1.0
 40
1.0
 40
1.0
 40
1.0
 10
35.254931411
 20
57.6672224727
 30
0.0
 10
35.4296692472
 20
57.7681068073
 30
0.0
 10
35.7622998335
 20
57.9789995196
 30
0.0
 10
36.2171526944
 20
58.330953918
 30
0.0
 10
36.6105467131
 20
58.7075421572
 30
0.0
 10
36.9385733744
 20
59.1051296287
 30
0.0
 10
37.1978696644
 20
59.5202756154
 30
0.0
 10
37.3856326038
 20
59.9491934587
 30
0.0
 10
37.4993266693
 20
60.3875811684
 30
0.0
 10
37.5248296008
 20
60.6843730177
 30
0.0
 10
37.5248165662
 20
60.8310883198
 30
0.0
  0
SPLINE
  5
2A4
100
AcDbEntity
  8
0
100
AcDbSpline
 62
7
  6
BYLAYER
 70
0
 71
3
 72
25
 73
21
 74
0
 42
0.0000001
 43
0.0000001
 44
0.0000000001
 40
0.0
 40
0.0
 40
0.0
 40
0.0
 40
0.0213319025
 40
0.0428919457
 40
0.0648973843
 40
0.0875416961
 40
0.1353167895
 40
0.1872174294
 40
0.2436545993
 40
0.304602289
 40
0.3696905114
 40
0.4382882868
 40
0.5095749344
 40
0.5825994469
 40
0.6563313808
 40
0.7297086177
 40
0.8016865587
 40
0.8712739706
 40
0.9376235182
 40
1.0
 40
1.0
 40
1.0
 40
1.0
 10
22.024845516
 20
60.8310883207
 30
0.0
 10
22.0248552836
 20
60.7211456154
 30
0.0
 10
22.0390502553
 20
60.499832161
 30
0.0
 10
22.1025897671
 20
60.1706056349
 30
0.0
 10
22.208125203
 20
59.8452083888
 30
0.0
 10
22.4070562914
 20
59.4113703504
 30
0.0
 10
22.7641670191
 20
58.8859589671
 30
0.0
 10
23.334561959
 20
58.3132666031
 30
0.0
 10
24.0414555586
 20
57.7966856211
 30
0.0
 10
24.869691086
 20
57.3462162685
 30
0.0
 10
25.8019665077
 20
56.9706427792
 30
0.0
 10
26.818672689
 20
56.6776431189
 30
0.0
 10
27.8983147431
 20
56.4733087703
 30
0.0
 10
29.017959033
 20
56.361960687
 30
0.0
 10
30.1537486578
 20
56.3459726432
 30
0.0
 10
31.281467372
 20
56.425693708
 30
0.0
 10
32.377009063
 20
56.5994482022
 30
0.0
 10
33.4172457555
 20
56.8634749699
 30
0.0
 10
34.3797836008
 20
57.2122943277
 30
0.0
 10
34.976518747
 20
57.5064818058
 30
0.0
 10
35.254931411
 20
57.6672224727
 30
0.0
  0
SPLINE
  5
2A5
100
AcDbEntity
  8
0
100
AcDbSpline
 62
7
  6
BYLAYER
 70
0
 71
3
 72
25
 73
21
 74
0
 42
0.0000001
 43
0.0000001
 44
0.0000000001
 40
0.0
 40
0.0
 40
0.0
 40
0.0
 40
0.0623732105
 40
0.1287281573
 40
0.198314457
 40
0.2702927223
 40
0.3436694255
 40
0.4174006934
 40
0.4904262408
 40
0.5617141063
 40
0.6303117394
 40
0.6953989208
 40
0.7563464464
 40
0.8127840041
 40
0.8646839509
 40
0.9124580695
 40
0.9351030523
 40
0.9571079744
 40
0.9786683046
 40
1.0
 40
1.0
 40
1.0
 40
1.0
 10
34.017489392
 20
58.7898950017
 30
0.0
 10
33.8019557052
 20
58.6654573124
 30
0.0
 10
33.3399541286
 20
58.4377091581
 30
0.0
 10
32.5947681515
 20
58.167635023
 30
0.0
 10
31.7894045214
 20
57.9632300307
 30
0.0
 10
30.9412503557
 20
57.8287074101
 30
0.0
 10
30.0681810704
 20
57.7670019943
 30
0.0
 10
29.1888626927
 20
57.7793876368
 30
0.0
 10
28.3220351047
 20
57.8655778289
 30
0.0
 10
27.4861733816
 20
58.0237637927
 30
0.0
 10
26.6990527089
 20
58.2506247026
 30
0.0
 10
25.9773049224
 20
58.541405221
 30
0.0
 10
25.3360873243
 20
58.890140233
 30
0.0
 10
24.7888065811
 20
59.2900553876
 30
0.0
 10
24.3472107477
 20
59.7334331818
 30
0.0
 10
24.0708003164
 20
60.1402285409
 30
0.0
 10
23.9167140013
 20
60.4760662618
 30
0.0
 10
23.8350650422
 20
60.7280083631
 30
0.0
 10
23.7858582199
 20
60.9828839023
 30
0.0
 10
23.7748387604
 20
61.1542235398
 30
0.0
 10
23.7748382219
 20
61.2393395294
 30
0.0
  0
SPLINE
  5
2A6
100
AcDbEntity
  8
0
100
AcDbSpline
 62
7
  6
BYLAYER
 70
0
 71
3
 72
15
 73
11
 74
0
 42
0.0000001
 43
0.0000001
 44
0.0000000001
 40
0.0
 40
0.0
 40
0.0
 40
0.0
 40
0.1080120351
 40
0.2180609276
 40
0.3320049916
 40
0.4513555801
 40
0.5772588794
 40
0.7104993721
 40
0.8514742921
 40
1.0
 40
1.0
 40
1.0
 40
1.0
 10
33.6890821347
 20
11.5933870072
 30
0.0
 10
33.7710591345
 20
11.6407161577
 30
0.0
 10
33.9286502919
 20
11.7507234229
 30
0.0
 10
34.1369494413
 20
11.9556452501
 30
0.0
 10
34.3160049349
 20
12.1989402769
 30
0.0
 10
34.4643517356
 20
12.4777186063
 30
0.0
 10
34.5806715135
 20
12.7892687898
 30
0.0
 10
34.6641936217
 20
13.1305740036
 30
0.0
 10
34.7141028518
 20
13.4982638925
 30
0.0
 10
34.7246462206
 20
13.7521455288
 30
0.0
 10
34.7246462206
 20
13.8823093229
 30
0.0
  0
SPLINE
  5
2A7
100
AcDbEntity
  8
0
100
AcDbSpline
 62
7
  6
BYLAYER
 70
0
 71
3
 72
14
 73
10
 74
0
 42
0.0000001
 43
0.0000001
 44
0.0000000001
 40
0.0
 40
0.0
 40
0.0
 40
0.0
 40
0.1057093077
 40
0.2153414267
 40
0.3301302096
 40
0.4511483322
 40
0.5789204589
 40
0.7134678418
 40
1.0
 40
1.0
 40
1.0
 40
1.0
 10
26.1542386279
 20
68.1494264916
 30
0.0
 10
26.1050357905
 20
68.1381767591
 30
0.0
 10
26.0021058748
 20
68.1258109222
 30
0.0
 10
25.8440455693
 20
68.1387894153
 30
0.0
 10
25.684299643
 20
68.1834684093
 30
0.0
 10
25.5270865557
 20
68.2589167823
 30
0.0
 10
25.3758702658
 20
68.3632608329
 30
0.0
 10
25.1826352257
 20
68.5412312152
 30
0.0
 10
25.0615769269
 20
68.7044750655
 30
0.0
 10
24.9904279464
 20
68.8213278275
 30
0.0
  0
SPLINE
  5
2A8
100
AcDbEntity
  8
0
100
AcDbSpline
 62
7
  6
BYLAYER
 70
0
 71
3
 72
11
 73
7
 74
0
 42
0.0000001
 43
0.0000001
 44
0.0000000001
 40
0.0
 40
0.0
 40
0.0
 40
0.0
 40
0.2367824557
 40
0.4886264104
 40
0.7463337085
 40
1.0
 40
1.0
 40
1.0
 40
1.0
 10
24.1177957606
 20
46.3465282311
 30
0.0
 10
24.0286960018
 20
46.4145374518
 30
0.0
 10
23.857697096
 20
46.5721598241
 30
0.0
 10
23.6361754411
 20
46.8488353102
 30
0.0
 10
23.4509903742
 20
47.1603381624
 30
0.0
 10
23.3567181919
 20
47.3843700106
 30
0.0
 10
23.3186710811
 20
47.4982650553
 30
0.0
  0
SPLINE
  5
2A9
100
AcDbEntity
  8
0
100
AcDbSpline
 62
7
  6
BYLAYER
 70
0
 71
3
 72
9
 73
5
 74
0
 42
0.0000001
 43
0.0000001
 44
0.0000000001
 40
0.0
 40
0.0
 40
0.0
 40
0.0
 40
0.5239015696
 40
1.0
 40
1.0
 40
1.0
 40
1.0
 10
34.017489392
 20
62.3008553954
 30
0.0
 10
34.2471297414
 20
62.4334375215
 30
0.0
 10
34.6687353869
 20
62.7174900177
 30
0.0
 10
35.0354610152
 20
63.0717537737
 30
0.0
 10
35.1890553691
 20
63.2574297832
 30
0.0
  0
SPLINE
  5
2AA
100
AcDbEntity
  8
0
100
AcDbSpline
 62
7
  6
BYLAYER
 70
0
 71
3
 72
9
 73
5
 74
0
 42
0.0000001
 43
0.0000001
 44
0.0000000001
 40
0.0
 40
0.0
 40
0.0
 40
0.0
 40
0.5171379734
 40
1.0
 40
1.0
 40
1.0
 40
1.0
 10
32.3606400202
 20
61.6244531677
 30
0.0
 10
32.6586261387
 20
61.7066189733
 30
0.0
 10
33.2268334495
 20
61.8967961606
 30
0.0
 10
33.7675375685
 20
62.1565465042
 30
0.0
 10
34.017489392
 20
62.3008553954
 30
0.0
  0
SPLINE
  5
2AB
100
AcDbEntity
  8
0
100
AcDbSpline
 62
7
  6
BYLAYER
 70
0
 71
3
 72
15
 73
11
 74
0
 42
0.0000001
 43
0.0000001
 44
0.0000000001
 40
0.0
 40
0.0
 40
0.0
 40
0.0
 40
0.1080092874
 40
0.2180557001
 40
0.3319994722
 40
0.4513505581
 40
0.5772553933
 40
0.710498042
 40
0.8514743433
 40
1.0
 40
1.0
 40
1.0
 40
1.0
 10
35.7748238603
 20
61.2393395283
 30
0.0
 10
35.7748245789
 20
61.1257559156
 30
0.0
 10
35.7550615843
 20
60.8959910619
 30
0.0
 10
35.667078841
 20
60.556585825
 30
0.0
 10
35.5216774058
 20
60.2245437229
 30
0.0
 10
35.3209785882
 20
59.9031185359
 30
0.0
 10
35.0670010226
 20
59.5953151076
 30
0.0
 10
34.7624245354
 20
59.3037417603
 30
0.0
 10
34.4102629723
 20
59.0312705547
 30
0.0
 10
34.1527549843
 20
58.8679901617
 30
0.0
 10
34.017489392
 20
58.7898950017
 30
0.0
  0
SPLINE
  5
2AC
100
AcDbEntity
  8
0
100
AcDbSpline
 62
7
  6
BYLAYER
 70
0
 71
3
 72
14
 73
10
 74
0
 42
0.0000001
 43
0.0000001
 44
0.0000000001
 40
0.0
 40
0.0
 40
0.0
 40
0.0
 40
0.1150702452
 40
0.2411086274
 40
0.3724935036
 40
0.5046356631
 40
0.6346458041
 40
0.7609755159
 40
1.0
 40
1.0
 40
1.0
 40
1.0
 10
40.2400549733
 20
21.3481615566
 30
0.0
 10
40.0587851285
 20
21.2435059876
 30
0.0
 10
39.7067648132
 20
20.9752759735
 30
0.0
 10
39.2483584356
 20
20.4730504164
 30
0.0
 10
38.8472382751
 20
19.886492285
 30
0.0
 10
38.5129954033
 20
19.2520225361
 30
0.0
 10
38.2461550256
 20
18.5965406913
 30
0.0
 10
37.9803106469
 20
17.7348040186
 30
0.0
 10
37.8596757483
 20
17.077852123
 30
0.0
 10
37.8134626475
 20
16.6455310087
 30
0.0
  0
SPLINE
  5
2AD
100
AcDbEntity
  8
0
100
AcDbSpline
 62
7
  6
BYLAYER
 70
0
 71
3
 72
13
 73
9
 74
0
 42
0.0000001
 43
0.0000001
 44
0.0000000001
 40
0.0
 40
0.0
 40
0.0
 40
0.0
 40
0.1121928064
 40
0.2258369388
 40
0.3422839947
 40
0.4627184384
 40
0.7189604644
 40
1.0
 40
1.0
 40
1.0
 40
1.0
 10
23.774853196
 20
70.9117115178
 30
0.0
 10
23.7748545936
 20
70.8180784667
 30
0.0
 10
23.788144152
 20
70.629336517
 30
0.0
 10
23.847822084
 20
70.3491123198
 30
0.0
 10
23.9466282676
 20
70.0728654847
 30
0.0
 10
24.1332400014
 20
69.7049958665
 30
0.0
 10
24.4673602893
 20
69.2636834436
 30
0.0
 10
24.80395179
 20
68.9635929643
 30
0.0
 10
24.9904279464
 20
68.8213278275
 30
0.0
  0
SPLINE
  5
2AE
100
AcDbEntity
  8
0
100
AcDbSpline
 62
7
  6
BYLAYER
 70
0
 71
3
 72
11
 73
7
 74
0
 42
0.0000001
 43
0.0000001
 44
0.0000000001
 40
0.0
 40
0.0
 40
0.0
 40
0.0
 40
0.2432350879
 40
0.4960481875
 40
0.7508841944
 40
1.0
 40
1.0
 40
1.0
 40
1.0
 10
27.4427449118
 20
69.1747316506
 30
0.0
 10
27.7686751359
 20
69.0755108583
 30
0.0
 10
28.448980918
 20
68.9221865372
 30
0.0
 10
29.4987453884
 20
68.8240927376
 30
0.0
 10
30.5608331811
 20
68.8552698206
 30
0.0
 10
31.2606932311
 20
68.9638454991
 30
0.0
 10
31.6010072068
 20
69.0409314909
 30
0.0
  0
SPLINE
  5
2AF
100
AcDbEntity
  8
0
100
AcDbSpline
 62
7
  6
BYLAYER
 70
0
 71
3
 72
15
 73
11
 74
0
 42
0.0000001
 43
0.0000001
 44
0.0000000001
 40
0.0
 40
0.0
 40
0.0
 40
0.0
 40
0.1292745168
 40
0.2526075252
 40
0.3720352873
 40
0.4901678911
 40
0.6096982815
 40
0.7331690707
 40
0.8627806369
 40
1.0
 40
1.0
 40
1.0
 40
1.0
 10
25.1202395265
 20
72.7825198096
 30
0.0
 10
25.0567135041
 20
72.6890367435
 30
0.0
 10
24.9454224415
 20
72.4970749239
 30
0.0
 10
24.8297418794
 20
72.1914235106
 30
0.0
 10
24.7719082296
 20
71.8794175221
 30
0.0
 10
24.7730526152
 20
71.565383429
 30
0.0
 10
24.8329953935
 20
71.2535913249
 30
0.0
 10
24.9507719966
 20
70.9481292436
 30
0.0
 10
25.1243744423
 20
70.6528225071
 30
0.0
 10
25.2711202148
 20
70.4703663979
 30
0.0
 10
25.3520261879
 20
70.3817814176
 30
0.0
  0
SPLINE
  5
2B0
100
AcDbEntity
  8
0
100
AcDbSpline
 62
7
  6
BYLAYER
 70
0
 71
3
 72
11
 73
7
 74
0
 42
0.0000001
 43
0.0000001
 44
0.0000000001
 40
0.0
 40
0.0
 40
0.0
 40
0.0
 40
0.2895401978
 40
0.5491171512
 40
0.782255066
 40
1.0
 40
1.0
 40
1.0
 40
1.0
 10
20.9360065802
 20
20.4550531876
 30
0.0
 10
20.9360065802
 20
20.5056918107
 30
0.0
 10
20.94373863
 20
20.6020483292
 30
0.0
 10
20.9826916993
 20
20.7344591714
 30
0.0
 10
21.0483981647
 20
20.8419403585
 30
0.0
 10
21.1101663866
 20
20.8937497048
 30
0.0
 10
21.1431465199
 20
20.9127906723
 30
0.0
  0
SPLINE
  5
2B1
100
AcDbEntity
  8
0
100
AcDbSpline
 62
7
  6
BYLAYER
 70
0
 71
3
 72
11
 73
7
 74
0
 42
0.0000001
 43
0.0000001
 44
0.0000000001
 40
0.0
 40
0.0
 40
0.0
 40
0.0
 40
0.238358874
 40
0.4863224244
 40
0.7409339182
 40
1.0
 40
1.0
 40
1.0
 40
1.0
 10
24.9904006459
 20
68.8211739255
 30
0.0
 10
24.9762255873
 20
68.9491327862
 30
0.0
 10
24.9807344882
 20
69.21408505
 30
0.0
 10
25.0543685942
 20
69.6085277768
 30
0.0
 10
25.1793718161
 20
70.0013646822
 30
0.0
 10
25.2903145984
 20
70.2561988425
 30
0.0
 10
25.3520256866
 20
70.3817815028
 30
0.0
  0
SPLINE
  5
2B2
100
AcDbEntity
  8
0
100
AcDbSpline
 62
7
  6
BYLAYER
 70
0
 71
3
 72
13
 73
9
 74
0
 42
0.0000001
 43
0.0000001
 44
0.0000000001
 40
0.0
 40
0.0
 40
0.0
 40
0.0
 40
0.1141759018
 40
0.2375697245
 40
0.4999990825
 40
0.762428944
 40
0.8858232992
 40
1.0
 40
1.0
 40
1.0
 40
1.0
 10
21.6431163054
 20
19.2303100159
 30
0.0
 10
21.5947437173
 20
19.2582373108
 30
0.0
 10
21.4991454481
 20
19.325317242
 30
0.0
 10
21.3200516147
 20
19.4927780382
 30
0.0
 10
21.1310519893
 20
19.7511642596
 30
0.0
 10
21.0017814609
 20
20.0440354945
 30
0.0
 10
20.9463013272
 20
20.2828662088
 30
0.0
 10
20.9360065802
 20
20.3991972591
 30
0.0
 10
20.9360065802
 20
20.4550531876
 30
0.0
  0
SPLINE
  5
2B3
100
AcDbEntity
  8
0
100
AcDbSpline
 62
7
  6
BYLAYER
 70
0
 71
3
 72
15
 73
11
 74
0
 42
0.0000001
 43
0.0000001
 44
0.0000000001
 40
0.0
 40
0.0
 40
0.0
 40
0.0
 40
0.115823904
 40
0.2371721477
 40
0.3626841411
 40
0.4909586751
 40
0.6204207992
 40
0.7494488521
 40
0.8765086433
 40
1.0
 40
1.0
 40
1.0
 40
1.0
 10
26.1542386279
 20
68.1494264916
 30
0.0
 10
26.3780829344
 20
68.0516353818
 30
0.0
 10
26.8473609414
 20
67.8757268565
 30
0.0
 10
27.5863801188
 20
67.6747889039
 30
0.0
 10
28.3657848145
 20
67.5335364479
 30
0.0
 10
29.1710441877
 20
67.4544685187
 30
0.0
 10
29.9874264712
 20
67.4391342918
 30
0.0
 10
30.7999651987
 20
67.4877130688
 30
0.0
 10
31.5935100747
 20
67.5994160098
 30
0.0
 10
32.1095660249
 20
67.7166343898
 30
0.0
 10
32.3606400202
 20
67.7858647861
 30
0.0
  0
SPLINE
  5
2B4
100
AcDbEntity
  8
0
100
AcDbSpline
 62
7
  6
BYLAYER
 70
0
 71
3
 72
26
 73
22
 74
0
 42
0.0000001
 43
0.0000001
 44
0.0000000001
 40
0.0
 40
0.0
 40
0.0
 40
0.0
 40
0.0628888278
 40
0.1294616183
 40
0.1992245568
 40
0.2715176749
 40
0.3454841843
 40
0.4201465133
 40
0.4944345562
 40
0.5672132534
 40
0.6373537683
 40
0.7037924579
 40
0.765595066
 40
0.8221403702
 40
0.8731636308
 40
0.8966959798
 40
0.9190208904
 40
0.9402885595
 40
0.9607010865
 40
0.9805072056
 40
1.0
 40
1.0
 40
1.0
 40
1.0
 10
35.254931411
 20
56.4204059276
 30
0.0
 10
34.9774106178
 20
56.2601801793
 30
0.0
 10
34.3809441641
 20
55.9727189731
 30
0.0
 10
33.4157732673
 20
55.6509254204
 30
0.0
 10
32.3738041527
 20
55.4299548458
 30
0.0
 10
31.2777666925
 20
55.3112804339
 30
0.0
 10
30.1507066647
 20
55.2937127293
 30
0.0
 10
29.0162940175
 20
55.3732671529
 30
0.0
 10
27.8982390334
 20
55.5443138067
 30
0.0
 10
26.8200106536
 20
55.799448646
 30
0.0
 10
25.8043962928
 20
56.1300195474
 30
0.0
 10
24.872928765
 20
56.5263970067
 30
0.0
 10
24.0456865726
 20
56.9799167832
 30
0.0
 10
23.3397989325
 20
57.4801090126
 30
0.0
 10
22.8519530412
 20
57.9411812144
 30
0.0
 10
22.5423822324
 20
58.3265969155
 30
0.0
 10
22.3554383213
 20
58.6137899311
 30
0.0
 10
22.2085769183
 20
58.9058144558
 30
0.0
 10
22.1027445813
 20
59.201628948
 30
0.0
 10
22.0390134963
 20
59.500067287
 30
0.0
 10
22.0248029038
 20
59.700595985
 30
0.0
 10
22.0248112376
 20
59.7999224201
 30
0.0
  0
SPLINE
  5
2B5
100
AcDbEntity
  8
0
100
AcDbSpline
 62
7
  6
BYLAYER
 70
0
 71
3
 72
11
 73
7
 74
0
 42
0.0000001
 43
0.0000001
 44
0.0000000001
 40
0.0
 40
0.0
 40
0.0
 40
0.0
 40
0.2677663926
 40
0.5210012484
 40
0.7633560803
 40
1.0
 40
1.0
 40
1.0
 40
1.0
 10
35.1890553691
 20
69.4188414016
 30
0.0
 10
35.2820523686
 20
69.5312629284
 30
0.0
 10
35.4483986945
 20
69.7628115975
 30
0.0
 10
35.6355243641
 20
70.1364274878
 30
0.0
 10
35.7492781925
 20
70.5211066242
 30
0.0
 10
35.7748108108
 20
70.7827687651
 30
0.0
 10
35.7748088862
 20
70.9117115176
 30
0.0
  0
SPLINE
  5
2B6
100
AcDbEntity
  8
0
100
AcDbSpline
 62
7
  6
BYLAYER
 70
0
 71
3
 72
15
 73
11
 74
0
 42
0.0000001
 43
0.0000001
 44
0.0000000001
 40
0.0
 40
0.0
 40
0.0
 40
0.0
 40
0.1526911337
 40
0.2908003968
 40
0.4165505728
 40
0.5339281938
 40
0.6475174585
 40
0.7613418872
 40
0.8782684398
 40
1.0
 40
1.0
 40
1.0
 40
1.0
 10
40.2400549733
 20
21.3481615566
 30
0.0
 10
40.3445370107
 20
21.4084839289
 30
0.0
 10
40.552680786
 20
21.5088388653
 30
0.0
 10
40.8726444407
 20
21.5948102216
 30
0.0
 10
41.1762308532
 20
21.6085266926
 30
0.0
 10
41.4555302405
 20
21.5539071937
 30
0.0
 10
41.7051286248
 20
21.4388331768
 30
0.0
 10
41.9230902108
 20
21.2728619642
 30
0.0
 10
42.1101897054
 20
21.0647916587
 30
0.0
 10
42.213395449
 20
20.9061101531
 30
0.0
 10
42.2606958476
 20
20.822361114
 30
0.0
  0
SPLINE
  5
2B7
100
AcDbEntity
  8
0
100
AcDbSpline
 62
7
  6
BYLAYER
 70
0
 71
3
 72
23
 73
19
 74
0
 42
0.0000001
 43
0.0000001
 44
0.0000000001
 40
0.0
 40
0.0
 40
0.0
 40
0.0
 40
0.0428128193
 40
0.0873951844
 40
0.1351788108
 40
0.1870868571
 40
0.2435338694
 40
0.304491145
 40
0.3695872333
 40
0.4381952679
 40
0.5094925316
 40
0.5825271006
 40
0.6562688194
 40
0.7296592198
 40
0.8016473989
 40
0.8712454268
 40
0.9376267986
 40
1.0
 40
1.0
 40
1.0
 40
1.0
 10
19.0468802474
 20
49.2019333209
 30
0.0
 10
18.9482679062
 20
49.1450008857
 30
0.0
 10
18.7308968026
 20
49.0546361353
 30
0.0
 10
18.3720575677
 20
49.0020453249
 30
0.0
 10
17.9867290032
 20
49.0304381578
 30
0.0
 10
17.5834451498
 20
49.1375477334
 30
0.0
 10
17.170150574
 20
49.3202185231
 30
0.0
 10
16.7550688106
 20
49.5741813908
 30
0.0
 10
16.3465926839
 20
49.8939283074
 30
0.0
 10
15.9532594977
 20
50.2727565643
 30
0.0
 10
15.583322377
 20
50.7026009849
 30
0.0
 10
15.244593875
 20
51.1742956795
 30
0.0
 10
14.9443495335
 20
51.6778438869
 30
0.0
 10
14.6889837895
 20
52.2024881086
 30
0.0
 10
14.4838743368
 20
52.736989192
 30
0.0
 10
14.3334298897
 20
53.2701433567
 30
0.0
 10
14.2410080128
 20
53.7904237174
 30
0.0
 10
14.2184641913
 20
54.1330883317
 30
0.0
 10
14.2184641913
 20
54.2989790642
 30
0.0
  0
SPLINE
  5
2B8
100
AcDbEntity
  8
0
100
AcDbSpline
 62
7
  6
BYLAYER
 70
0
 71
3
 72
10
 73
6
 74
0
 42
0.0000001
 43
0.0000001
 44
0.0000000001
 40
0.0
 40
0.0
 40
0.0
 40
0.0
 40
0.2267382355
 40
0.594982055
 40
1.0
 40
1.0
 40
1.0
 40
1.0
 10
44.8008729569
 20
18.3285052081
 30
0.0
 10
44.8605138842
 20
18.436267062
 30
0.0
 10
44.9936908936
 20
18.732311689
 30
0.0
 10
45.1252856401
 20
19.2629000606
 30
0.0
 10
45.1544278195
 20
19.6839031418
 30
0.0
 10
45.1544278195
 20
19.9039105925
 30
0.0
  0
SPLINE
  5
2B9
100
AcDbEntity
  8
0
100
AcDbSpline
 62
7
  6
BYLAYER
 70
0
 71
3
 72
13
 73
9
 74
0
 42
0.0000001
 43
0.0000001
 44
0.0000000001
 40
0.0
 40
0.0
 40
0.0
 40
0.0
 40
0.1141767831
 40
0.2375713001
 40
0.500001251
 40
0.7624305195
 40
0.8858241805
 40
1.0
 40
1.0
 40
1.0
 40
1.0
 10
21.0774273477
 20
20.5367020183
 30
0.0
 10
21.0774273477
 20
20.4808460496
 30
0.0
 10
21.0877221594
 20
20.3645148847
 30
0.0
 10
21.1432022992
 20
20.1256840067
 30
0.0
 10
21.2724729656
 20
19.8328127287
 30
0.0
 10
21.4614726226
 20
19.5744266484
 30
0.0
 10
21.6405663174
 20
19.4069659393
 30
0.0
 10
21.7361645196
 20
19.3398861215
 30
0.0
 10
21.7845370728
 20
19.3119588467
 30
0.0
  0
SPLINE
  5
2BA
100
AcDbEntity
  8
0
100
AcDbSpline
 62
7
  6
BYLAYER
 70
0
 71
3
 72
11
 73
7
 74
0
 42
0.0000001
 43
0.0000001
 44
0.0000000001
 40
0.0
 40
0.0
 40
0.0
 40
0.0
 40
0.2796321536
 40
0.5390398228
 40
0.7781576374
 40
1.0
 40
1.0
 40
1.0
 40
1.0
 10
26.7343051488
 20
16.454273565
 30
0.0
 10
26.7661798708
 20
16.4358711021
 30
0.0
 10
26.829815377
 20
16.4039852805
 30
0.0
 10
26.9272165607
 20
16.371081092
 30
0.0
 10
27.0212898193
 20
16.3558730042
 30
0.0
 10
27.0824526679
 20
16.3580099387
 30
0.0
 10
27.1113271777
 20
16.362352166
 30
0.0
  0
SPLINE
  5
2BB
100
AcDbEntity
  8
0
100
AcDbSpline
 62
7
  6
BYLAYER
 70
0
 71
3
 72
11
 73
7
 74
0
 42
0.0000001
 43
0.0000001
 44
0.0000000001
 40
0.0
 40
0.0
 40
0.0
 40
0.0
 40
0.2738399989
 40
0.5305745974
 40
0.7715359739
 40
1.0
 40
1.0
 40
1.0
 40
1.0
 10
24.2592165281
 20
46.4281770619
 30
0.0
 10
24.2985932918
 20
46.412766068
 30
0.0
 10
24.376709463
 20
46.3872539823
 30
0.0
 10
24.4942756982
 20
46.3656135004
 30
0.0
 10
24.606837293
 20
46.3624813171
 30
0.0
 10
24.6790257861
 20
46.3730835737
 30
0.0
 10
24.7132706774
 20
46.3815599305
 30
0.0
  0
SPLINE
  5
2BC
100
AcDbEntity
  8
0
100
AcDbSpline
 62
7
  6
BYLAYER
 70
0
 71
3
 72
11
 73
7
 74
0
 42
0.0000001
 43
0.0000001
 44
0.0000000001
 40
0.0
 40
0.0
 40
0.0
 40
0.0
 40
0.2536662915
 40
0.5113735896
 40
0.7632175443
 40
1.0
 40
1.0
 40
1.0
 40
1.0
 10
23.4600918486
 20
47.5799138861
 30
0.0
 10
23.4981389594
 20
47.4660188414
 30
0.0
 10
23.5924111416
 20
47.2419869932
 30
0.0
 10
23.7775962085
 20
46.930484141
 30
0.0
 10
23.9991178634
 20
46.6538086549
 30
0.0
 10
24.1701167692
 20
46.4961862826
 30
0.0
 10
24.2592165281
 20
46.4281770619
 30
0.0
  0
SPLINE
  5
2BD
100
AcDbEntity
  8
0
100
AcDbSpline
 62
7
  6
BYLAYER
 70
0
 71
3
 72
11
 73
7
 74
0
 42
0.0000001
 43
0.0000001
 44
0.0000000001
 40
0.0
 40
0.0
 40
0.0
 40
0.0
 40
0.2218419841
 40
0.460959642
 40
0.7203674418
 40
1.0
 40
1.0
 40
1.0
 40
1.0
 10
21.1863295814
 20
20.9091813604
 30
0.0
 10
21.1681318588
 20
20.8863458076
 30
0.0
 10
21.1356999882
 20
20.8344443813
 30
0.0
 10
21.1018344342
 20
20.7453685818
 30
0.0
 10
21.0816304986
 20
20.6445625197
 30
0.0
 10
21.0774273477
 20
20.5735082746
 30
0.0
 10
21.0774273477
 20
20.5367020183
 30
0.0
  0
SPLINE
  5
2BE
100
AcDbEntity
  8
0
100
AcDbSpline
 62
7
  6
BYLAYER
 70
0
 71
3
 72
11
 73
7
 74
0
 42
0.0000001
 43
0.0000001
 44
0.0000000001
 40
0.0
 40
0.0
 40
0.0
 40
0.0
 40
0.2177460211
 40
0.4508843679
 40
0.7104607696
 40
1.0
 40
1.0
 40
1.0
 40
1.0
 10
27.0928541669
 20
16.3231489122
 30
0.0
 10
27.0598747502
 20
16.3041083584
 30
0.0
 10
26.9841242458
 20
16.2765209118
 30
0.0
 10
26.8581928354
 20
16.2733575196
 30
0.0
 10
26.7240486587
 20
16.3058265105
 30
0.0
 10
26.6367376453
 20
16.3473066133
 30
0.0
 10
26.5928843814
 20
16.3726247343
 30
0.0
  0
SPLINE
  5
2BF
100
AcDbEntity
  8
0
100
AcDbSpline
 62
7
  6
BYLAYER
 70
0
 71
3
 72
14
 73
10
 74
0
 42
0.0000001
 43
0.0000001
 44
0.0000000001
 40
0.0
 40
0.0
 40
0.0
 40
0.0
 40
0.1129631777
 40
0.2272800747
 40
0.3442193279
 40
0.4649008896
 40
0.5902427967
 40
0.7209939465
 40
1.0
 40
1.0
 40
1.0
 40
1.0
 10
37.5248508446
 20
59.7999219848
 30
0.0
 10
37.5248397423
 20
59.6394424856
 30
0.0
 10
37.4995809662
 20
59.3160203048
 30
0.0
 10
37.3868574055
 20
58.8383392128
 30
0.0
 10
37.2001677226
 20
58.3725808098
 30
0.0
 10
36.9417395365
 20
57.9245187748
 30
0.0
 10
36.6140599704
 20
57.499338127
 30
0.0
 10
36.0782392688
 20
56.9580530307
 30
0.0
 10
35.5981948637
 20
56.6185879914
 30
0.0
 10
35.254931411
 20
56.4204059276
 30
0.0
  0
ENDSEC
  0
SECTION
  2
OBJECTS
  0
DICTIONARY
  5
C
100
AcDbDictionary
280
0
281
1
  3
ACAD_GROUP
350
D
  3
ACAD_MLINESTYLE
350
17
  3
ACAD_LAYOUT
350
1A
  3
ACAD_PLOTSETTINGS
350
19
  3
ACAD_PLOTSTYLENAME
350
E
  0
DICTIONARY
  5
D
102
{ACAD_REACTORS
330
C
102
}
100
AcDbDictionary
280
0
281
1
  0
ACDBDICTIONARYWDFLT
  5
E
102
{ACAD_REACTORS
330
C
102
}
100
AcDbDictionary
281
1
  3
Normal
350
F
100
AcDbDictionaryWithDefault
340
F
  0
DICTIONARY
  5
17
102
{ACAD_REACTORS
330
C
102
}
100
AcDbDictionary
280
0
281
1
  3
Standard
350
18
  0
DICTIONARY
  5
19
102
{ACAD_REACTORS
330
C
102
}
100
AcDbDictionary
281
1
  0
DICTIONARY
  5
1A
102
{ACAD_REACTORS
330
C
102
}
100
AcDbDictionary
281
1
  3
Model
350
2C0
  3
Layout1
350
2C1
  0
ACDBPLACEHOLDER
  5
F
102
{ACAD_REACTORS
330
E
102
}
  0
MLINESTYLE
  5
18
102
{ACAD_REACTORS
330
17
102
}
100
AcDbMlineStyle
  2
STANDARD
 70
0
  3

 62
256
 51
90.0
 52
90.0
 71
2
 49
0.5
 62
256
  6
BYLAYER
 49
-0.5
 62
256
  6
BYLAYER
  0
LAYOUT
  5
2C0
102
{ACAD_REACTORS
330
1A
102
}
100
AcDbPlotSettings
  1

  2
none_device
  4

  6

 40
0.0
 41
0.0
 42
0.0
 43
0.0
 44
210.0
 45
297.0
 46
0.0
 47
0.0
 48
0.0
 49
0.0
140
0.0
141
0.0
142
1.0
143
1.0
 70
1024
 72
1
 73
0
 74
0
  7

 75
0
147
1.0
148
0.0
149
0.0
100
AcDbLayout
  1
Model
 70
0
 71
0
 10
0.0
 20
0.0
 11
210.0
 21
297.0
 12
0.0
 22
0.0
 32
0.0
 14
0.0
 24
0.0
 34
0.0
 15
0.0
 25
0.0
 35
0.0
146
0.0
 13
0.0
 23
0.0
 33
0.0
 16
1.0
 26
0.0
 36
0.0
 17
0.0
 27
1.0
 37
0.0
 76
0
330
210
345
0
346
0
  0
LAYOUT
  5
2C1
102
{ACAD_REACTORS
330
1A
102
}
100
AcDbPlotSettings
  1

  2
none_device
  4

  6

 40
0.0
 41
0.0
 42
0.0
 43
0.0
 44
210.0
 45
297.0
 46
0.0
 47
0.0
 48
0.0
 49
0.0
140
0.0
141
0.0
142
1.0
143
1.0
 70
0
 72
1
 73
0
 74
0
  7

 75
0
147
1.0
148
0.0
149
0.0
100
AcDbLayout
  1
Layout1
 70
0
 71
1
 10
0.0
 20
0.0
 11
210.0
 21
297.0
 12
0.0
 22
0.0
 32
0.0
 14
0.0
 24
0.0
 34
0.0
 15
0.0
 25
0.0
 35
0.0
146
0.0
 13
0.0
 23
0.0
 33
0.0
 16
1.0
 26
0.0
 36
0.0
 17
0.0
 27
1.0
 37
0.0
 76
0
330
211
345
0
346
0
  0
ENDSEC
  0
EOF
