  0
SECTION
  2
HEADER
  9
$ACADVER
  1
AC1006
  9
$EXTMIN
 10
-2.231248
 20
-3.954071
  9
$EXTMAX
 10
2.230000
 20
3.952000
  9
$LTSCALE
 40
0.000394
  9
$PDMODE
 70
    35
  9
$PDSIZE
 40
0.000315
  0
ENDSEC
  0
SECTION
  2
TABLES
  0
TABLE
  2
LTYPE
 70
     9
  0
LTYPE
  2
CONTINUOUS
 70
    64
  3
Solid line
 72
    65
 73
     0
 40
0.000000
  0
LTYPE
  2
DASHED
 70
    64
  3
__ __ __ __ __ __ __ __ __ __ __ __ __ __ __
 72
    65
 73
     2
 40
0.000003
 49
0.000002
 49
-0.000001
  0
LTYPE
  2
HIDDEN
 70
    64
  3
 _ _ _ _ _ _ _ _ _ _ _ _ _ _ _ _ _ _ _ _ _ _
 72
    65
 73
     2
 40
0.000001
 49
0.000001
 49
-0.000000
  0
LTYPE
  2
CENTER
 70
    64
  3
____ _ ____ _ ____ _ ____ _ ____ _ ____ _ ____
 72
    65
 73
     4
 40
0.000008
 49
0.000005
 49
-0.000001
 49
0.000001
 49
-0.000001
  0
LTYPE
  2
PHANTOM
 70
    64
  3
_____ _ _ _____ _ _ _____ _ _ _____ _ _ ____
 72
    65
 73
     6
 40
0.000010
 49
0.000005
 49
-0.000001
 49
0.000001
 49
-0.000001
 49
0.000001
 49
-0.000001
  0
LTYPE
  2
DOT
 70
    64
  3
...............................................
 72
    65
 73
     2
 40
0.000001
 49
0.000000
 49
-0.000001
  0
LTYPE
  2
DASHDOT
 70
    64
  3
__ . __ . __ . __ . __ . __ . __ . __ . __ . __
 72
    65
 73
     4
 40
0.000004
 49
0.000002
 49
-0.000001
 49
0.000000
 49
-0.000001
  0
LTYPE
  2
BORDER
 70
    64
  3
__ __ . __ __ . __ __ . __ __ . __ __ . __ __
 72
    65
 73
     6
 40
0.000007
 49
0.000002
 49
-0.000001
 49
0.000002
 49
-0.000001
 49
0.000000
 49
-0.000001
  0
LTYPE
  2
DIVIDE
 70
    64
  3
__ . . __ . . __ . . __ . . __ . . __ . . __
 72
    65
 73
     6
 40
0.000005
 49
0.000002
 49
-0.000001
 49
0.000000
 49
-0.000001
 49
0.000000
 49
-0.000001
  0
LTYPE
  2
DOTDOT
 70
    64
  3
 . .  . .  . .  . .  . .  . . 
 72
    65
 73
     5
 40
0.000002
 49
-0.000001
 49
0.000000
 49
-0.000001
 49
0.000000
 49
-0.000001
  0
ENDTAB
  0
TABLE
  2
STYLE
 70
     0
  0
ENDTAB
  0
TABLE
  2
LAYER
 70
     3
  0
LAYER
  2
FOREGROUND
 70
    64
 62
     7
  6
CONTINUOUS
  0
LAYER
  2
BACKGROUND
 70
    65
 62
    -7
  6
CONTINUOUS
  0
LAYER
  2
PLAN_1
 70
    64
 62
     7
  6
CONTINUOUS
  0
ENDTAB
  0
ENDSEC
  0
SECTION
  2
ENTITIES
  0
POLYLINE
  8
PLAN_1
  6
CONTINUOUS
 66
     1
 40
0.003000
 41
0.003000
  0
VERTEX
  8
PLAN_1
  6
CONTINUOUS
 10
0.243106
 20
-3.948634
  0
VERTEX
  8
PLAN_1
  6
CONTINUOUS
 10
0.210000
 20
-3.948634
  0
VERTEX
  8
PLAN_1
  6
CONTINUOUS
 10
0.156138
 20
-3.867102
  0
VERTEX
  8
PLAN_1
  6
CONTINUOUS
 10
0.101291
 20
-3.948634
  0
VERTEX
  8
PLAN_1
  6
CONTINUOUS
 10
0.068677
 20
-3.948634
  0
VERTEX
  8
PLAN_1
  6
CONTINUOUS
 10
0.139835
 20
-3.846843
  0
VERTEX
  8
PLAN_1
  6
CONTINUOUS
 10
0.073126
 20
-3.749500
  0
VERTEX
  8
PLAN_1
  6
CONTINUOUS
 10
0.106724
 20
-3.749500
  0
VERTEX
  8
PLAN_1
  6
CONTINUOUS
 10
0.157622
 20
-3.826091
  0
VERTEX
  8
PLAN_1
  6
CONTINUOUS
 10
0.208024
 20
-3.749500
  0
VERTEX
  8
PLAN_1
  6
CONTINUOUS
 10
0.240142
 20
-3.749500
  0
VERTEX
  8
PLAN_1
  6
CONTINUOUS
 10
0.173433
 20
-3.846843
  0
VERTEX
  8
PLAN_1
  6
CONTINUOUS
 10
0.243106
 20
-3.948634
  0
SEQEND
  8
0
  0
POLYLINE
  8
PLAN_1
  6
CONTINUOUS
 66
     1
 40
0.003000
 41
0.003000
  0
VERTEX
  8
PLAN_1
  6
CONTINUOUS
 10
0.409626
 20
-3.809291
  0
VERTEX
  8
PLAN_1
  6
CONTINUOUS
 10
0.407650
 20
-3.803362
  0
VERTEX
  8
PLAN_1
  6
CONTINUOUS
 10
0.405673
 20
-3.797429
  0
VERTEX
  8
PLAN_1
  6
CONTINUOUS
 10
0.403205
 20
-3.792488
  0
VERTEX
  8
PLAN_1
  6
CONTINUOUS
 10
0.400240
 20
-3.788043
  0
VERTEX
  8
PLAN_1
  6
CONTINUOUS
 10
0.397276
 20
-3.784583
  0
VERTEX
  8
PLAN_1
  6
CONTINUOUS
 10
0.393815
 20
-3.781126
  0
VERTEX
  8
PLAN_1
  6
CONTINUOUS
 10
0.389862
 20
-3.778161
  0
VERTEX
  8
PLAN_1
  6
CONTINUOUS
 10
0.385909
 20
-3.775689
  0
VERTEX
  8
PLAN_1
  6
CONTINUOUS
 10
0.381957
 20
-3.773713
  0
VERTEX
  8
PLAN_1
  6
CONTINUOUS
 10
0.378004
 20
-3.772232
  0
VERTEX
  8
PLAN_1
  6
CONTINUOUS
 10
0.373555
 20
-3.770748
  0
VERTEX
  8
PLAN_1
  6
CONTINUOUS
 10
0.369602
 20
-3.769760
  0
VERTEX
  8
PLAN_1
  6
CONTINUOUS
 10
0.361201
 20
-3.768276
  0
VERTEX
  8
PLAN_1
  6
CONTINUOUS
 10
0.353791
 20
-3.768276
  0
VERTEX
  8
PLAN_1
  6
CONTINUOUS
 10
0.346874
 20
-3.768276
  0
VERTEX
  8
PLAN_1
  6
CONTINUOUS
 10
0.340449
 20
-3.769264
  0
VERTEX
  8
PLAN_1
  6
CONTINUOUS
 10
0.334520
 20
-3.770748
  0
VERTEX
  8
PLAN_1
  6
CONTINUOUS
 10
0.328094
 20
-3.773220
  0
VERTEX
  8
PLAN_1
  6
CONTINUOUS
 10
0.322661
 20
-3.775689
  0
VERTEX
  8
PLAN_1
  6
CONTINUOUS
 10
0.317224
 20
-3.779150
  0
VERTEX
  8
PLAN_1
  6
CONTINUOUS
 10
0.312283
 20
-3.783594
  0
VERTEX
  8
PLAN_1
  6
CONTINUOUS
 10
0.307343
 20
-3.788043
  0
VERTEX
  8
PLAN_1
  6
CONTINUOUS
 10
0.303390
 20
-3.793476
  0
VERTEX
  8
PLAN_1
  6
CONTINUOUS
 10
0.299437
 20
-3.799409
  0
VERTEX
  8
PLAN_1
  6
CONTINUOUS
 10
0.296472
 20
-3.805831
  0
VERTEX
  8
PLAN_1
  6
CONTINUOUS
 10
0.293508
 20
-3.812748
  0
VERTEX
  8
PLAN_1
  6
CONTINUOUS
 10
0.291531
 20
-3.820654
  0
VERTEX
  8
PLAN_1
  6
CONTINUOUS
 10
0.290047
 20
-3.828563
  0
VERTEX
  8
PLAN_1
  6
CONTINUOUS
 10
0.289059
 20
-3.837949
  0
VERTEX
  8
PLAN_1
  6
CONTINUOUS
 10
0.288567
 20
-3.847339
  0
VERTEX
  8
PLAN_1
  6
CONTINUOUS
 10
0.288567
 20
-3.855740
  0
VERTEX
  8
PLAN_1
  6
CONTINUOUS
 10
0.289555
 20
-3.864138
  0
VERTEX
  8
PLAN_1
  6
CONTINUOUS
 10
0.290543
 20
-3.872539
  0
VERTEX
  8
PLAN_1
  6
CONTINUOUS
 10
0.292024
 20
-3.879949
  0
VERTEX
  8
PLAN_1
  6
CONTINUOUS
 10
0.294000
 20
-3.887362
  0
VERTEX
  8
PLAN_1
  6
CONTINUOUS
 10
0.296472
 20
-3.894280
  0
VERTEX
  8
PLAN_1
  6
CONTINUOUS
 10
0.299437
 20
-3.900705
  0
VERTEX
  8
PLAN_1
  6
CONTINUOUS
 10
0.302894
 20
-3.906138
  0
VERTEX
  8
PLAN_1
  6
CONTINUOUS
 10
0.307343
 20
-3.911575
  0
VERTEX
  8
PLAN_1
  6
CONTINUOUS
 10
0.311791
 20
-3.916516
  0
VERTEX
  8
PLAN_1
  6
CONTINUOUS
 10
0.317224
 20
-3.920469
  0
VERTEX
  8
PLAN_1
  6
CONTINUOUS
 10
0.323154
 20
-3.923929
  0
VERTEX
  8
PLAN_1
  6
CONTINUOUS
 10
0.330071
 20
-3.926398
  0
VERTEX
  8
PLAN_1
  6
CONTINUOUS
 10
0.337484
 20
-3.928374
  0
VERTEX
  8
PLAN_1
  6
CONTINUOUS
 10
0.345886
 20
-3.929858
  0
VERTEX
  8
PLAN_1
  6
CONTINUOUS
 10
0.354780
 20
-3.930350
  0
VERTEX
  8
PLAN_1
  6
CONTINUOUS
 10
0.357744
 20
-3.929858
  0
VERTEX
  8
PLAN_1
  6
CONTINUOUS
 10
0.361697
 20
-3.929858
  0
VERTEX
  8
PLAN_1
  6
CONTINUOUS
 10
0.365650
 20
-3.929362
  0
VERTEX
  8
PLAN_1
  6
CONTINUOUS
 10
0.369602
 20
-3.928374
  0
VERTEX
  8
PLAN_1
  6
CONTINUOUS
 10
0.373555
 20
-3.926894
  0
VERTEX
  8
PLAN_1
  6
CONTINUOUS
 10
0.378004
 20
-3.924917
  0
VERTEX
  8
PLAN_1
  6
CONTINUOUS
 10
0.381957
 20
-3.922941
  0
VERTEX
  8
PLAN_1
  6
CONTINUOUS
 10
0.385909
 20
-3.920469
  0
VERTEX
  8
PLAN_1
  6
CONTINUOUS
 10
0.390358
 20
-3.917012
  0
VERTEX
  8
PLAN_1
  6
CONTINUOUS
 10
0.393815
 20
-3.913059
  0
VERTEX
  8
PLAN_1
  6
CONTINUOUS
 10
0.397768
 20
-3.908610
  0
VERTEX
  8
PLAN_1
  6
CONTINUOUS
 10
0.401228
 20
-3.903669
  0
VERTEX
  8
PLAN_1
  6
CONTINUOUS
 10
0.404193
 20
-3.897740
  0
VERTEX
  8
PLAN_1
  6
CONTINUOUS
 10
0.407157
 20
-3.891315
  0
VERTEX
  8
PLAN_1
  6
CONTINUOUS
 10
0.409626
 20
-3.883906
  0
VERTEX
  8
PLAN_1
  6
CONTINUOUS
 10
0.411602
 20
-3.875504
  0
VERTEX
  8
PLAN_1
  6
CONTINUOUS
 10
0.437299
 20
-3.875504
  0
VERTEX
  8
PLAN_1
  6
CONTINUOUS
 10
0.436311
 20
-3.882421
  0
VERTEX
  8
PLAN_1
  6
CONTINUOUS
 10
0.434827
 20
-3.888846
  0
VERTEX
  8
PLAN_1
  6
CONTINUOUS
 10
0.433346
 20
-3.894776
  0
VERTEX
  8
PLAN_1
  6
CONTINUOUS
 10
0.431370
 20
-3.900705
  0
VERTEX
  8
PLAN_1
  6
CONTINUOUS
 10
0.428898
 20
-3.905646
  0
VERTEX
  8
PLAN_1
  6
CONTINUOUS
 10
0.426429
 20
-3.910587
  0
VERTEX
  8
PLAN_1
  6
CONTINUOUS
 10
0.423957
 20
-3.915528
  0
VERTEX
  8
PLAN_1
  6
CONTINUOUS
 10
0.421488
 20
-3.919480
  0
VERTEX
  8
PLAN_1
  6
CONTINUOUS
 10
0.418524
 20
-3.923433
  0
VERTEX
  8
PLAN_1
  6
CONTINUOUS
 10
0.415555
 20
-3.926894
  0
VERTEX
  8
PLAN_1
  6
CONTINUOUS
 10
0.412098
 20
-3.930350
  0
VERTEX
  8
PLAN_1
  6
CONTINUOUS
 10
0.409134
 20
-3.933315
  0
VERTEX
  8
PLAN_1
  6
CONTINUOUS
 10
0.402217
 20
-3.938752
  0
VERTEX
  8
PLAN_1
  6
CONTINUOUS
 10
0.395299
 20
-3.943201
  0
VERTEX
  8
PLAN_1
  6
CONTINUOUS
 10
0.388378
 20
-3.946657
  0
VERTEX
  8
PLAN_1
  6
CONTINUOUS
 10
0.381461
 20
-3.949130
  0
VERTEX
  8
PLAN_1
  6
CONTINUOUS
 10
0.375039
 20
-3.951106
  0
VERTEX
  8
PLAN_1
  6
CONTINUOUS
 10
0.368614
 20
-3.952587
  0
VERTEX
  8
PLAN_1
  6
CONTINUOUS
 10
0.357744
 20
-3.953575
  0
VERTEX
  8
PLAN_1
  6
CONTINUOUS
 10
0.350331
 20
-3.954071
  0
VERTEX
  8
PLAN_1
  6
CONTINUOUS
 10
0.341933
 20
-3.953575
  0
VERTEX
  8
PLAN_1
  6
CONTINUOUS
 10
0.333531
 20
-3.952587
  0
VERTEX
  8
PLAN_1
  6
CONTINUOUS
 10
0.325130
 20
-3.950610
  0
VERTEX
  8
PLAN_1
  6
CONTINUOUS
 10
0.317224
 20
-3.948142
  0
VERTEX
  8
PLAN_1
  6
CONTINUOUS
 10
0.309319
 20
-3.944681
  0
VERTEX
  8
PLAN_1
  6
CONTINUOUS
 10
0.301906
 20
-3.940728
  0
VERTEX
  8
PLAN_1
  6
CONTINUOUS
 10
0.294988
 20
-3.935787
  0
VERTEX
  8
PLAN_1
  6
CONTINUOUS
 10
0.288567
 20
-3.929858
  0
VERTEX
  8
PLAN_1
  6
CONTINUOUS
 10
0.285602
 20
-3.926398
  0
VERTEX
  8
PLAN_1
  6
CONTINUOUS
 10
0.282638
 20
-3.922941
  0
VERTEX
  8
PLAN_1
  6
CONTINUOUS
 10
0.279673
 20
-3.919480
  0
VERTEX
  8
PLAN_1
  6
CONTINUOUS
 10
0.277201
 20
-3.915035
  0
VERTEX
  8
PLAN_1
  6
CONTINUOUS
 10
0.274728
 20
-3.911083
  0
VERTEX
  8
PLAN_1
  6
CONTINUOUS
 10
0.272260
 20
-3.906634
  0
VERTEX
  8
PLAN_1
  6
CONTINUOUS
 10
0.270283
 20
-3.901693
  0
VERTEX
  8
PLAN_1
  6
CONTINUOUS
 10
0.268307
 20
-3.896752
  0
VERTEX
  8
PLAN_1
  6
CONTINUOUS
 10
0.266823
 20
-3.891811
  0
VERTEX
  8
PLAN_1
  6
CONTINUOUS
 10
0.265343
 20
-3.886374
  0
VERTEX
  8
PLAN_1
  6
CONTINUOUS
 10
0.263858
 20
-3.880445
  0
VERTEX
  8
PLAN_1
  6
CONTINUOUS
 10
0.262870
 20
-3.874516
  0
VERTEX
  8
PLAN_1
  6
CONTINUOUS
 10
0.261882
 20
-3.868587
  0
VERTEX
  8
PLAN_1
  6
CONTINUOUS
 10
0.261390
 20
-3.861669
  0
VERTEX
  8
PLAN_1
  6
CONTINUOUS
 10
0.260894
 20
-3.855244
  0
VERTEX
  8
PLAN_1
  6
CONTINUOUS
 10
0.260894
 20
-3.847831
  0
VERTEX
  8
PLAN_1
  6
CONTINUOUS
 10
0.261390
 20
-3.836961
  0
VERTEX
  8
PLAN_1
  6
CONTINUOUS
 10
0.262378
 20
-3.826091
  0
VERTEX
  8
PLAN_1
  6
CONTINUOUS
 10
0.264354
 20
-3.815713
  0
VERTEX
  8
PLAN_1
  6
CONTINUOUS
 10
0.267319
 20
-3.805831
  0
VERTEX
  8
PLAN_1
  6
CONTINUOUS
 10
0.270776
 20
-3.796937
  0
VERTEX
  8
PLAN_1
  6
CONTINUOUS
 10
0.274728
 20
-3.788043
  0
VERTEX
  8
PLAN_1
  6
CONTINUOUS
 10
0.279673
 20
-3.780630
  0
VERTEX
  8
PLAN_1
  6
CONTINUOUS
 10
0.285602
 20
-3.773220
  0
VERTEX
  8
PLAN_1
  6
CONTINUOUS
 10
0.288567
 20
-3.769760
  0
VERTEX
  8
PLAN_1
  6
CONTINUOUS
 10
0.292024
 20
-3.766795
  0
VERTEX
  8
PLAN_1
  6
CONTINUOUS
 10
0.294988
 20
-3.763831
  0
VERTEX
  8
PLAN_1
  6
CONTINUOUS
 10
0.298941
 20
-3.760866
  0
VERTEX
  8
PLAN_1
  6
CONTINUOUS
 10
0.302402
 20
-3.758394
  0
VERTEX
  8
PLAN_1
  6
CONTINUOUS
 10
0.306354
 20
-3.755925
  0
VERTEX
  8
PLAN_1
  6
CONTINUOUS
 10
0.310307
 20
-3.753949
  0
VERTEX
  8
PLAN_1
  6
CONTINUOUS
 10
0.314756
 20
-3.751972
  0
VERTEX
  8
PLAN_1
  6
CONTINUOUS
 10
0.319201
 20
-3.749996
  0
VERTEX
  8
PLAN_1
  6
CONTINUOUS
 10
0.323650
 20
-3.748512
  0
VERTEX
  8
PLAN_1
  6
CONTINUOUS
 10
0.328094
 20
-3.747524
  0
VERTEX
  8
PLAN_1
  6
CONTINUOUS
 10
0.333035
 20
-3.746043
  0
VERTEX
  8
PLAN_1
  6
CONTINUOUS
 10
0.337980
 20
-3.745547
  0
VERTEX
  8
PLAN_1
  6
CONTINUOUS
 10
0.342921
 20
-3.744559
  0
VERTEX
  8
PLAN_1
  6
CONTINUOUS
 10
0.348354
 20
-3.744559
  0
VERTEX
  8
PLAN_1
  6
CONTINUOUS
 10
0.353791
 20
-3.744067
  0
VERTEX
  8
PLAN_1
  6
CONTINUOUS
 10
0.363181
 20
-3.744559
  0
VERTEX
  8
PLAN_1
  6
CONTINUOUS
 10
0.371579
 20
-3.745547
  0
VERTEX
  8
PLAN_1
  6
CONTINUOUS
 10
0.379980
 20
-3.747524
  0
VERTEX
  8
PLAN_1
  6
CONTINUOUS
 10
0.387390
 20
-3.749996
  0
VERTEX
  8
PLAN_1
  6
CONTINUOUS
 10
0.394803
 20
-3.752465
  0
VERTEX
  8
PLAN_1
  6
CONTINUOUS
 10
0.401228
 20
-3.755925
  0
VERTEX
  8
PLAN_1
  6
CONTINUOUS
 10
0.407157
 20
-3.759878
  0
VERTEX
  8
PLAN_1
  6
CONTINUOUS
 10
0.412591
 20
-3.764323
  0
VERTEX
  8
PLAN_1
  6
CONTINUOUS
 10
0.417039
 20
-3.769264
  0
VERTEX
  8
PLAN_1
  6
CONTINUOUS
 10
0.421488
 20
-3.774209
  0
VERTEX
  8
PLAN_1
  6
CONTINUOUS
 10
0.425441
 20
-3.779642
  0
VERTEX
  8
PLAN_1
  6
CONTINUOUS
 10
0.428406
 20
-3.785079
  0
VERTEX
  8
PLAN_1
  6
CONTINUOUS
 10
0.430874
 20
-3.791008
  0
VERTEX
  8
PLAN_1
  6
CONTINUOUS
 10
0.432850
 20
-3.796937
  0
VERTEX
  8
PLAN_1
  6
CONTINUOUS
 10
0.434827
 20
-3.803362
  0
VERTEX
  8
PLAN_1
  6
CONTINUOUS
 10
0.435815
 20
-3.809291
  0
VERTEX
  8
PLAN_1
  6
CONTINUOUS
 10
0.409626
 20
-3.809291
  0
SEQEND
  8
0
  0
POLYLINE
  8
PLAN_1
  6
CONTINUOUS
 66
     1
 40
0.003000
 41
0.003000
  0
VERTEX
  8
PLAN_1
  6
CONTINUOUS
 10
0.497087
 20
-3.948634
  0
VERTEX
  8
PLAN_1
  6
CONTINUOUS
 10
0.469909
 20
-3.948634
  0
VERTEX
  8
PLAN_1
  6
CONTINUOUS
 10
0.469909
 20
-3.749500
  0
VERTEX
  8
PLAN_1
  6
CONTINUOUS
 10
0.497087
 20
-3.749500
  0
VERTEX
  8
PLAN_1
  6
CONTINUOUS
 10
0.497087
 20
-3.846350
  0
VERTEX
  8
PLAN_1
  6
CONTINUOUS
 10
0.593445
 20
-3.749500
  0
VERTEX
  8
PLAN_1
  6
CONTINUOUS
 10
0.630996
 20
-3.749500
  0
VERTEX
  8
PLAN_1
  6
CONTINUOUS
 10
0.547984
 20
-3.830043
  0
VERTEX
  8
PLAN_1
  6
CONTINUOUS
 10
0.632972
 20
-3.948634
  0
VERTEX
  8
PLAN_1
  6
CONTINUOUS
 10
0.597890
 20
-3.948634
  0
VERTEX
  8
PLAN_1
  6
CONTINUOUS
 10
0.528217
 20
-3.848819
  0
VERTEX
  8
PLAN_1
  6
CONTINUOUS
 10
0.497087
 20
-3.878961
  0
VERTEX
  8
PLAN_1
  6
CONTINUOUS
 10
0.497087
 20
-3.948634
  0
SEQEND
  8
0
  0
POLYLINE
  8
PLAN_1
  6
CONTINUOUS
 66
     1
 40
0.003000
 41
0.003000
  0
VERTEX
  8
PLAN_1
  6
CONTINUOUS
 10
0.682386
 20
-3.924917
  0
VERTEX
  8
PLAN_1
  6
CONTINUOUS
 10
0.783189
 20
-3.924917
  0
VERTEX
  8
PLAN_1
  6
CONTINUOUS
 10
0.783189
 20
-3.948634
  0
VERTEX
  8
PLAN_1
  6
CONTINUOUS
 10
0.655209
 20
-3.948634
  0
VERTEX
  8
PLAN_1
  6
CONTINUOUS
 10
0.655209
 20
-3.749500
  0
VERTEX
  8
PLAN_1
  6
CONTINUOUS
 10
0.682386
 20
-3.749500
  0
VERTEX
  8
PLAN_1
  6
CONTINUOUS
 10
0.682386
 20
-3.924917
  0
SEQEND
  8
0
  0
POLYLINE
  8
PLAN_1
  6
CONTINUOUS
 66
     1
 40
0.003000
 41
0.003000
  0
VERTEX
  8
PLAN_1
  6
CONTINUOUS
 10
0.972441
 20
-3.794465
  0
VERTEX
  8
PLAN_1
  6
CONTINUOUS
 10
0.991217
 20
-3.794465
  0
VERTEX
  8
PLAN_1
  6
CONTINUOUS
 10
0.987264
 20
-3.809291
  0
VERTEX
  8
PLAN_1
  6
CONTINUOUS
 10
0.982819
 20
-3.824114
  0
VERTEX
  8
PLAN_1
  6
CONTINUOUS
 10
0.978370
 20
-3.838445
  0
VERTEX
  8
PLAN_1
  6
CONTINUOUS
 10
0.974909
 20
-3.851291
  0
VERTEX
  8
PLAN_1
  6
CONTINUOUS
 10
0.971453
 20
-3.863150
  0
VERTEX
  8
PLAN_1
  6
CONTINUOUS
 10
0.968488
 20
-3.873031
  0
VERTEX
  8
PLAN_1
  6
CONTINUOUS
 10
0.967004
 20
-3.880445
  0
VERTEX
  8
PLAN_1
  6
CONTINUOUS
 10
0.966016
 20
-3.884894
  0
VERTEX
  8
PLAN_1
  6
CONTINUOUS
 10
0.966016
 20
-3.886870
  0
VERTEX
  8
PLAN_1
  6
CONTINUOUS
 10
0.966512
 20
-3.888350
  0
VERTEX
  8
PLAN_1
  6
CONTINUOUS
 10
0.967004
 20
-3.889835
  0
VERTEX
  8
PLAN_1
  6
CONTINUOUS
 10
0.967500
 20
-3.890823
  0
VERTEX
  8
PLAN_1
  6
CONTINUOUS
 10
0.967992
 20
-3.891811
  0
VERTEX
  8
PLAN_1
  6
CONTINUOUS
 10
0.968980
 20
-3.892303
  0
VERTEX
  8
PLAN_1
  6
CONTINUOUS
 10
0.970465
 20
-3.892799
  0
VERTEX
  8
PLAN_1
  6
CONTINUOUS
 10
0.971945
 20
-3.892799
  0
VERTEX
  8
PLAN_1
  6
CONTINUOUS
 10
0.975406
 20
-3.892799
  0
VERTEX
  8
PLAN_1
  6
CONTINUOUS
 10
0.978866
 20
-3.891811
  0
VERTEX
  8
PLAN_1
  6
CONTINUOUS
 10
0.982819
 20
-3.889835
  0
VERTEX
  8
PLAN_1
  6
CONTINUOUS
 10
0.986276
 20
-3.887858
  0
VERTEX
  8
PLAN_1
  6
CONTINUOUS
 10
0.989736
 20
-3.884894
  0
VERTEX
  8
PLAN_1
  6
CONTINUOUS
 10
0.992701
 20
-3.881925
  0
VERTEX
  8
PLAN_1
  6
CONTINUOUS
 10
0.995665
 20
-3.878469
  0
VERTEX
  8
PLAN_1
  6
CONTINUOUS
 10
0.998630
 20
-3.874020
  0
VERTEX
  8
PLAN_1
  6
CONTINUOUS
 10
1.001594
 20
-3.869575
  0
VERTEX
  8
PLAN_1
  6
CONTINUOUS
 10
1.004067
 20
-3.865126
  0
VERTEX
  8
PLAN_1
  6
CONTINUOUS
 10
1.006043
 20
-3.860185
  0
VERTEX
  8
PLAN_1
  6
CONTINUOUS
 10
1.008020
 20
-3.854752
  0
VERTEX
  8
PLAN_1
  6
CONTINUOUS
 10
1.009500
 20
-3.849807
  0
VERTEX
  8
PLAN_1
  6
CONTINUOUS
 10
1.010488
 20
-3.844374
  0
VERTEX
  8
PLAN_1
  6
CONTINUOUS
 10
1.010984
 20
-3.838445
  0
VERTEX
  8
PLAN_1
  6
CONTINUOUS
 10
1.011476
 20
-3.833008
  0
VERTEX
  8
PLAN_1
  6
CONTINUOUS
 10
1.010984
 20
-3.825102
  0
VERTEX
  8
PLAN_1
  6
CONTINUOUS
 10
1.009996
 20
-3.817197
  0
VERTEX
  8
PLAN_1
  6
CONTINUOUS
 10
1.008020
 20
-3.809783
  0
VERTEX
  8
PLAN_1
  6
CONTINUOUS
 10
1.005055
 20
-3.803362
  0
VERTEX
  8
PLAN_1
  6
CONTINUOUS
 10
1.002087
 20
-3.796937
  0
VERTEX
  8
PLAN_1
  6
CONTINUOUS
 10
0.998134
 20
-3.791008
  0
VERTEX
  8
PLAN_1
  6
CONTINUOUS
 10
0.993193
 20
-3.785571
  0
VERTEX
  8
PLAN_1
  6
CONTINUOUS
 10
0.988252
 20
-3.780630
  0
VERTEX
  8
PLAN_1
  6
CONTINUOUS
 10
0.982819
 20
-3.776185
  0
VERTEX
  8
PLAN_1
  6
CONTINUOUS
 10
0.976890
 20
-3.772232
  0
VERTEX
  8
PLAN_1
  6
CONTINUOUS
 10
0.970465
 20
-3.769264
  0
VERTEX
  8
PLAN_1
  6
CONTINUOUS
 10
0.963547
 20
-3.766299
  0
VERTEX
  8
PLAN_1
  6
CONTINUOUS
 10
0.956630
 20
-3.764323
  0
VERTEX
  8
PLAN_1
  6
CONTINUOUS
 10
0.949217
 20
-3.762843
  0
VERTEX
  8
PLAN_1
  6
CONTINUOUS
 10
0.941803
 20
-3.761854
  0
VERTEX
  8
PLAN_1
  6
CONTINUOUS
 10
0.933898
 20
-3.761358
  0
VERTEX
  8
PLAN_1
  6
CONTINUOUS
 10
0.925004
 20
-3.761854
  0
VERTEX
  8
PLAN_1
  6
CONTINUOUS
 10
0.916110
 20
-3.763335
  0
VERTEX
  8
PLAN_1
  6
CONTINUOUS
 10
0.907709
 20
-3.765311
  0
VERTEX
  8
PLAN_1
  6
CONTINUOUS
 10
0.899803
 20
-3.768276
  0
VERTEX
  8
PLAN_1
  6
CONTINUOUS
 10
0.892394
 20
-3.772232
  0
VERTEX
  8
PLAN_1
  6
CONTINUOUS
 10
0.885472
 20
-3.776677
  0
VERTEX
  8
PLAN_1
  6
CONTINUOUS
 10
0.879051
 20
-3.781618
  0
VERTEX
  8
PLAN_1
  6
CONTINUOUS
 10
0.873122
 20
-3.787547
  0
VERTEX
  8
PLAN_1
  6
CONTINUOUS
 10
0.868181
 20
-3.793972
  0
VERTEX
  8
PLAN_1
  6
CONTINUOUS
 10
0.863236
 20
-3.800398
  0
VERTEX
  8
PLAN_1
  6
CONTINUOUS
 10
0.859283
 20
-3.807807
  0
VERTEX
  8
PLAN_1
  6
CONTINUOUS
 10
0.855827
 20
-3.815713
  0
VERTEX
  8
PLAN_1
  6
CONTINUOUS
 10
0.853354
 20
-3.823618
  0
VERTEX
  8
PLAN_1
  6
CONTINUOUS
 10
0.851378
 20
-3.832516
  0
VERTEX
  8
PLAN_1
  6
CONTINUOUS
 10
0.849898
 20
-3.841409
  0
VERTEX
  8
PLAN_1
  6
CONTINUOUS
 10
0.849402
 20
-3.850303
  0
VERTEX
  8
PLAN_1
  6
CONTINUOUS
 10
0.849898
 20
-3.859197
  0
VERTEX
  8
PLAN_1
  6
CONTINUOUS
 10
0.851378
 20
-3.868091
  0
VERTEX
  8
PLAN_1
  6
CONTINUOUS
 10
0.853354
 20
-3.876492
  0
VERTEX
  8
PLAN_1
  6
CONTINUOUS
 10
0.856319
 20
-3.884398
  0
VERTEX
  8
PLAN_1
  6
CONTINUOUS
 10
0.859780
 20
-3.892303
  0
VERTEX
  8
PLAN_1
  6
CONTINUOUS
 10
0.864228
 20
-3.899220
  0
VERTEX
  8
PLAN_1
  6
CONTINUOUS
 10
0.869169
 20
-3.906138
  0
VERTEX
  8
PLAN_1
  6
CONTINUOUS
 10
0.874602
 20
-3.912071
  0
VERTEX
  8
PLAN_1
  6
CONTINUOUS
 10
0.880531
 20
-3.917504
  0
VERTEX
  8
PLAN_1
  6
CONTINUOUS
 10
0.887449
 20
-3.922445
  0
VERTEX
  8
PLAN_1
  6
CONTINUOUS
 10
0.894370
 20
-3.926894
  0
VERTEX
  8
PLAN_1
  6
CONTINUOUS
 10
0.901780
 20
-3.930350
  0
VERTEX
  8
PLAN_1
  6
CONTINUOUS
 10
0.909685
 20
-3.933315
  0
VERTEX
  8
PLAN_1
  6
CONTINUOUS
 10
0.918087
 20
-3.935291
  0
VERTEX
  8
PLAN_1
  6
CONTINUOUS
 10
0.926980
 20
-3.936280
  0
VERTEX
  8
PLAN_1
  6
CONTINUOUS
 10
0.935874
 20
-3.936776
  0
VERTEX
  8
PLAN_1
  6
CONTINUOUS
 10
0.940815
 20
-3.936776
  0
VERTEX
  8
PLAN_1
  6
CONTINUOUS
 10
0.945756
 20
-3.936280
  0
VERTEX
  8
PLAN_1
  6
CONTINUOUS
 10
0.950205
 20
-3.935787
  0
VERTEX
  8
PLAN_1
  6
CONTINUOUS
 10
0.955146
 20
-3.934799
  0
VERTEX
  8
PLAN_1
  6
CONTINUOUS
 10
0.959594
 20
-3.933315
  0
VERTEX
  8
PLAN_1
  6
CONTINUOUS
 10
0.964535
 20
-3.931835
  0
VERTEX
  8
PLAN_1
  6
CONTINUOUS
 10
0.968980
 20
-3.930350
  0
VERTEX
  8
PLAN_1
  6
CONTINUOUS
 10
0.973429
 20
-3.928374
  0
VERTEX
  8
PLAN_1
  6
CONTINUOUS
 10
0.977878
 20
-3.926398
  0
VERTEX
  8
PLAN_1
  6
CONTINUOUS
 10
0.981831
 20
-3.923929
  0
VERTEX
  8
PLAN_1
  6
CONTINUOUS
 10
0.985783
 20
-3.920965
  0
VERTEX
  8
PLAN_1
  6
CONTINUOUS
 10
0.989736
 20
-3.918492
  0
VERTEX
  8
PLAN_1
  6
CONTINUOUS
 10
0.993689
 20
-3.915528
  0
VERTEX
  8
PLAN_1
  6
CONTINUOUS
 10
0.997146
 20
-3.912071
  0
VERTEX
  8
PLAN_1
  6
CONTINUOUS
 10
1.000110
 20
-3.908610
  0
VERTEX
  8
PLAN_1
  6
CONTINUOUS
 10
1.003571
 20
-3.905150
  0
VERTEX
  8
PLAN_1
  6
CONTINUOUS
 10
1.021854
 20
-3.905150
  0
VERTEX
  8
PLAN_1
  6
CONTINUOUS
 10
1.018394
 20
-3.910587
  0
VERTEX
  8
PLAN_1
  6
CONTINUOUS
 10
1.014441
 20
-3.916024
  0
VERTEX
  8
PLAN_1
  6
CONTINUOUS
 10
1.010488
 20
-3.920965
  0
VERTEX
  8
PLAN_1
  6
CONTINUOUS
 10
1.006043
 20
-3.925409
  0
VERTEX
  8
PLAN_1
  6
CONTINUOUS
 10
1.001098
 20
-3.929858
  0
VERTEX
  8
PLAN_1
  6
CONTINUOUS
 10
0.996157
 20
-3.933811
  0
VERTEX
  8
PLAN_1
  6
CONTINUOUS
 10
0.990724
 20
-3.937764
  0
VERTEX
  8
PLAN_1
  6
CONTINUOUS
 10
0.985287
 20
-3.941224
  0
VERTEX
  8
PLAN_1
  6
CONTINUOUS
 10
0.979358
 20
-3.944189
  0
VERTEX
  8
PLAN_1
  6
CONTINUOUS
 10
0.973429
 20
-3.946657
  0
VERTEX
  8
PLAN_1
  6
CONTINUOUS
 10
0.967500
 20
-3.948634
  0
VERTEX
  8
PLAN_1
  6
CONTINUOUS
 10
0.961571
 20
-3.950610
  0
VERTEX
  8
PLAN_1
  6
CONTINUOUS
 10
0.955146
 20
-3.952094
  0
VERTEX
  8
PLAN_1
  6
CONTINUOUS
 10
0.948724
 20
-3.953083
  0
VERTEX
  8
PLAN_1
  6
CONTINUOUS
 10
0.941803
 20
-3.954071
  0
VERTEX
  8
PLAN_1
  6
CONTINUOUS
 10
0.935382
 20
-3.954071
  0
VERTEX
  8
PLAN_1
  6
CONTINUOUS
 10
0.929945
 20
-3.954071
  0
VERTEX
  8
PLAN_1
  6
CONTINUOUS
 10
0.924512
 20
-3.953575
  0
VERTEX
  8
PLAN_1
  6
CONTINUOUS
 10
0.919075
 20
-3.953083
  0
VERTEX
  8
PLAN_1
  6
CONTINUOUS
 10
0.913638
 20
-3.952094
  0
VERTEX
  8
PLAN_1
  6
CONTINUOUS
 10
0.908697
 20
-3.950610
  0
VERTEX
  8
PLAN_1
  6
CONTINUOUS
 10
0.903756
 20
-3.949622
  0
VERTEX
  8
PLAN_1
  6
CONTINUOUS
 10
0.898815
 20
-3.947646
  0
VERTEX
  8
PLAN_1
  6
CONTINUOUS
 10
0.893874
 20
-3.945669
  0
VERTEX
  8
PLAN_1
  6
CONTINUOUS
 10
0.888933
 20
-3.943693
  0
VERTEX
  8
PLAN_1
  6
CONTINUOUS
 10
0.884484
 20
-3.941717
  0
VERTEX
  8
PLAN_1
  6
CONTINUOUS
 10
0.880039
 20
-3.939248
  0
VERTEX
  8
PLAN_1
  6
CONTINUOUS
 10
0.875591
 20
-3.936280
  0
VERTEX
  8
PLAN_1
  6
CONTINUOUS
 10
0.871638
 20
-3.933315
  0
VERTEX
  8
PLAN_1
  6
CONTINUOUS
 10
0.867685
 20
-3.930350
  0
VERTEX
  8
PLAN_1
  6
CONTINUOUS
 10
0.863732
 20
-3.926894
  0
VERTEX
  8
PLAN_1
  6
CONTINUOUS
 10
0.860272
 20
-3.923433
  0
VERTEX
  8
PLAN_1
  6
CONTINUOUS
 10
0.856815
 20
-3.919976
  0
VERTEX
  8
PLAN_1
  6
CONTINUOUS
 10
0.853354
 20
-3.916024
  0
VERTEX
  8
PLAN_1
  6
CONTINUOUS
 10
0.850390
 20
-3.912071
  0
VERTEX
  8
PLAN_1
  6
CONTINUOUS
 10
0.847425
 20
-3.908114
  0
VERTEX
  8
PLAN_1
  6
CONTINUOUS
 10
0.844461
 20
-3.903669
  0
VERTEX
  8
PLAN_1
  6
CONTINUOUS
 10
0.841992
 20
-3.899220
  0
VERTEX
  8
PLAN_1
  6
CONTINUOUS
 10
0.839520
 20
-3.894776
  0
VERTEX
  8
PLAN_1
  6
CONTINUOUS
 10
0.837543
 20
-3.889835
  0
VERTEX
  8
PLAN_1
  6
CONTINUOUS
 10
0.835567
 20
-3.885386
  0
VERTEX
  8
PLAN_1
  6
CONTINUOUS
 10
0.834083
 20
-3.880445
  0
VERTEX
  8
PLAN_1
  6
CONTINUOUS
 10
0.832602
 20
-3.875504
  0
VERTEX
  8
PLAN_1
  6
CONTINUOUS
 10
0.831614
 20
-3.870067
  0
VERTEX
  8
PLAN_1
  6
CONTINUOUS
 10
0.830626
 20
-3.865126
  0
VERTEX
  8
PLAN_1
  6
CONTINUOUS
 10
0.830130
 20
-3.859693
  0
VERTEX
  8
PLAN_1
  6
CONTINUOUS
 10
0.829638
 20
-3.854256
  0
VERTEX
  8
PLAN_1
  6
CONTINUOUS
 10
0.829142
 20
-3.848819
  0
VERTEX
  8
PLAN_1
  6
CONTINUOUS
 10
0.829638
 20
-3.843386
  0
VERTEX
  8
PLAN_1
  6
CONTINUOUS
 10
0.830130
 20
-3.837949
  0
VERTEX
  8
PLAN_1
  6
CONTINUOUS
 10
0.830626
 20
-3.832516
  0
VERTEX
  8
PLAN_1
  6
CONTINUOUS
 10
0.831614
 20
-3.827575
  0
VERTEX
  8
PLAN_1
  6
CONTINUOUS
 10
0.832602
 20
-3.822630
  0
VERTEX
  8
PLAN_1
  6
CONTINUOUS
 10
0.834083
 20
-3.817689
  0
VERTEX
  8
PLAN_1
  6
CONTINUOUS
 10
0.835567
 20
-3.812748
  0
VERTEX
  8
PLAN_1
  6
CONTINUOUS
 10
0.837543
 20
-3.807807
  0
VERTEX
  8
PLAN_1
  6
CONTINUOUS
 10
0.841992
 20
-3.798913
  0
VERTEX
  8
PLAN_1
  6
CONTINUOUS
 10
0.847425
 20
-3.790020
  0
VERTEX
  8
PLAN_1
  6
CONTINUOUS
 10
0.853354
 20
-3.782114
  0
VERTEX
  8
PLAN_1
  6
CONTINUOUS
 10
0.860272
 20
-3.774701
  0
VERTEX
  8
PLAN_1
  6
CONTINUOUS
 10
0.867685
 20
-3.767783
  0
VERTEX
  8
PLAN_1
  6
CONTINUOUS
 10
0.875591
 20
-3.761854
  0
VERTEX
  8
PLAN_1
  6
CONTINUOUS
 10
0.884484
 20
-3.756913
  0
VERTEX
  8
PLAN_1
  6
CONTINUOUS
 10
0.893382
 20
-3.752465
  0
VERTEX
  8
PLAN_1
  6
CONTINUOUS
 10
0.898323
 20
-3.750488
  0
VERTEX
  8
PLAN_1
  6
CONTINUOUS
 10
0.903264
 20
-3.749008
  0
VERTEX
  8
PLAN_1
  6
CONTINUOUS
 10
0.908205
 20
-3.747524
  0
VERTEX
  8
PLAN_1
  6
CONTINUOUS
 10
0.913146
 20
-3.746535
  0
VERTEX
  8
PLAN_1
  6
CONTINUOUS
 10
0.918087
 20
-3.745547
  0
VERTEX
  8
PLAN_1
  6
CONTINUOUS
 10
0.923524
 20
-3.745055
  0
VERTEX
  8
PLAN_1
  6
CONTINUOUS
 10
0.928465
 20
-3.744559
  0
VERTEX
  8
PLAN_1
  6
CONTINUOUS
 10
0.933898
 20
-3.744067
  0
VERTEX
  8
PLAN_1
  6
CONTINUOUS
 10
0.943287
 20
-3.744559
  0
VERTEX
  8
PLAN_1
  6
CONTINUOUS
 10
0.952677
 20
-3.746043
  0
VERTEX
  8
PLAN_1
  6
CONTINUOUS
 10
0.962063
 20
-3.748020
  0
VERTEX
  8
PLAN_1
  6
CONTINUOUS
 10
0.970465
 20
-3.750488
  0
VERTEX
  8
PLAN_1
  6
CONTINUOUS
 10
0.978866
 20
-3.753949
  0
VERTEX
  8
PLAN_1
  6
CONTINUOUS
 10
0.986772
 20
-3.758394
  0
VERTEX
  8
PLAN_1
  6
CONTINUOUS
 10
0.994181
 20
-3.763335
  0
VERTEX
  8
PLAN_1
  6
CONTINUOUS
 10
1.001098
 20
-3.768772
  0
VERTEX
  8
PLAN_1
  6
CONTINUOUS
 10
1.007031
 20
-3.774701
  0
VERTEX
  8
PLAN_1
  6
CONTINUOUS
 10
1.012961
 20
-3.781126
  0
VERTEX
  8
PLAN_1
  6
CONTINUOUS
 10
1.017406
 20
-3.788535
  0
VERTEX
  8
PLAN_1
  6
CONTINUOUS
 10
1.021854
 20
-3.795949
  0
VERTEX
  8
PLAN_1
  6
CONTINUOUS
 10
1.024819
 20
-3.804350
  0
VERTEX
  8
PLAN_1
  6
CONTINUOUS
 10
1.027287
 20
-3.812748
  0
VERTEX
  8
PLAN_1
  6
CONTINUOUS
 10
1.028276
 20
-3.817197
  0
VERTEX
  8
PLAN_1
  6
CONTINUOUS
 10
1.028772
 20
-3.821642
  0
VERTEX
  8
PLAN_1
  6
CONTINUOUS
 10
1.029264
 20
-3.826091
  0
VERTEX
  8
PLAN_1
  6
CONTINUOUS
 10
1.029264
 20
-3.831031
  0
VERTEX
  8
PLAN_1
  6
CONTINUOUS
 10
1.028772
 20
-3.839925
  0
VERTEX
  8
PLAN_1
  6
CONTINUOUS
 10
1.027783
 20
-3.848819
  0
VERTEX
  8
PLAN_1
  6
CONTINUOUS
 10
1.025311
 20
-3.856728
  0
VERTEX
  8
PLAN_1
  6
CONTINUOUS
 10
1.022346
 20
-3.864634
  0
VERTEX
  8
PLAN_1
  6
CONTINUOUS
 10
1.018890
 20
-3.871551
  0
VERTEX
  8
PLAN_1
  6
CONTINUOUS
 10
1.014937
 20
-3.878469
  0
VERTEX
  8
PLAN_1
  6
CONTINUOUS
 10
1.010488
 20
-3.884398
  0
VERTEX
  8
PLAN_1
  6
CONTINUOUS
 10
1.005547
 20
-3.889835
  0
VERTEX
  8
PLAN_1
  6
CONTINUOUS
 10
1.000110
 20
-3.894776
  0
VERTEX
  8
PLAN_1
  6
CONTINUOUS
 10
0.995169
 20
-3.898728
  0
VERTEX
  8
PLAN_1
  6
CONTINUOUS
 10
0.989240
 20
-3.902681
  0
VERTEX
  8
PLAN_1
  6
CONTINUOUS
 10
0.983807
 20
-3.905646
  0
VERTEX
  8
PLAN_1
  6
CONTINUOUS
 10
0.978370
 20
-3.908114
  0
VERTEX
  8
PLAN_1
  6
CONTINUOUS
 10
0.972933
 20
-3.909598
  0
VERTEX
  8
PLAN_1
  6
CONTINUOUS
 10
0.967992
 20
-3.910587
  0
VERTEX
  8
PLAN_1
  6
CONTINUOUS
 10
0.963051
 20
-3.911083
  0
VERTEX
  8
PLAN_1
  6
CONTINUOUS
 10
0.959594
 20
-3.910587
  0
VERTEX
  8
PLAN_1
  6
CONTINUOUS
 10
0.956630
 20
-3.910091
  0
VERTEX
  8
PLAN_1
  6
CONTINUOUS
 10
0.953665
 20
-3.908610
  0
VERTEX
  8
PLAN_1
  6
CONTINUOUS
 10
0.950701
 20
-3.906634
  0
VERTEX
  8
PLAN_1
  6
CONTINUOUS
 10
0.948724
 20
-3.904161
  0
VERTEX
  8
PLAN_1
  6
CONTINUOUS
 10
0.947240
 20
-3.901197
  0
VERTEX
  8
PLAN_1
  6
CONTINUOUS
 10
0.945756
 20
-3.897740
  0
VERTEX
  8
PLAN_1
  6
CONTINUOUS
 10
0.945264
 20
-3.893787
  0
VERTEX
  8
PLAN_1
  6
CONTINUOUS
 10
0.944768
 20
-3.893787
  0
VERTEX
  8
PLAN_1
  6
CONTINUOUS
 10
0.941803
 20
-3.897244
  0
VERTEX
  8
PLAN_1
  6
CONTINUOUS
 10
0.937850
 20
-3.900209
  0
VERTEX
  8
PLAN_1
  6
CONTINUOUS
 10
0.934394
 20
-3.903173
  0
VERTEX
  8
PLAN_1
  6
CONTINUOUS
 10
0.929945
 20
-3.905646
  0
VERTEX
  8
PLAN_1
  6
CONTINUOUS
 10
0.925500
 20
-3.908114
  0
VERTEX
  8
PLAN_1
  6
CONTINUOUS
 10
0.921051
 20
-3.909598
  0
VERTEX
  8
PLAN_1
  6
CONTINUOUS
 10
0.916110
 20
-3.910587
  0
VERTEX
  8
PLAN_1
  6
CONTINUOUS
 10
0.911661
 20
-3.911083
  0
VERTEX
  8
PLAN_1
  6
CONTINUOUS
 10
0.907217
 20
-3.910587
  0
VERTEX
  8
PLAN_1
  6
CONTINUOUS
 10
0.902768
 20
-3.910091
  0
VERTEX
  8
PLAN_1
  6
CONTINUOUS
 10
0.898815
 20
-3.909102
  0
VERTEX
  8
PLAN_1
  6
CONTINUOUS
 10
0.894862
 20
-3.907622
  0
VERTEX
  8
PLAN_1
  6
CONTINUOUS
 10
0.891402
 20
-3.905646
  0
VERTEX
  8
PLAN_1
  6
CONTINUOUS
 10
0.887945
 20
-3.903173
  0
VERTEX
  8
PLAN_1
  6
CONTINUOUS
 10
0.884980
 20
-3.900705
  0
VERTEX
  8
PLAN_1
  6
CONTINUOUS
 10
0.882016
 20
-3.897740
  0
VERTEX
  8
PLAN_1
  6
CONTINUOUS
 10
0.879543
 20
-3.894776
  0
VERTEX
  8
PLAN_1
  6
CONTINUOUS
 10
0.877075
 20
-3.891315
  0
VERTEX
  8
PLAN_1
  6
CONTINUOUS
 10
0.875591
 20
-3.887858
  0
VERTEX
  8
PLAN_1
  6
CONTINUOUS
 10
0.873614
 20
-3.883906
  0
VERTEX
  8
PLAN_1
  6
CONTINUOUS
 10
0.872626
 20
-3.879949
  0
VERTEX
  8
PLAN_1
  6
CONTINUOUS
 10
0.871638
 20
-3.875504
  0
VERTEX
  8
PLAN_1
  6
CONTINUOUS
 10
0.871146
 20
-3.871055
  0
VERTEX
  8
PLAN_1
  6
CONTINUOUS
 10
0.870650
 20
-3.866610
  0
VERTEX
  8
PLAN_1
  6
CONTINUOUS
 10
0.871146
 20
-3.859693
  0
VERTEX
  8
PLAN_1
  6
CONTINUOUS
 10
0.871638
 20
-3.852772
  0
VERTEX
  8
PLAN_1
  6
CONTINUOUS
 10
0.873122
 20
-3.845854
  0
VERTEX
  8
PLAN_1
  6
CONTINUOUS
 10
0.875098
 20
-3.838937
  0
VERTEX
  8
PLAN_1
  6
CONTINUOUS
 10
0.877567
 20
-3.832516
  0
VERTEX
  8
PLAN_1
  6
CONTINUOUS
 10
0.881028
 20
-3.826091
  0
VERTEX
  8
PLAN_1
  6
CONTINUOUS
 10
0.884484
 20
-3.820161
  0
VERTEX
  8
PLAN_1
  6
CONTINUOUS
 10
0.888437
 20
-3.814232
  0
VERTEX
  8
PLAN_1
  6
CONTINUOUS
 10
0.892886
 20
-3.809291
  0
VERTEX
  8
PLAN_1
  6
CONTINUOUS
 10
0.897335
 20
-3.804350
  0
VERTEX
  8
PLAN_1
  6
CONTINUOUS
 10
0.902768
 20
-3.800398
  0
VERTEX
  8
PLAN_1
  6
CONTINUOUS
 10
0.908697
 20
-3.796937
  0
VERTEX
  8
PLAN_1
  6
CONTINUOUS
 10
0.914626
 20
-3.793972
  0
VERTEX
  8
PLAN_1
  6
CONTINUOUS
 10
0.921051
 20
-3.791996
  0
VERTEX
  8
PLAN_1
  6
CONTINUOUS
 10
0.927969
 20
-3.790512
  0
VERTEX
  8
PLAN_1
  6
CONTINUOUS
 10
0.934886
 20
-3.790020
  0
VERTEX
  8
PLAN_1
  6
CONTINUOUS
 10
0.939827
 20
-3.790512
  0
VERTEX
  8
PLAN_1
  6
CONTINUOUS
 10
0.944276
 20
-3.791500
  0
VERTEX
  8
PLAN_1
  6
CONTINUOUS
 10
0.948724
 20
-3.792984
  0
VERTEX
  8
PLAN_1
  6
CONTINUOUS
 10
0.953169
 20
-3.794961
  0
VERTEX
  8
PLAN_1
  6
CONTINUOUS
 10
0.957122
 20
-3.797925
  0
VERTEX
  8
PLAN_1
  6
CONTINUOUS
 10
0.960583
 20
-3.801878
  0
VERTEX
  8
PLAN_1
  6
CONTINUOUS
 10
0.964039
 20
-3.806327
  0
VERTEX
  8
PLAN_1
  6
CONTINUOUS
 10
0.966512
 20
-3.811760
  0
VERTEX
  8
PLAN_1
  6
CONTINUOUS
 10
0.972441
 20
-3.794465
  0
SEQEND
  8
0
  0
POLYLINE
  8
PLAN_1
  6
CONTINUOUS
 66
     1
 40
0.003000
 41
0.003000
  0
VERTEX
  8
PLAN_1
  6
CONTINUOUS
 10
0.935382
 20
-3.810280
  0
VERTEX
  8
PLAN_1
  6
CONTINUOUS
 10
0.930933
 20
-3.810280
  0
VERTEX
  8
PLAN_1
  6
CONTINUOUS
 10
0.926488
 20
-3.811268
  0
VERTEX
  8
PLAN_1
  6
CONTINUOUS
 10
0.922535
 20
-3.813244
  0
VERTEX
  8
PLAN_1
  6
CONTINUOUS
 10
0.918579
 20
-3.815220
  0
VERTEX
  8
PLAN_1
  6
CONTINUOUS
 10
0.914626
 20
-3.818185
  0
VERTEX
  8
PLAN_1
  6
CONTINUOUS
 10
0.911169
 20
-3.821150
  0
VERTEX
  8
PLAN_1
  6
CONTINUOUS
 10
0.908205
 20
-3.824606
  0
VERTEX
  8
PLAN_1
  6
CONTINUOUS
 10
0.905240
 20
-3.828563
  0
VERTEX
  8
PLAN_1
  6
CONTINUOUS
 10
0.902276
 20
-3.832516
  0
VERTEX
  8
PLAN_1
  6
CONTINUOUS
 10
0.900299
 20
-3.836961
  0
VERTEX
  8
PLAN_1
  6
CONTINUOUS
 10
0.898323
 20
-3.841409
  0
VERTEX
  8
PLAN_1
  6
CONTINUOUS
 10
0.896346
 20
-3.845854
  0
VERTEX
  8
PLAN_1
  6
CONTINUOUS
 10
0.895358
 20
-3.850795
  0
VERTEX
  8
PLAN_1
  6
CONTINUOUS
 10
0.894370
 20
-3.855244
  0
VERTEX
  8
PLAN_1
  6
CONTINUOUS
 10
0.893874
 20
-3.859693
  0
VERTEX
  8
PLAN_1
  6
CONTINUOUS
 10
0.893382
 20
-3.864138
  0
VERTEX
  8
PLAN_1
  6
CONTINUOUS
 10
0.893874
 20
-3.870067
  0
VERTEX
  8
PLAN_1
  6
CONTINUOUS
 10
0.895358
 20
-3.875008
  0
VERTEX
  8
PLAN_1
  6
CONTINUOUS
 10
0.897335
 20
-3.879457
  0
VERTEX
  8
PLAN_1
  6
CONTINUOUS
 10
0.899803
 20
-3.883409
  0
VERTEX
  8
PLAN_1
  6
CONTINUOUS
 10
0.901287
 20
-3.885386
  0
VERTEX
  8
PLAN_1
  6
CONTINUOUS
 10
0.903264
 20
-3.886870
  0
VERTEX
  8
PLAN_1
  6
CONTINUOUS
 10
0.905240
 20
-3.887858
  0
VERTEX
  8
PLAN_1
  6
CONTINUOUS
 10
0.907217
 20
-3.889339
  0
VERTEX
  8
PLAN_1
  6
CONTINUOUS
 10
0.909685
 20
-3.889835
  0
VERTEX
  8
PLAN_1
  6
CONTINUOUS
 10
0.911661
 20
-3.890327
  0
VERTEX
  8
PLAN_1
  6
CONTINUOUS
 10
0.914134
 20
-3.890823
  0
VERTEX
  8
PLAN_1
  6
CONTINUOUS
 10
0.916602
 20
-3.891315
  0
VERTEX
  8
PLAN_1
  6
CONTINUOUS
 10
0.921051
 20
-3.890823
  0
VERTEX
  8
PLAN_1
  6
CONTINUOUS
 10
0.925500
 20
-3.889835
  0
VERTEX
  8
PLAN_1
  6
CONTINUOUS
 10
0.929453
 20
-3.887858
  0
VERTEX
  8
PLAN_1
  6
CONTINUOUS
 10
0.933406
 20
-3.885386
  0
VERTEX
  8
PLAN_1
  6
CONTINUOUS
 10
0.936862
 20
-3.882917
  0
VERTEX
  8
PLAN_1
  6
CONTINUOUS
 10
0.940323
 20
-3.879457
  0
VERTEX
  8
PLAN_1
  6
CONTINUOUS
 10
0.943287
 20
-3.875504
  0
VERTEX
  8
PLAN_1
  6
CONTINUOUS
 10
0.946252
 20
-3.871551
  0
VERTEX
  8
PLAN_1
  6
CONTINUOUS
 10
0.948724
 20
-3.867598
  0
VERTEX
  8
PLAN_1
  6
CONTINUOUS
 10
0.951193
 20
-3.862657
  0
VERTEX
  8
PLAN_1
  6
CONTINUOUS
 10
0.953169
 20
-3.858209
  0
VERTEX
  8
PLAN_1
  6
CONTINUOUS
 10
0.955146
 20
-3.853760
  0
VERTEX
  8
PLAN_1
  6
CONTINUOUS
 10
0.956134
 20
-3.848819
  0
VERTEX
  8
PLAN_1
  6
CONTINUOUS
 10
0.957122
 20
-3.844374
  0
VERTEX
  8
PLAN_1
  6
CONTINUOUS
 10
0.958110
 20
-3.839925
  0
VERTEX
  8
PLAN_1
  6
CONTINUOUS
 10
0.958110
 20
-3.835480
  0
VERTEX
  8
PLAN_1
  6
CONTINUOUS
 10
0.957618
 20
-3.830539
  0
VERTEX
  8
PLAN_1
  6
CONTINUOUS
 10
0.956134
 20
-3.826091
  0
VERTEX
  8
PLAN_1
  6
CONTINUOUS
 10
0.954157
 20
-3.821642
  0
VERTEX
  8
PLAN_1
  6
CONTINUOUS
 10
0.951193
 20
-3.817689
  0
VERTEX
  8
PLAN_1
  6
CONTINUOUS
 10
0.947736
 20
-3.814724
  0
VERTEX
  8
PLAN_1
  6
CONTINUOUS
 10
0.944276
 20
-3.812256
  0
VERTEX
  8
PLAN_1
  6
CONTINUOUS
 10
0.941803
 20
-3.811268
  0
VERTEX
  8
PLAN_1
  6
CONTINUOUS
 10
0.939827
 20
-3.810772
  0
VERTEX
  8
PLAN_1
  6
CONTINUOUS
 10
0.937850
 20
-3.810280
  0
VERTEX
  8
PLAN_1
  6
CONTINUOUS
 10
0.935382
 20
-3.810280
  0
SEQEND
  8
0
  0
POLYLINE
  8
PLAN_1
  6
CONTINUOUS
 66
     1
 40
0.003000
 41
0.003000
  0
VERTEX
  8
PLAN_1
  6
CONTINUOUS
 10
1.122657
 20
-3.890823
  0
VERTEX
  8
PLAN_1
  6
CONTINUOUS
 10
1.101902
 20
-3.948634
  0
VERTEX
  8
PLAN_1
  6
CONTINUOUS
 10
1.074232
 20
-3.948634
  0
VERTEX
  8
PLAN_1
  6
CONTINUOUS
 10
1.149339
 20
-3.749500
  0
VERTEX
  8
PLAN_1
  6
CONTINUOUS
 10
1.179480
 20
-3.749500
  0
VERTEX
  8
PLAN_1
  6
CONTINUOUS
 10
1.251622
 20
-3.948634
  0
VERTEX
  8
PLAN_1
  6
CONTINUOUS
 10
1.222469
 20
-3.948634
  0
VERTEX
  8
PLAN_1
  6
CONTINUOUS
 10
1.202705
 20
-3.890823
  0
VERTEX
  8
PLAN_1
  6
CONTINUOUS
 10
1.122657
 20
-3.890823
  0
SEQEND
  8
0
  0
SOLID
  8
PLAN_1
 10
1.192823
 20
-3.867102
 11
1.163669
 21
-3.779150
 12
1.131055
 22
-3.867102
 13
1.163173
 23
-3.779150
  0
POLYLINE
  8
PLAN_1
  6
CONTINUOUS
 66
     1
 40
0.003000
 41
0.003000
  0
VERTEX
  8
PLAN_1
  6
CONTINUOUS
 10
1.192823
 20
-3.867102
  0
VERTEX
  8
PLAN_1
  6
CONTINUOUS
 10
1.163669
 20
-3.779150
  0
VERTEX
  8
PLAN_1
  6
CONTINUOUS
 10
1.163173
 20
-3.779150
  0
VERTEX
  8
PLAN_1
  6
CONTINUOUS
 10
1.131055
 20
-3.867102
  0
VERTEX
  8
PLAN_1
  6
CONTINUOUS
 10
1.192823
 20
-3.867102
  0
SEQEND
  8
0
  0
POLYLINE
  8
PLAN_1
  6
CONTINUOUS
 66
     1
 40
0.003000
 41
0.003000
  0
VERTEX
  8
PLAN_1
  6
CONTINUOUS
 10
1.265953
 20
-3.757902
  0
VERTEX
  8
PLAN_1
  6
CONTINUOUS
 10
1.400850
 20
-3.757902
  0
VERTEX
  8
PLAN_1
  6
CONTINUOUS
 10
1.400850
 20
-3.779150
  0
VERTEX
  8
PLAN_1
  6
CONTINUOUS
 10
1.392449
 20
-3.788535
  0
VERTEX
  8
PLAN_1
  6
CONTINUOUS
 10
1.382075
 20
-3.801878
  0
VERTEX
  8
PLAN_1
  6
CONTINUOUS
 10
1.376146
 20
-3.809783
  0
VERTEX
  8
PLAN_1
  6
CONTINUOUS
 10
1.370709
 20
-3.818677
  0
VERTEX
  8
PLAN_1
  6
CONTINUOUS
 10
1.364780
 20
-3.828563
  0
VERTEX
  8
PLAN_1
  6
CONTINUOUS
 10
1.358850
 20
-3.838937
  0
VERTEX
  8
PLAN_1
  6
CONTINUOUS
 10
1.352921
 20
-3.850303
  0
VERTEX
  8
PLAN_1
  6
CONTINUOUS
 10
1.346992
 20
-3.862161
  0
VERTEX
  8
PLAN_1
  6
CONTINUOUS
 10
1.341555
 20
-3.875008
  0
VERTEX
  8
PLAN_1
  6
CONTINUOUS
 10
1.336118
 20
-3.888350
  0
VERTEX
  8
PLAN_1
  6
CONTINUOUS
 10
1.331673
 20
-3.902681
  0
VERTEX
  8
PLAN_1
  6
CONTINUOUS
 10
1.327224
 20
-3.917504
  0
VERTEX
  8
PLAN_1
  6
CONTINUOUS
 10
1.323768
 20
-3.932823
  0
VERTEX
  8
PLAN_1
  6
CONTINUOUS
 10
1.320307
 20
-3.948634
  0
VERTEX
  8
PLAN_1
  6
CONTINUOUS
 10
1.293626
 20
-3.948634
  0
VERTEX
  8
PLAN_1
  6
CONTINUOUS
 10
1.295106
 20
-3.938752
  0
VERTEX
  8
PLAN_1
  6
CONTINUOUS
 10
1.297579
 20
-3.927882
  0
VERTEX
  8
PLAN_1
  6
CONTINUOUS
 10
1.300047
 20
-3.917012
  0
VERTEX
  8
PLAN_1
  6
CONTINUOUS
 10
1.303508
 20
-3.906138
  0
VERTEX
  8
PLAN_1
  6
CONTINUOUS
 10
1.307461
 20
-3.895268
  0
VERTEX
  8
PLAN_1
  6
CONTINUOUS
 10
1.311909
 20
-3.883906
  0
VERTEX
  8
PLAN_1
  6
CONTINUOUS
 10
1.316850
 20
-3.872539
  0
VERTEX
  8
PLAN_1
  6
CONTINUOUS
 10
1.321791
 20
-3.861669
  0
VERTEX
  8
PLAN_1
  6
CONTINUOUS
 10
1.327224
 20
-3.850303
  0
VERTEX
  8
PLAN_1
  6
CONTINUOUS
 10
1.333154
 20
-3.839433
  0
VERTEX
  8
PLAN_1
  6
CONTINUOUS
 10
1.339579
 20
-3.829055
  0
VERTEX
  8
PLAN_1
  6
CONTINUOUS
 10
1.346004
 20
-3.818677
  0
VERTEX
  8
PLAN_1
  6
CONTINUOUS
 10
1.352425
 20
-3.808795
  0
VERTEX
  8
PLAN_1
  6
CONTINUOUS
 10
1.359343
 20
-3.799409
  0
VERTEX
  8
PLAN_1
  6
CONTINUOUS
 10
1.366264
 20
-3.790020
  0
VERTEX
  8
PLAN_1
  6
CONTINUOUS
 10
1.373181
 20
-3.781618
  0
VERTEX
  8
PLAN_1
  6
CONTINUOUS
 10
1.265953
 20
-3.781618
  0
VERTEX
  8
PLAN_1
  6
CONTINUOUS
 10
1.265953
 20
-3.757902
  0
SEQEND
  8
0
  0
POLYLINE
  8
PLAN_1
  6
CONTINUOUS
 66
     1
 40
0.003000
 41
0.003000
  0
VERTEX
  8
PLAN_1
  6
CONTINUOUS
 10
1.461134
 20
-3.948634
  0
VERTEX
  8
PLAN_1
  6
CONTINUOUS
 10
1.434453
 20
-3.948634
  0
VERTEX
  8
PLAN_1
  6
CONTINUOUS
 10
1.434453
 20
-3.749500
  0
VERTEX
  8
PLAN_1
  6
CONTINUOUS
 10
1.526358
 20
-3.749500
  0
VERTEX
  8
PLAN_1
  6
CONTINUOUS
 10
1.532783
 20
-3.749500
  0
VERTEX
  8
PLAN_1
  6
CONTINUOUS
 10
1.538713
 20
-3.749996
  0
VERTEX
  8
PLAN_1
  6
CONTINUOUS
 10
1.544642
 20
-3.750984
  0
VERTEX
  8
PLAN_1
  6
CONTINUOUS
 10
1.550571
 20
-3.751972
  0
VERTEX
  8
PLAN_1
  6
CONTINUOUS
 10
1.556008
 20
-3.753453
  0
VERTEX
  8
PLAN_1
  6
CONTINUOUS
 10
1.561445
 20
-3.755429
  0
VERTEX
  8
PLAN_1
  6
CONTINUOUS
 10
1.566878
 20
-3.757902
  0
VERTEX
  8
PLAN_1
  6
CONTINUOUS
 10
1.571327
 20
-3.760370
  0
VERTEX
  8
PLAN_1
  6
CONTINUOUS
 10
1.575772
 20
-3.763831
  0
VERTEX
  8
PLAN_1
  6
CONTINUOUS
 10
1.579724
 20
-3.767783
  0
VERTEX
  8
PLAN_1
  6
CONTINUOUS
 10
1.583185
 20
-3.772232
  0
VERTEX
  8
PLAN_1
  6
CONTINUOUS
 10
1.586150
 20
-3.777173
  0
VERTEX
  8
PLAN_1
  6
CONTINUOUS
 10
1.588618
 20
-3.782606
  0
VERTEX
  8
PLAN_1
  6
CONTINUOUS
 10
1.590598
 20
-3.788535
  0
VERTEX
  8
PLAN_1
  6
CONTINUOUS
 10
1.591587
 20
-3.795453
  0
VERTEX
  8
PLAN_1
  6
CONTINUOUS
 10
1.592079
 20
-3.802866
  0
VERTEX
  8
PLAN_1
  6
CONTINUOUS
 10
1.591587
 20
-3.808303
  0
VERTEX
  8
PLAN_1
  6
CONTINUOUS
 10
1.591091
 20
-3.813244
  0
VERTEX
  8
PLAN_1
  6
CONTINUOUS
 10
1.590598
 20
-3.817689
  0
VERTEX
  8
PLAN_1
  6
CONTINUOUS
 10
1.589610
 20
-3.822138
  0
VERTEX
  8
PLAN_1
  6
CONTINUOUS
 10
1.588126
 20
-3.825594
  0
VERTEX
  8
PLAN_1
  6
CONTINUOUS
 10
1.586642
 20
-3.829055
  0
VERTEX
  8
PLAN_1
  6
CONTINUOUS
 10
1.584665
 20
-3.832516
  0
VERTEX
  8
PLAN_1
  6
CONTINUOUS
 10
1.582689
 20
-3.834984
  0
VERTEX
  8
PLAN_1
  6
CONTINUOUS
 10
1.578736
 20
-3.840421
  0
VERTEX
  8
PLAN_1
  6
CONTINUOUS
 10
1.573795
 20
-3.844374
  0
VERTEX
  8
PLAN_1
  6
CONTINUOUS
 10
1.568854
 20
-3.847831
  0
VERTEX
  8
PLAN_1
  6
CONTINUOUS
 10
1.564409
 20
-3.850795
  0
VERTEX
  8
PLAN_1
  6
CONTINUOUS
 10
1.568362
 20
-3.852772
  0
VERTEX
  8
PLAN_1
  6
CONTINUOUS
 10
1.572807
 20
-3.854752
  0
VERTEX
  8
PLAN_1
  6
CONTINUOUS
 10
1.576268
 20
-3.857220
  0
VERTEX
  8
PLAN_1
  6
CONTINUOUS
 10
1.580220
 20
-3.861173
  0
VERTEX
  8
PLAN_1
  6
CONTINUOUS
 10
1.581701
 20
-3.863150
  0
VERTEX
  8
PLAN_1
  6
CONTINUOUS
 10
1.583185
 20
-3.865622
  0
VERTEX
  8
PLAN_1
  6
CONTINUOUS
 10
1.584173
 20
-3.868091
  0
VERTEX
  8
PLAN_1
  6
CONTINUOUS
 10
1.585654
 20
-3.871551
  0
VERTEX
  8
PLAN_1
  6
CONTINUOUS
 10
1.586642
 20
-3.875008
  0
VERTEX
  8
PLAN_1
  6
CONTINUOUS
 10
1.587138
 20
-3.878961
  0
VERTEX
  8
PLAN_1
  6
CONTINUOUS
 10
1.587630
 20
-3.883409
  0
VERTEX
  8
PLAN_1
  6
CONTINUOUS
 10
1.588126
 20
-3.888350
  0
VERTEX
  8
PLAN_1
  6
CONTINUOUS
 10
1.589610
 20
-3.924421
  0
VERTEX
  8
PLAN_1
  6
CONTINUOUS
 10
1.590102
 20
-3.928374
  0
VERTEX
  8
PLAN_1
  6
CONTINUOUS
 10
1.590102
 20
-3.931339
  0
VERTEX
  8
PLAN_1
  6
CONTINUOUS
 10
1.590598
 20
-3.934303
  0
VERTEX
  8
PLAN_1
  6
CONTINUOUS
 10
1.591587
 20
-3.936776
  0
VERTEX
  8
PLAN_1
  6
CONTINUOUS
 10
1.593067
 20
-3.938752
  0
VERTEX
  8
PLAN_1
  6
CONTINUOUS
 10
1.594551
 20
-3.940728
  0
VERTEX
  8
PLAN_1
  6
CONTINUOUS
 10
1.597020
 20
-3.942705
  0
VERTEX
  8
PLAN_1
  6
CONTINUOUS
 10
1.599984
 20
-3.944189
  0
VERTEX
  8
PLAN_1
  6
CONTINUOUS
 10
1.599984
 20
-3.948634
  0
VERTEX
  8
PLAN_1
  6
CONTINUOUS
 10
1.566878
 20
-3.948634
  0
VERTEX
  8
PLAN_1
  6
CONTINUOUS
 10
1.565398
 20
-3.943693
  0
VERTEX
  8
PLAN_1
  6
CONTINUOUS
 10
1.564409
 20
-3.936776
  0
VERTEX
  8
PLAN_1
  6
CONTINUOUS
 10
1.563421
 20
-3.929858
  0
VERTEX
  8
PLAN_1
  6
CONTINUOUS
 10
1.562925
 20
-3.921953
  0
VERTEX
  8
PLAN_1
  6
CONTINUOUS
 10
1.562433
 20
-3.914539
  0
VERTEX
  8
PLAN_1
  6
CONTINUOUS
 10
1.562433
 20
-3.908114
  0
VERTEX
  8
PLAN_1
  6
CONTINUOUS
 10
1.561937
 20
-3.902681
  0
VERTEX
  8
PLAN_1
  6
CONTINUOUS
 10
1.561937
 20
-3.898728
  0
VERTEX
  8
PLAN_1
  6
CONTINUOUS
 10
1.561937
 20
-3.892799
  0
VERTEX
  8
PLAN_1
  6
CONTINUOUS
 10
1.560949
 20
-3.886374
  0
VERTEX
  8
PLAN_1
  6
CONTINUOUS
 10
1.560453
 20
-3.883409
  0
VERTEX
  8
PLAN_1
  6
CONTINUOUS
 10
1.559465
 20
-3.880445
  0
VERTEX
  8
PLAN_1
  6
CONTINUOUS
 10
1.557984
 20
-3.877480
  0
VERTEX
  8
PLAN_1
  6
CONTINUOUS
 10
1.556500
 20
-3.875008
  0
VERTEX
  8
PLAN_1
  6
CONTINUOUS
 10
1.554524
 20
-3.872539
  0
VERTEX
  8
PLAN_1
  6
CONTINUOUS
 10
1.552055
 20
-3.870067
  0
VERTEX
  8
PLAN_1
  6
CONTINUOUS
 10
1.549091
 20
-3.868091
  0
VERTEX
  8
PLAN_1
  6
CONTINUOUS
 10
1.545630
 20
-3.866610
  0
VERTEX
  8
PLAN_1
  6
CONTINUOUS
 10
1.541677
 20
-3.865126
  0
VERTEX
  8
PLAN_1
  6
CONTINUOUS
 10
1.537232
 20
-3.864138
  0
VERTEX
  8
PLAN_1
  6
CONTINUOUS
 10
1.532287
 20
-3.863646
  0
VERTEX
  8
PLAN_1
  6
CONTINUOUS
 10
1.526358
 20
-3.863150
  0
VERTEX
  8
PLAN_1
  6
CONTINUOUS
 10
1.461134
 20
-3.863150
  0
VERTEX
  8
PLAN_1
  6
CONTINUOUS
 10
1.461134
 20
-3.948634
  0
SEQEND
  8
0
  0
POLYLINE
  8
PLAN_1
  6
CONTINUOUS
 66
     1
 40
0.003000
 41
0.003000
  0
VERTEX
  8
PLAN_1
  6
CONTINUOUS
 10
1.461134
 20
-3.840421
  0
VERTEX
  8
PLAN_1
  6
CONTINUOUS
 10
1.523890
 20
-3.840421
  0
VERTEX
  8
PLAN_1
  6
CONTINUOUS
 10
1.531299
 20
-3.839925
  0
VERTEX
  8
PLAN_1
  6
CONTINUOUS
 10
1.538220
 20
-3.838937
  0
VERTEX
  8
PLAN_1
  6
CONTINUOUS
 10
1.541677
 20
-3.838445
  0
VERTEX
  8
PLAN_1
  6
CONTINUOUS
 10
1.545138
 20
-3.836961
  0
VERTEX
  8
PLAN_1
  6
CONTINUOUS
 10
1.548594
 20
-3.835972
  0
VERTEX
  8
PLAN_1
  6
CONTINUOUS
 10
1.551559
 20
-3.833996
  0
VERTEX
  8
PLAN_1
  6
CONTINUOUS
 10
1.554031
 20
-3.832020
  0
VERTEX
  8
PLAN_1
  6
CONTINUOUS
 10
1.556500
 20
-3.829551
  0
VERTEX
  8
PLAN_1
  6
CONTINUOUS
 10
1.558972
 20
-3.827079
  0
VERTEX
  8
PLAN_1
  6
CONTINUOUS
 10
1.560453
 20
-3.823618
  0
VERTEX
  8
PLAN_1
  6
CONTINUOUS
 10
1.561937
 20
-3.820161
  0
VERTEX
  8
PLAN_1
  6
CONTINUOUS
 10
1.563421
 20
-3.815713
  0
VERTEX
  8
PLAN_1
  6
CONTINUOUS
 10
1.563913
 20
-3.811268
  0
VERTEX
  8
PLAN_1
  6
CONTINUOUS
 10
1.564409
 20
-3.805831
  0
VERTEX
  8
PLAN_1
  6
CONTINUOUS
 10
1.563913
 20
-3.800398
  0
VERTEX
  8
PLAN_1
  6
CONTINUOUS
 10
1.563421
 20
-3.795453
  0
VERTEX
  8
PLAN_1
  6
CONTINUOUS
 10
1.561937
 20
-3.791500
  0
VERTEX
  8
PLAN_1
  6
CONTINUOUS
 10
1.560453
 20
-3.787547
  0
VERTEX
  8
PLAN_1
  6
CONTINUOUS
 10
1.558476
 20
-3.784583
  0
VERTEX
  8
PLAN_1
  6
CONTINUOUS
 10
1.556500
 20
-3.781618
  0
VERTEX
  8
PLAN_1
  6
CONTINUOUS
 10
1.554031
 20
-3.779642
  0
VERTEX
  8
PLAN_1
  6
CONTINUOUS
 10
1.551559
 20
-3.777665
  0
VERTEX
  8
PLAN_1
  6
CONTINUOUS
 10
1.548594
 20
-3.776185
  0
VERTEX
  8
PLAN_1
  6
CONTINUOUS
 10
1.545630
 20
-3.775197
  0
VERTEX
  8
PLAN_1
  6
CONTINUOUS
 10
1.542665
 20
-3.774209
  0
VERTEX
  8
PLAN_1
  6
CONTINUOUS
 10
1.539701
 20
-3.773220
  0
VERTEX
  8
PLAN_1
  6
CONTINUOUS
 10
1.533772
 20
-3.772724
  0
VERTEX
  8
PLAN_1
  6
CONTINUOUS
 10
1.528335
 20
-3.772724
  0
VERTEX
  8
PLAN_1
  6
CONTINUOUS
 10
1.461134
 20
-3.772724
  0
VERTEX
  8
PLAN_1
  6
CONTINUOUS
 10
1.461134
 20
-3.840421
  0
SEQEND
  8
0
  0
SOLID
  8
PLAN_1
 10
1.663232
 20
-3.948634
 11
1.634575
 21
-3.948634
 12
1.663232
 22
-3.919480
 13
1.634575
 23
-3.919480
  0
POLYLINE
  8
PLAN_1
  6
CONTINUOUS
 66
     1
 40
0.003000
 41
0.003000
  0
VERTEX
  8
PLAN_1
  6
CONTINUOUS
 10
1.663232
 20
-3.948634
  0
VERTEX
  8
PLAN_1
  6
CONTINUOUS
 10
1.634575
 20
-3.948634
  0
VERTEX
  8
PLAN_1
  6
CONTINUOUS
 10
1.634575
 20
-3.919480
  0
VERTEX
  8
PLAN_1
  6
CONTINUOUS
 10
1.663232
 20
-3.919480
  0
VERTEX
  8
PLAN_1
  6
CONTINUOUS
 10
1.663232
 20
-3.948634
  0
SEQEND
  8
0
  0
POLYLINE
  8
PLAN_1
  6
CONTINUOUS
 66
     1
 40
0.003000
 41
0.003000
  0
VERTEX
  8
PLAN_1
  6
CONTINUOUS
 10
1.858413
 20
-3.948634
  0
VERTEX
  8
PLAN_1
  6
CONTINUOUS
 10
1.711165
 20
-3.948634
  0
VERTEX
  8
PLAN_1
  6
CONTINUOUS
 10
1.711165
 20
-3.749500
  0
VERTEX
  8
PLAN_1
  6
CONTINUOUS
 10
1.856437
 20
-3.749500
  0
VERTEX
  8
PLAN_1
  6
CONTINUOUS
 10
1.856437
 20
-3.773220
  0
VERTEX
  8
PLAN_1
  6
CONTINUOUS
 10
1.738343
 20
-3.773220
  0
VERTEX
  8
PLAN_1
  6
CONTINUOUS
 10
1.738343
 20
-3.834492
  0
VERTEX
  8
PLAN_1
  6
CONTINUOUS
 10
1.847543
 20
-3.834492
  0
VERTEX
  8
PLAN_1
  6
CONTINUOUS
 10
1.847543
 20
-3.858209
  0
VERTEX
  8
PLAN_1
  6
CONTINUOUS
 10
1.738343
 20
-3.858209
  0
VERTEX
  8
PLAN_1
  6
CONTINUOUS
 10
1.738343
 20
-3.924917
  0
VERTEX
  8
PLAN_1
  6
CONTINUOUS
 10
1.858413
 20
-3.924917
  0
VERTEX
  8
PLAN_1
  6
CONTINUOUS
 10
1.858413
 20
-3.948634
  0
SEQEND
  8
0
  0
POLYLINE
  8
PLAN_1
  6
CONTINUOUS
 66
     1
 40
0.003000
 41
0.003000
  0
VERTEX
  8
PLAN_1
  6
CONTINUOUS
 10
1.923642
 20
-3.948634
  0
VERTEX
  8
PLAN_1
  6
CONTINUOUS
 10
1.896465
 20
-3.948634
  0
VERTEX
  8
PLAN_1
  6
CONTINUOUS
 10
1.896465
 20
-3.749500
  0
VERTEX
  8
PLAN_1
  6
CONTINUOUS
 10
1.986394
 20
-3.749500
  0
VERTEX
  8
PLAN_1
  6
CONTINUOUS
 10
1.992819
 20
-3.749996
  0
VERTEX
  8
PLAN_1
  6
CONTINUOUS
 10
1.999240
 20
-3.750488
  0
VERTEX
  8
PLAN_1
  6
CONTINUOUS
 10
2.005169
 20
-3.751972
  0
VERTEX
  8
PLAN_1
  6
CONTINUOUS
 10
2.011102
 20
-3.753949
  0
VERTEX
  8
PLAN_1
  6
CONTINUOUS
 10
2.016535
 20
-3.755925
  0
VERTEX
  8
PLAN_1
  6
CONTINUOUS
 10
2.020984
 20
-3.758890
  0
VERTEX
  8
PLAN_1
  6
CONTINUOUS
 10
2.025429
 20
-3.761854
  0
VERTEX
  8
PLAN_1
  6
CONTINUOUS
 10
2.029878
 20
-3.765311
  0
VERTEX
  8
PLAN_1
  6
CONTINUOUS
 10
2.033335
 20
-3.769264
  0
VERTEX
  8
PLAN_1
  6
CONTINUOUS
 10
2.036303
 20
-3.773713
  0
VERTEX
  8
PLAN_1
  6
CONTINUOUS
 10
2.039268
 20
-3.778161
  0
VERTEX
  8
PLAN_1
  6
CONTINUOUS
 10
2.041244
 20
-3.783102
  0
VERTEX
  8
PLAN_1
  6
CONTINUOUS
 10
2.043220
 20
-3.788535
  0
VERTEX
  8
PLAN_1
  6
CONTINUOUS
 10
2.044209
 20
-3.793972
  0
VERTEX
  8
PLAN_1
  6
CONTINUOUS
 10
2.045197
 20
-3.799902
  0
VERTEX
  8
PLAN_1
  6
CONTINUOUS
 10
2.045197
 20
-3.805831
  0
VERTEX
  8
PLAN_1
  6
CONTINUOUS
 10
2.045197
 20
-3.810772
  0
VERTEX
  8
PLAN_1
  6
CONTINUOUS
 10
2.044701
 20
-3.816209
  0
VERTEX
  8
PLAN_1
  6
CONTINUOUS
 10
2.043713
 20
-3.821150
  0
VERTEX
  8
PLAN_1
  6
CONTINUOUS
 10
2.042232
 20
-3.826583
  0
VERTEX
  8
PLAN_1
  6
CONTINUOUS
 10
2.040256
 20
-3.831528
  0
VERTEX
  8
PLAN_1
  6
CONTINUOUS
 10
2.038280
 20
-3.836469
  0
VERTEX
  8
PLAN_1
  6
CONTINUOUS
 10
2.035315
 20
-3.841409
  0
VERTEX
  8
PLAN_1
  6
CONTINUOUS
 10
2.031854
 20
-3.845362
  0
VERTEX
  8
PLAN_1
  6
CONTINUOUS
 10
2.028394
 20
-3.849807
  0
VERTEX
  8
PLAN_1
  6
CONTINUOUS
 10
2.023949
 20
-3.853268
  0
VERTEX
  8
PLAN_1
  6
CONTINUOUS
 10
2.019008
 20
-3.856728
  0
VERTEX
  8
PLAN_1
  6
CONTINUOUS
 10
2.013571
 20
-3.859197
  0
VERTEX
  8
PLAN_1
  6
CONTINUOUS
 10
2.007642
 20
-3.861669
  0
VERTEX
  8
PLAN_1
  6
CONTINUOUS
 10
2.001217
 20
-3.863150
  0
VERTEX
  8
PLAN_1
  6
CONTINUOUS
 10
1.993807
 20
-3.864138
  0
VERTEX
  8
PLAN_1
  6
CONTINUOUS
 10
1.986394
 20
-3.864634
  0
VERTEX
  8
PLAN_1
  6
CONTINUOUS
 10
1.923642
 20
-3.864634
  0
VERTEX
  8
PLAN_1
  6
CONTINUOUS
 10
1.923642
 20
-3.948634
  0
SEQEND
  8
0
  0
POLYLINE
  8
PLAN_1
  6
CONTINUOUS
 66
     1
 40
0.003000
 41
0.003000
  0
VERTEX
  8
PLAN_1
  6
CONTINUOUS
 10
1.923642
 20
-3.841902
  0
VERTEX
  8
PLAN_1
  6
CONTINUOUS
 10
1.977004
 20
-3.841902
  0
VERTEX
  8
PLAN_1
  6
CONTINUOUS
 10
1.981453
 20
-3.841409
  0
VERTEX
  8
PLAN_1
  6
CONTINUOUS
 10
1.985902
 20
-3.841409
  0
VERTEX
  8
PLAN_1
  6
CONTINUOUS
 10
1.989854
 20
-3.840913
  0
VERTEX
  8
PLAN_1
  6
CONTINUOUS
 10
1.993807
 20
-3.839925
  0
VERTEX
  8
PLAN_1
  6
CONTINUOUS
 10
1.997264
 20
-3.838937
  0
VERTEX
  8
PLAN_1
  6
CONTINUOUS
 10
2.000724
 20
-3.837457
  0
VERTEX
  8
PLAN_1
  6
CONTINUOUS
 10
2.003689
 20
-3.835972
  0
VERTEX
  8
PLAN_1
  6
CONTINUOUS
 10
2.006157
 20
-3.833996
  0
VERTEX
  8
PLAN_1
  6
CONTINUOUS
 10
2.009126
 20
-3.831528
  0
VERTEX
  8
PLAN_1
  6
CONTINUOUS
 10
2.011102
 20
-3.829055
  0
VERTEX
  8
PLAN_1
  6
CONTINUOUS
 10
2.013079
 20
-3.826091
  0
VERTEX
  8
PLAN_1
  6
CONTINUOUS
 10
2.014559
 20
-3.822630
  0
VERTEX
  8
PLAN_1
  6
CONTINUOUS
 10
2.016043
 20
-3.819173
  0
VERTEX
  8
PLAN_1
  6
CONTINUOUS
 10
2.017031
 20
-3.815220
  0
VERTEX
  8
PLAN_1
  6
CONTINUOUS
 10
2.017524
 20
-3.810772
  0
VERTEX
  8
PLAN_1
  6
CONTINUOUS
 10
2.017524
 20
-3.805831
  0
VERTEX
  8
PLAN_1
  6
CONTINUOUS
 10
2.017524
 20
-3.801386
  0
VERTEX
  8
PLAN_1
  6
CONTINUOUS
 10
2.017031
 20
-3.797429
  0
VERTEX
  8
PLAN_1
  6
CONTINUOUS
 10
2.016043
 20
-3.793476
  0
VERTEX
  8
PLAN_1
  6
CONTINUOUS
 10
2.014559
 20
-3.790020
  0
VERTEX
  8
PLAN_1
  6
CONTINUOUS
 10
2.013079
 20
-3.787055
  0
VERTEX
  8
PLAN_1
  6
CONTINUOUS
 10
2.011102
 20
-3.784091
  0
VERTEX
  8
PLAN_1
  6
CONTINUOUS
 10
2.008630
 20
-3.781618
  0
VERTEX
  8
PLAN_1
  6
CONTINUOUS
 10
2.006157
 20
-3.779642
  0
VERTEX
  8
PLAN_1
  6
CONTINUOUS
 10
2.003193
 20
-3.778161
  0
VERTEX
  8
PLAN_1
  6
CONTINUOUS
 10
2.000228
 20
-3.776677
  0
VERTEX
  8
PLAN_1
  6
CONTINUOUS
 10
1.997264
 20
-3.775197
  0
VERTEX
  8
PLAN_1
  6
CONTINUOUS
 10
1.993807
 20
-3.774209
  0
VERTEX
  8
PLAN_1
  6
CONTINUOUS
 10
1.986394
 20
-3.773220
  0
VERTEX
  8
PLAN_1
  6
CONTINUOUS
 10
1.977992
 20
-3.772724
  0
VERTEX
  8
PLAN_1
  6
CONTINUOUS
 10
1.923642
 20
-3.772724
  0
VERTEX
  8
PLAN_1
  6
CONTINUOUS
 10
1.923642
 20
-3.841902
  0
SEQEND
  8
0
  0
POLYLINE
  8
PLAN_1
  6
CONTINUOUS
 66
     1
 40
0.003000
 41
0.003000
  0
VERTEX
  8
PLAN_1
  6
CONTINUOUS
 10
2.199362
 20
-3.807807
  0
VERTEX
  8
PLAN_1
  6
CONTINUOUS
 10
2.198870
 20
-3.802374
  0
VERTEX
  8
PLAN_1
  6
CONTINUOUS
 10
2.197386
 20
-3.797429
  0
VERTEX
  8
PLAN_1
  6
CONTINUOUS
 10
2.195906
 20
-3.792488
  0
VERTEX
  8
PLAN_1
  6
CONTINUOUS
 10
2.193929
 20
-3.788535
  0
VERTEX
  8
PLAN_1
  6
CONTINUOUS
 10
2.191457
 20
-3.784583
  0
VERTEX
  8
PLAN_1
  6
CONTINUOUS
 10
2.188988
 20
-3.781618
  0
VERTEX
  8
PLAN_1
  6
CONTINUOUS
 10
2.186024
 20
-3.778654
  0
VERTEX
  8
PLAN_1
  6
CONTINUOUS
 10
2.182563
 20
-3.776185
  0
VERTEX
  8
PLAN_1
  6
CONTINUOUS
 10
2.178610
 20
-3.773713
  0
VERTEX
  8
PLAN_1
  6
CONTINUOUS
 10
2.175154
 20
-3.772232
  0
VERTEX
  8
PLAN_1
  6
CONTINUOUS
 10
2.170705
 20
-3.770748
  0
VERTEX
  8
PLAN_1
  6
CONTINUOUS
 10
2.166752
 20
-3.769264
  0
VERTEX
  8
PLAN_1
  6
CONTINUOUS
 10
2.162799
 20
-3.768276
  0
VERTEX
  8
PLAN_1
  6
CONTINUOUS
 10
2.158350
 20
-3.767783
  0
VERTEX
  8
PLAN_1
  6
CONTINUOUS
 10
2.153906
 20
-3.767287
  0
VERTEX
  8
PLAN_1
  6
CONTINUOUS
 10
2.149953
 20
-3.767287
  0
VERTEX
  8
PLAN_1
  6
CONTINUOUS
 10
2.143031
 20
-3.767783
  0
VERTEX
  8
PLAN_1
  6
CONTINUOUS
 10
2.135622
 20
-3.768276
  0
VERTEX
  8
PLAN_1
  6
CONTINUOUS
 10
2.131669
 20
-3.769264
  0
VERTEX
  8
PLAN_1
  6
CONTINUOUS
 10
2.127717
 20
-3.770252
  0
VERTEX
  8
PLAN_1
  6
CONTINUOUS
 10
2.124256
 20
-3.771736
  0
VERTEX
  8
PLAN_1
  6
CONTINUOUS
 10
2.120799
 20
-3.773220
  0
VERTEX
  8
PLAN_1
  6
CONTINUOUS
 10
2.117339
 20
-3.775689
  0
VERTEX
  8
PLAN_1
  6
CONTINUOUS
 10
2.114374
 20
-3.778161
  0
VERTEX
  8
PLAN_1
  6
CONTINUOUS
 10
2.111409
 20
-3.780630
  0
VERTEX
  8
PLAN_1
  6
CONTINUOUS
 10
2.108937
 20
-3.784091
  0
VERTEX
  8
PLAN_1
  6
CONTINUOUS
 10
2.106961
 20
-3.788043
  0
VERTEX
  8
PLAN_1
  6
CONTINUOUS
 10
2.105480
 20
-3.791996
  0
VERTEX
  8
PLAN_1
  6
CONTINUOUS
 10
2.104492
 20
-3.796937
  0
VERTEX
  8
PLAN_1
  6
CONTINUOUS
 10
2.104492
 20
-3.802374
  0
VERTEX
  8
PLAN_1
  6
CONTINUOUS
 10
2.104492
 20
-3.805339
  0
VERTEX
  8
PLAN_1
  6
CONTINUOUS
 10
2.104984
 20
-3.808303
  0
VERTEX
  8
PLAN_1
  6
CONTINUOUS
 10
2.105480
 20
-3.810772
  0
VERTEX
  8
PLAN_1
  6
CONTINUOUS
 10
2.106469
 20
-3.812748
  0
VERTEX
  8
PLAN_1
  6
CONTINUOUS
 10
2.107457
 20
-3.815220
  0
VERTEX
  8
PLAN_1
  6
CONTINUOUS
 10
2.108445
 20
-3.817197
  0
VERTEX
  8
PLAN_1
  6
CONTINUOUS
 10
2.109925
 20
-3.818677
  0
VERTEX
  8
PLAN_1
  6
CONTINUOUS
 10
2.111902
 20
-3.820161
  0
VERTEX
  8
PLAN_1
  6
CONTINUOUS
 10
2.115362
 20
-3.822630
  0
VERTEX
  8
PLAN_1
  6
CONTINUOUS
 10
2.119315
 20
-3.824606
  0
VERTEX
  8
PLAN_1
  6
CONTINUOUS
 10
2.123268
 20
-3.826583
  0
VERTEX
  8
PLAN_1
  6
CONTINUOUS
 10
2.127717
 20
-3.827575
  0
VERTEX
  8
PLAN_1
  6
CONTINUOUS
 10
2.184539
 20
-3.840421
  0
VERTEX
  8
PLAN_1
  6
CONTINUOUS
 10
2.189480
 20
-3.841902
  0
VERTEX
  8
PLAN_1
  6
CONTINUOUS
 10
2.193929
 20
-3.843386
  0
VERTEX
  8
PLAN_1
  6
CONTINUOUS
 10
2.198374
 20
-3.844866
  0
VERTEX
  8
PLAN_1
  6
CONTINUOUS
 10
2.202823
 20
-3.846843
  0
VERTEX
  8
PLAN_1
  6
CONTINUOUS
 10
2.206776
 20
-3.849315
  0
VERTEX
  8
PLAN_1
  6
CONTINUOUS
 10
2.210236
 20
-3.851783
  0
VERTEX
  8
PLAN_1
  6
CONTINUOUS
 10
2.213693
 20
-3.854752
  0
VERTEX
  8
PLAN_1
  6
CONTINUOUS
 10
2.217154
 20
-3.857717
  0
VERTEX
  8
PLAN_1
  6
CONTINUOUS
 10
2.220118
 20
-3.861173
  0
VERTEX
  8
PLAN_1
  6
CONTINUOUS
 10
2.222587
 20
-3.864634
  0
VERTEX
  8
PLAN_1
  6
CONTINUOUS
 10
2.224563
 20
-3.868587
  0
VERTEX
  8
PLAN_1
  6
CONTINUOUS
 10
2.226539
 20
-3.873031
  0
VERTEX
  8
PLAN_1
  6
CONTINUOUS
 10
2.228024
 20
-3.877480
  0
VERTEX
  8
PLAN_1
  6
CONTINUOUS
 10
2.229012
 20
-3.882917
  0
VERTEX
  8
PLAN_1
  6
CONTINUOUS
 10
2.230000
 20
-3.888350
  0
VERTEX
  8
PLAN_1
  6
CONTINUOUS
 10
2.230000
 20
-3.893787
  0
VERTEX
  8
PLAN_1
  6
CONTINUOUS
 10
2.230000
 20
-3.898232
  0
VERTEX
  8
PLAN_1
  6
CONTINUOUS
 10
2.229504
 20
-3.902185
  0
VERTEX
  8
PLAN_1
  6
CONTINUOUS
 10
2.229012
 20
-3.906138
  0
VERTEX
  8
PLAN_1
  6
CONTINUOUS
 10
2.228024
 20
-3.910091
  0
VERTEX
  8
PLAN_1
  6
CONTINUOUS
 10
2.227035
 20
-3.913551
  0
VERTEX
  8
PLAN_1
  6
CONTINUOUS
 10
2.225551
 20
-3.917012
  0
VERTEX
  8
PLAN_1
  6
CONTINUOUS
 10
2.224071
 20
-3.919976
  0
VERTEX
  8
PLAN_1
  6
CONTINUOUS
 10
2.222587
 20
-3.922941
  0
VERTEX
  8
PLAN_1
  6
CONTINUOUS
 10
2.218634
 20
-3.928870
  0
VERTEX
  8
PLAN_1
  6
CONTINUOUS
 10
2.214189
 20
-3.933811
  0
VERTEX
  8
PLAN_1
  6
CONTINUOUS
 10
2.209248
 20
-3.937764
  0
VERTEX
  8
PLAN_1
  6
CONTINUOUS
 10
2.203811
 20
-3.941717
  0
VERTEX
  8
PLAN_1
  6
CONTINUOUS
 10
2.197882
 20
-3.944681
  0
VERTEX
  8
PLAN_1
  6
CONTINUOUS
 10
2.191457
 20
-3.947646
  0
VERTEX
  8
PLAN_1
  6
CONTINUOUS
 10
2.185035
 20
-3.949622
  0
VERTEX
  8
PLAN_1
  6
CONTINUOUS
 10
2.178610
 20
-3.951106
  0
VERTEX
  8
PLAN_1
  6
CONTINUOUS
 10
2.171693
 20
-3.952587
  0
VERTEX
  8
PLAN_1
  6
CONTINUOUS
 10
2.165268
 20
-3.953575
  0
VERTEX
  8
PLAN_1
  6
CONTINUOUS
 10
2.158350
 20
-3.954071
  0
VERTEX
  8
PLAN_1
  6
CONTINUOUS
 10
2.151929
 20
-3.954071
  0
VERTEX
  8
PLAN_1
  6
CONTINUOUS
 10
2.145504
 20
-3.954071
  0
VERTEX
  8
PLAN_1
  6
CONTINUOUS
 10
2.139079
 20
-3.953575
  0
VERTEX
  8
PLAN_1
  6
CONTINUOUS
 10
2.133646
 20
-3.953083
  0
VERTEX
  8
PLAN_1
  6
CONTINUOUS
 10
2.128209
 20
-3.952094
  0
VERTEX
  8
PLAN_1
  6
CONTINUOUS
 10
2.119315
 20
-3.950118
  0
VERTEX
  8
PLAN_1
  6
CONTINUOUS
 10
2.111409
 20
-3.947646
  0
VERTEX
  8
PLAN_1
  6
CONTINUOUS
 10
2.104984
 20
-3.944681
  0
VERTEX
  8
PLAN_1
  6
CONTINUOUS
 10
2.099551
 20
-3.941224
  0
VERTEX
  8
PLAN_1
  6
CONTINUOUS
 10
2.095598
 20
-3.938256
  0
VERTEX
  8
PLAN_1
  6
CONTINUOUS
 10
2.091646
 20
-3.934799
  0
VERTEX
  8
PLAN_1
  6
CONTINUOUS
 10
2.086209
 20
-3.929362
  0
VERTEX
  8
PLAN_1
  6
CONTINUOUS
 10
2.081268
 20
-3.923433
  0
VERTEX
  8
PLAN_1
  6
CONTINUOUS
 10
2.077807
 20
-3.917012
  0
VERTEX
  8
PLAN_1
  6
CONTINUOUS
 10
2.075339
 20
-3.911083
  0
VERTEX
  8
PLAN_1
  6
CONTINUOUS
 10
2.073362
 20
-3.904657
  0
VERTEX
  8
PLAN_1
  6
CONTINUOUS
 10
2.072374
 20
-3.898232
  0
VERTEX
  8
PLAN_1
  6
CONTINUOUS
 10
2.071878
 20
-3.891315
  0
VERTEX
  8
PLAN_1
  6
CONTINUOUS
 10
2.071386
 20
-3.884398
  0
VERTEX
  8
PLAN_1
  6
CONTINUOUS
 10
2.096587
 20
-3.884398
  0
VERTEX
  8
PLAN_1
  6
CONTINUOUS
 10
2.097079
 20
-3.890823
  0
VERTEX
  8
PLAN_1
  6
CONTINUOUS
 10
2.098067
 20
-3.896752
  0
VERTEX
  8
PLAN_1
  6
CONTINUOUS
 10
2.099551
 20
-3.902185
  0
VERTEX
  8
PLAN_1
  6
CONTINUOUS
 10
2.102020
 20
-3.907126
  0
VERTEX
  8
PLAN_1
  6
CONTINUOUS
 10
2.104492
 20
-3.911083
  0
VERTEX
  8
PLAN_1
  6
CONTINUOUS
 10
2.107457
 20
-3.915035
  0
VERTEX
  8
PLAN_1
  6
CONTINUOUS
 10
2.110913
 20
-3.918492
  0
VERTEX
  8
PLAN_1
  6
CONTINUOUS
 10
2.114866
 20
-3.921457
  0
VERTEX
  8
PLAN_1
  6
CONTINUOUS
 10
2.118823
 20
-3.923929
  0
VERTEX
  8
PLAN_1
  6
CONTINUOUS
 10
2.123268
 20
-3.925906
  0
VERTEX
  8
PLAN_1
  6
CONTINUOUS
 10
2.127717
 20
-3.927386
  0
VERTEX
  8
PLAN_1
  6
CONTINUOUS
 10
2.132161
 20
-3.928870
  0
VERTEX
  8
PLAN_1
  6
CONTINUOUS
 10
2.137102
 20
-3.929858
  0
VERTEX
  8
PLAN_1
  6
CONTINUOUS
 10
2.142043
 20
-3.930350
  0
VERTEX
  8
PLAN_1
  6
CONTINUOUS
 10
2.146988
 20
-3.930846
  0
VERTEX
  8
PLAN_1
  6
CONTINUOUS
 10
2.151929
 20
-3.930846
  0
VERTEX
  8
PLAN_1
  6
CONTINUOUS
 10
2.159339
 20
-3.930846
  0
VERTEX
  8
PLAN_1
  6
CONTINUOUS
 10
2.168232
 20
-3.929858
  0
VERTEX
  8
PLAN_1
  6
CONTINUOUS
 10
2.172681
 20
-3.928870
  0
VERTEX
  8
PLAN_1
  6
CONTINUOUS
 10
2.176634
 20
-3.927882
  0
VERTEX
  8
PLAN_1
  6
CONTINUOUS
 10
2.181083
 20
-3.926398
  0
VERTEX
  8
PLAN_1
  6
CONTINUOUS
 10
2.185035
 20
-3.924917
  0
VERTEX
  8
PLAN_1
  6
CONTINUOUS
 10
2.188988
 20
-3.922941
  0
VERTEX
  8
PLAN_1
  6
CONTINUOUS
 10
2.192445
 20
-3.920469
  0
VERTEX
  8
PLAN_1
  6
CONTINUOUS
 10
2.195906
 20
-3.918000
  0
VERTEX
  8
PLAN_1
  6
CONTINUOUS
 10
2.198374
 20
-3.914539
  0
VERTEX
  8
PLAN_1
  6
CONTINUOUS
 10
2.200846
 20
-3.911083
  0
VERTEX
  8
PLAN_1
  6
CONTINUOUS
 10
2.202331
 20
-3.907126
  0
VERTEX
  8
PLAN_1
  6
CONTINUOUS
 10
2.203319
 20
-3.902681
  0
VERTEX
  8
PLAN_1
  6
CONTINUOUS
 10
2.203811
 20
-3.897244
  0
VERTEX
  8
PLAN_1
  6
CONTINUOUS
 10
2.203811
 20
-3.893787
  0
VERTEX
  8
PLAN_1
  6
CONTINUOUS
 10
2.203319
 20
-3.890327
  0
VERTEX
  8
PLAN_1
  6
CONTINUOUS
 10
2.202823
 20
-3.887362
  0
VERTEX
  8
PLAN_1
  6
CONTINUOUS
 10
2.201835
 20
-3.884398
  0
VERTEX
  8
PLAN_1
  6
CONTINUOUS
 10
2.200846
 20
-3.881433
  0
VERTEX
  8
PLAN_1
  6
CONTINUOUS
 10
2.198870
 20
-3.879457
  0
VERTEX
  8
PLAN_1
  6
CONTINUOUS
 10
2.197386
 20
-3.876984
  0
VERTEX
  8
PLAN_1
  6
CONTINUOUS
 10
2.194917
 20
-3.875008
  0
VERTEX
  8
PLAN_1
  6
CONTINUOUS
 10
2.192445
 20
-3.873031
  0
VERTEX
  8
PLAN_1
  6
CONTINUOUS
 10
2.189480
 20
-3.871055
  0
VERTEX
  8
PLAN_1
  6
CONTINUOUS
 10
2.186024
 20
-3.869575
  0
VERTEX
  8
PLAN_1
  6
CONTINUOUS
 10
2.182071
 20
-3.868091
  0
VERTEX
  8
PLAN_1
  6
CONTINUOUS
 10
2.172681
 20
-3.865126
  0
VERTEX
  8
PLAN_1
  6
CONTINUOUS
 10
2.161315
 20
-3.862161
  0
VERTEX
  8
PLAN_1
  6
CONTINUOUS
 10
2.120799
 20
-3.852772
  0
VERTEX
  8
PLAN_1
  6
CONTINUOUS
 10
2.114866
 20
-3.851291
  0
VERTEX
  8
PLAN_1
  6
CONTINUOUS
 10
2.108445
 20
-3.848819
  0
VERTEX
  8
PLAN_1
  6
CONTINUOUS
 10
2.104984
 20
-3.847339
  0
VERTEX
  8
PLAN_1
  6
CONTINUOUS
 10
2.101528
 20
-3.845854
  0
VERTEX
  8
PLAN_1
  6
CONTINUOUS
 10
2.098067
 20
-3.843878
  0
VERTEX
  8
PLAN_1
  6
CONTINUOUS
 10
2.094610
 20
-3.841409
  0
VERTEX
  8
PLAN_1
  6
CONTINUOUS
 10
2.091150
 20
-3.838445
  0
VERTEX
  8
PLAN_1
  6
CONTINUOUS
 10
2.088185
 20
-3.834984
  0
VERTEX
  8
PLAN_1
  6
CONTINUOUS
 10
2.085220
 20
-3.831528
  0
VERTEX
  8
PLAN_1
  6
CONTINUOUS
 10
2.082748
 20
-3.827575
  0
VERTEX
  8
PLAN_1
  6
CONTINUOUS
 10
2.080772
 20
-3.822630
  0
VERTEX
  8
PLAN_1
  6
CONTINUOUS
 10
2.079291
 20
-3.817689
  0
VERTEX
  8
PLAN_1
  6
CONTINUOUS
 10
2.078303
 20
-3.812256
  0
VERTEX
  8
PLAN_1
  6
CONTINUOUS
 10
2.078303
 20
-3.805831
  0
VERTEX
  8
PLAN_1
  6
CONTINUOUS
 10
2.078303
 20
-3.799902
  0
VERTEX
  8
PLAN_1
  6
CONTINUOUS
 10
2.079291
 20
-3.794465
  0
VERTEX
  8
PLAN_1
  6
CONTINUOUS
 10
2.080280
 20
-3.788535
  0
VERTEX
  8
PLAN_1
  6
CONTINUOUS
 10
2.082256
 20
-3.783102
  0
VERTEX
  8
PLAN_1
  6
CONTINUOUS
 10
2.084232
 20
-3.777665
  0
VERTEX
  8
PLAN_1
  6
CONTINUOUS
 10
2.087197
 20
-3.772724
  0
VERTEX
  8
PLAN_1
  6
CONTINUOUS
 10
2.090657
 20
-3.767783
  0
VERTEX
  8
PLAN_1
  6
CONTINUOUS
 10
2.094610
 20
-3.763335
  0
VERTEX
  8
PLAN_1
  6
CONTINUOUS
 10
2.098563
 20
-3.759382
  0
VERTEX
  8
PLAN_1
  6
CONTINUOUS
 10
2.103996
 20
-3.755429
  0
VERTEX
  8
PLAN_1
  6
CONTINUOUS
 10
2.109433
 20
-3.752465
  0
VERTEX
  8
PLAN_1
  6
CONTINUOUS
 10
2.115854
 20
-3.749500
  0
VERTEX
  8
PLAN_1
  6
CONTINUOUS
 10
2.122280
 20
-3.747524
  0
VERTEX
  8
PLAN_1
  6
CONTINUOUS
 10
2.129693
 20
-3.745547
  0
VERTEX
  8
PLAN_1
  6
CONTINUOUS
 10
2.138091
 20
-3.744559
  0
VERTEX
  8
PLAN_1
  6
CONTINUOUS
 10
2.146988
 20
-3.744067
  0
VERTEX
  8
PLAN_1
  6
CONTINUOUS
 10
2.158846
 20
-3.744559
  0
VERTEX
  8
PLAN_1
  6
CONTINUOUS
 10
2.170209
 20
-3.746043
  0
VERTEX
  8
PLAN_1
  6
CONTINUOUS
 10
2.175154
 20
-3.747031
  0
VERTEX
  8
PLAN_1
  6
CONTINUOUS
 10
2.179598
 20
-3.748512
  0
VERTEX
  8
PLAN_1
  6
CONTINUOUS
 10
2.184047
 20
-3.749500
  0
VERTEX
  8
PLAN_1
  6
CONTINUOUS
 10
2.188000
 20
-3.750984
  0
VERTEX
  8
PLAN_1
  6
CONTINUOUS
 10
2.195409
 20
-3.754441
  0
VERTEX
  8
PLAN_1
  6
CONTINUOUS
 10
2.201835
 20
-3.758394
  0
VERTEX
  8
PLAN_1
  6
CONTINUOUS
 10
2.206776
 20
-3.762843
  0
VERTEX
  8
PLAN_1
  6
CONTINUOUS
 10
2.211224
 20
-3.767783
  0
VERTEX
  8
PLAN_1
  6
CONTINUOUS
 10
2.214681
 20
-3.772724
  0
VERTEX
  8
PLAN_1
  6
CONTINUOUS
 10
2.217646
 20
-3.778161
  0
VERTEX
  8
PLAN_1
  6
CONTINUOUS
 10
2.220118
 20
-3.783594
  0
VERTEX
  8
PLAN_1
  6
CONTINUOUS
 10
2.221598
 20
-3.788535
  0
VERTEX
  8
PLAN_1
  6
CONTINUOUS
 10
2.222587
 20
-3.793972
  0
VERTEX
  8
PLAN_1
  6
CONTINUOUS
 10
2.223575
 20
-3.798913
  0
VERTEX
  8
PLAN_1
  6
CONTINUOUS
 10
2.224071
 20
-3.803362
  0
VERTEX
  8
PLAN_1
  6
CONTINUOUS
 10
2.224563
 20
-3.807807
  0
VERTEX
  8
PLAN_1
  6
CONTINUOUS
 10
2.199362
 20
-3.807807
  0
SEQEND
  8
0
  0
POLYLINE
  8
PLAN_1
  6
CONTINUOUS
 66
     1
 40
0.008398
 41
0.008398
  0
VERTEX
  8
PLAN_1
  6
CONTINUOUS
 10
-1.383075
 20
3.397094
  0
VERTEX
  8
PLAN_1
  6
CONTINUOUS
 10
-1.383075
 20
3.630323
  0
SEQEND
  8
0
  0
POLYLINE
  8
PLAN_1
  6
CONTINUOUS
 66
     1
 40
0.008398
 41
0.008398
  0
VERTEX
  8
PLAN_1
  6
CONTINUOUS
 10
-1.383075
 20
3.630323
  0
VERTEX
  8
PLAN_1
  6
CONTINUOUS
 10
-1.391969
 20
3.637732
  0
VERTEX
  8
PLAN_1
  6
CONTINUOUS
 10
-1.401358
 20
3.644650
  0
VERTEX
  8
PLAN_1
  6
CONTINUOUS
 10
-1.411240
 20
3.651571
  0
VERTEX
  8
PLAN_1
  6
CONTINUOUS
 10
-1.421614
 20
3.657992
  0
VERTEX
  8
PLAN_1
  6
CONTINUOUS
 10
-1.432488
 20
3.663921
  0
VERTEX
  8
PLAN_1
  6
CONTINUOUS
 10
-1.444346
 20
3.669358
  0
VERTEX
  8
PLAN_1
  6
CONTINUOUS
 10
-1.455713
 20
3.674299
  0
VERTEX
  8
PLAN_1
  6
CONTINUOUS
 10
-1.468063
 20
3.679240
  0
VERTEX
  8
PLAN_1
  6
CONTINUOUS
 10
-1.480913
 20
3.683193
  0
VERTEX
  8
PLAN_1
  6
CONTINUOUS
 10
-1.493760
 20
3.686654
  0
VERTEX
  8
PLAN_1
  6
CONTINUOUS
 10
-1.507102
 20
3.690110
  0
VERTEX
  8
PLAN_1
  6
CONTINUOUS
 10
-1.520441
 20
3.692583
  0
VERTEX
  8
PLAN_1
  6
CONTINUOUS
 10
-1.534280
 20
3.694559
  0
VERTEX
  8
PLAN_1
  6
CONTINUOUS
 10
-1.548606
 20
3.696039
  0
VERTEX
  8
PLAN_1
  6
CONTINUOUS
 10
-1.562937
 20
3.697028
  0
VERTEX
  8
PLAN_1
  6
CONTINUOUS
 10
-1.577760
 20
3.697524
  0
VERTEX
  8
PLAN_1
  6
CONTINUOUS
 10
-1.592091
 20
3.697028
  0
VERTEX
  8
PLAN_1
  6
CONTINUOUS
 10
-1.606421
 20
3.696039
  0
VERTEX
  8
PLAN_1
  6
CONTINUOUS
 10
-1.620752
 20
3.694559
  0
VERTEX
  8
PLAN_1
  6
CONTINUOUS
 10
-1.634587
 20
3.692583
  0
VERTEX
  8
PLAN_1
  6
CONTINUOUS
 10
-1.648421
 20
3.690110
  0
VERTEX
  8
PLAN_1
  6
CONTINUOUS
 10
-1.661268
 20
3.686654
  0
VERTEX
  8
PLAN_1
  6
CONTINUOUS
 10
-1.674610
 20
3.683193
  0
VERTEX
  8
PLAN_1
  6
CONTINUOUS
 10
-1.686965
 20
3.679240
  0
VERTEX
  8
PLAN_1
  6
CONTINUOUS
 10
-1.699315
 20
3.674299
  0
VERTEX
  8
PLAN_1
  6
CONTINUOUS
 10
-1.711177
 20
3.669358
  0
VERTEX
  8
PLAN_1
  6
CONTINUOUS
 10
-1.722539
 20
3.663921
  0
VERTEX
  8
PLAN_1
  6
CONTINUOUS
 10
-1.733413
 20
3.657992
  0
VERTEX
  8
PLAN_1
  6
CONTINUOUS
 10
-1.743787
 20
3.651571
  0
VERTEX
  8
PLAN_1
  6
CONTINUOUS
 10
-1.753669
 20
3.644650
  0
VERTEX
  8
PLAN_1
  6
CONTINUOUS
 10
-1.763555
 20
3.637732
  0
VERTEX
  8
PLAN_1
  6
CONTINUOUS
 10
-1.772449
 20
3.630323
  0
SEQEND
  8
0
  0
POLYLINE
  8
PLAN_1
  6
CONTINUOUS
 66
     1
 40
0.008398
 41
0.008398
  0
VERTEX
  8
PLAN_1
  6
CONTINUOUS
 10
-1.772449
 20
3.630323
  0
VERTEX
  8
PLAN_1
  6
CONTINUOUS
 10
-1.772449
 20
3.397094
  0
SEQEND
  8
0
  0
POLYLINE
  8
PLAN_1
  6
CONTINUOUS
 66
     1
 40
0.008398
 41
0.008398
  0
VERTEX
  8
PLAN_1
  6
CONTINUOUS
 10
-1.052008
 20
2.753736
  0
VERTEX
  8
PLAN_1
  6
CONTINUOUS
 10
-1.052008
 20
3.065531
  0
VERTEX
  8
PLAN_1
  6
CONTINUOUS
 10
-2.103020
 20
3.065531
  0
VERTEX
  8
PLAN_1
  6
CONTINUOUS
 10
-2.103020
 20
2.753736
  0
VERTEX
  8
PLAN_1
  6
CONTINUOUS
 10
-1.052008
 20
2.753736
  0
SEQEND
  8
0
  0
POLYLINE
  8
PLAN_1
  6
CONTINUOUS
 66
     1
 40
0.008398
 41
0.008398
  0
VERTEX
  8
PLAN_1
  6
CONTINUOUS
 10
-1.188386
 20
3.124827
  0
VERTEX
  8
PLAN_1
  6
CONTINUOUS
 10
-1.188386
 20
3.163370
  0
VERTEX
  8
PLAN_1
  6
CONTINUOUS
 10
-1.237799
 20
3.363492
  0
SEQEND
  8
0
  0
POLYLINE
  8
PLAN_1
  6
CONTINUOUS
 66
     1
 40
0.008398
 41
0.008398
  0
VERTEX
  8
PLAN_1
  6
CONTINUOUS
 10
-1.237799
 20
3.363492
  0
VERTEX
  8
PLAN_1
  6
CONTINUOUS
 10
-1.237799
 20
3.366953
  0
VERTEX
  8
PLAN_1
  6
CONTINUOUS
 10
-1.238295
 20
3.369917
  0
VERTEX
  8
PLAN_1
  6
CONTINUOUS
 10
-1.239283
 20
3.373374
  0
VERTEX
  8
PLAN_1
  6
CONTINUOUS
 10
-1.240272
 20
3.376339
  0
VERTEX
  8
PLAN_1
  6
CONTINUOUS
 10
-1.241752
 20
3.379303
  0
VERTEX
  8
PLAN_1
  6
CONTINUOUS
 10
-1.243236
 20
3.382268
  0
VERTEX
  8
PLAN_1
  6
CONTINUOUS
 10
-1.245213
 20
3.384740
  0
VERTEX
  8
PLAN_1
  6
CONTINUOUS
 10
-1.247681
 20
3.387209
  0
VERTEX
  8
PLAN_1
  6
CONTINUOUS
 10
-1.249657
 20
3.389185
  0
VERTEX
  8
PLAN_1
  6
CONTINUOUS
 10
-1.252622
 20
3.391161
  0
VERTEX
  8
PLAN_1
  6
CONTINUOUS
 10
-1.255094
 20
3.392646
  0
VERTEX
  8
PLAN_1
  6
CONTINUOUS
 10
-1.258059
 20
3.394126
  0
VERTEX
  8
PLAN_1
  6
CONTINUOUS
 10
-1.261024
 20
3.395118
  0
VERTEX
  8
PLAN_1
  6
CONTINUOUS
 10
-1.264484
 20
3.396106
  0
VERTEX
  8
PLAN_1
  6
CONTINUOUS
 10
-1.267941
 20
3.396598
  0
VERTEX
  8
PLAN_1
  6
CONTINUOUS
 10
-1.270906
 20
3.396598
  0
SEQEND
  8
0
  0
POLYLINE
  8
PLAN_1
  6
CONTINUOUS
 66
     1
 40
0.008398
 41
0.008398
  0
VERTEX
  8
PLAN_1
  6
CONTINUOUS
 10
-1.270906
 20
3.396598
  0
VERTEX
  8
PLAN_1
  6
CONTINUOUS
 10
-1.883134
 20
3.396598
  0
SEQEND
  8
0
  0
POLYLINE
  8
PLAN_1
  6
CONTINUOUS
 66
     1
 40
0.008398
 41
0.008398
  0
VERTEX
  8
PLAN_1
  6
CONTINUOUS
 10
-1.883134
 20
3.396598
  0
VERTEX
  8
PLAN_1
  6
CONTINUOUS
 10
-1.888567
 20
3.396106
  0
VERTEX
  8
PLAN_1
  6
CONTINUOUS
 10
-1.894004
 20
3.395118
  0
VERTEX
  8
PLAN_1
  6
CONTINUOUS
 10
-1.898453
 20
3.393138
  0
VERTEX
  8
PLAN_1
  6
CONTINUOUS
 10
-1.902898
 20
3.390173
  0
VERTEX
  8
PLAN_1
  6
CONTINUOUS
 10
-1.906850
 20
3.386717
  0
VERTEX
  8
PLAN_1
  6
CONTINUOUS
 10
-1.910311
 20
3.382764
  0
VERTEX
  8
PLAN_1
  6
CONTINUOUS
 10
-1.912780
 20
3.378315
  0
VERTEX
  8
PLAN_1
  6
CONTINUOUS
 10
-1.914756
 20
3.373870
  0
SEQEND
  8
0
  0
POLYLINE
  8
PLAN_1
  6
CONTINUOUS
 66
     1
 40
0.008398
 41
0.008398
  0
VERTEX
  8
PLAN_1
  6
CONTINUOUS
 10
-1.914756
 20
3.373870
  0
VERTEX
  8
PLAN_1
  6
CONTINUOUS
 10
-1.967134
 20
3.163370
  0
VERTEX
  8
PLAN_1
  6
CONTINUOUS
 10
-1.967134
 20
3.124827
  0
SEQEND
  8
0
  0
POLYLINE
  8
PLAN_1
  6
CONTINUOUS
 66
     1
 40
0.008398
 41
0.008398
  0
VERTEX
  8
PLAN_1
  6
CONTINUOUS
 10
-1.188386
 20
3.163370
  0
VERTEX
  8
PLAN_1
  6
CONTINUOUS
 10
-1.967134
 20
3.163370
  0
SEQEND
  8
0
  0
POLYLINE
  8
PLAN_1
  6
CONTINUOUS
 66
     1
 40
0.008398
 41
0.008398
  0
VERTEX
  8
PLAN_1
  6
CONTINUOUS
 10
-1.975039
 20
3.123839
  0
VERTEX
  8
PLAN_1
  6
CONTINUOUS
 10
-1.888567
 20
3.123839
  0
VERTEX
  8
PLAN_1
  6
CONTINUOUS
 10
-1.888567
 20
3.065039
  0
VERTEX
  8
PLAN_1
  6
CONTINUOUS
 10
-2.102528
 20
3.065039
  0
VERTEX
  8
PLAN_1
  6
CONTINUOUS
 10
-2.102528
 20
3.123839
  0
VERTEX
  8
PLAN_1
  6
CONTINUOUS
 10
-2.016055
 20
3.123839
  0
VERTEX
  8
PLAN_1
  6
CONTINUOUS
 10
-2.016055
 20
3.093205
  0
VERTEX
  8
PLAN_1
  6
CONTINUOUS
 10
-1.975039
 20
3.093205
  0
VERTEX
  8
PLAN_1
  6
CONTINUOUS
 10
-1.975039
 20
3.123839
  0
SEQEND
  8
0
  0
POLYLINE
  8
PLAN_1
  6
CONTINUOUS
 66
     1
 40
0.008398
 41
0.008398
  0
VERTEX
  8
PLAN_1
  6
CONTINUOUS
 10
-1.138972
 20
3.123839
  0
VERTEX
  8
PLAN_1
  6
CONTINUOUS
 10
-1.052500
 20
3.123839
  0
VERTEX
  8
PLAN_1
  6
CONTINUOUS
 10
-1.052500
 20
3.065039
  0
VERTEX
  8
PLAN_1
  6
CONTINUOUS
 10
-1.266461
 20
3.065039
  0
VERTEX
  8
PLAN_1
  6
CONTINUOUS
 10
-1.266461
 20
3.123839
  0
VERTEX
  8
PLAN_1
  6
CONTINUOUS
 10
-1.179988
 20
3.123839
  0
VERTEX
  8
PLAN_1
  6
CONTINUOUS
 10
-1.179988
 20
3.093205
  0
VERTEX
  8
PLAN_1
  6
CONTINUOUS
 10
-1.138972
 20
3.093205
  0
VERTEX
  8
PLAN_1
  6
CONTINUOUS
 10
-1.138972
 20
3.123839
  0
SEQEND
  8
0
  0
POLYLINE
  8
PLAN_1
  6
CONTINUOUS
 66
     1
 40
0.008398
 41
0.008398
  0
VERTEX
  8
PLAN_1
  6
CONTINUOUS
 10
-2.064480
 20
2.753736
  0
VERTEX
  8
PLAN_1
  6
CONTINUOUS
 10
-2.064480
 20
2.831315
  0
VERTEX
  8
PLAN_1
  6
CONTINUOUS
 10
-2.103020
 20
2.831807
  0
SEQEND
  8
0
  0
POLYLINE
  8
PLAN_1
  6
CONTINUOUS
 66
     1
 40
0.008398
 41
0.008398
  0
VERTEX
  8
PLAN_1
  6
CONTINUOUS
 10
-1.092528
 20
2.753736
  0
VERTEX
  8
PLAN_1
  6
CONTINUOUS
 10
-1.092528
 20
2.831315
  0
VERTEX
  8
PLAN_1
  6
CONTINUOUS
 10
-1.053488
 20
2.831807
  0
SEQEND
  8
0
  0
POLYLINE
  8
PLAN_1
  6
CONTINUOUS
 66
     1
 40
0.008398
 41
0.008398
  0
VERTEX
  8
PLAN_1
  6
CONTINUOUS
 10
-1.383075
 20
3.630323
  0
VERTEX
  8
PLAN_1
  6
CONTINUOUS
 10
-1.772449
 20
3.630323
  0
SEQEND
  8
0
  0
POLYLINE
  8
PLAN_1
  6
CONTINUOUS
 66
     1
 40
0.008398
 41
0.008398
  0
VERTEX
  8
PLAN_1
  6
CONTINUOUS
 10
-1.045583
 20
0.279138
  0
VERTEX
  8
PLAN_1
  6
CONTINUOUS
 10
-1.045583
 20
2.754724
  0
VERTEX
  8
PLAN_1
  6
CONTINUOUS
 10
-2.119327
 20
2.754724
  0
VERTEX
  8
PLAN_1
  6
CONTINUOUS
 10
-2.160339
 20
2.455283
  0
VERTEX
  8
PLAN_1
  6
CONTINUOUS
 10
-2.030878
 20
2.455283
  0
VERTEX
  8
PLAN_1
  6
CONTINUOUS
 10
-2.030878
 20
0.279138
  0
VERTEX
  8
PLAN_1
  6
CONTINUOUS
 10
-1.045583
 20
0.279138
  0
SEQEND
  8
0
  0
POLYLINE
  8
PLAN_1
  6
CONTINUOUS
 66
     1
 40
0.008398
 41
0.008398
  0
VERTEX
  8
PLAN_1
  6
CONTINUOUS
 10
-2.030878
 20
0.279138
  0
VERTEX
  8
PLAN_1
  6
CONTINUOUS
 10
-2.030878
 20
2.454787
  0
VERTEX
  8
PLAN_1
  6
CONTINUOUS
 10
-2.160339
 20
2.454787
  0
VERTEX
  8
PLAN_1
  6
CONTINUOUS
 10
-2.160339
 20
0.279138
  0
VERTEX
  8
PLAN_1
  6
CONTINUOUS
 10
-2.030878
 20
0.279138
  0
SEQEND
  8
0
  0
POLYLINE
  8
PLAN_1
  6
CONTINUOUS
 66
     1
 40
0.008398
 41
0.008398
  0
VERTEX
  8
PLAN_1
  6
CONTINUOUS
 10
-2.028902
 20
2.247252
  0
VERTEX
  8
PLAN_1
  6
CONTINUOUS
 10
-1.292650
 20
2.247252
  0
SEQEND
  8
0
  0
POLYLINE
  8
PLAN_1
  6
CONTINUOUS
 66
     1
 40
0.008398
 41
0.008398
  0
VERTEX
  8
PLAN_1
  6
CONTINUOUS
 10
-1.292650
 20
2.052567
  0
VERTEX
  8
PLAN_1
  6
CONTINUOUS
 10
-1.292650
 20
2.752252
  0
SEQEND
  8
0
  0
POLYLINE
  8
PLAN_1
  6
CONTINUOUS
 66
     1
 40
0.008398
 41
0.008398
  0
VERTEX
  8
PLAN_1
  6
CONTINUOUS
 10
-2.160339
 20
1.953248
  0
VERTEX
  8
PLAN_1
  6
CONTINUOUS
 10
-2.160339
 20
2.137555
  0
VERTEX
  8
PLAN_1
  6
CONTINUOUS
 10
-2.227047
 20
2.137555
  0
VERTEX
  8
PLAN_1
  6
CONTINUOUS
 10
-2.227047
 20
1.953248
  0
VERTEX
  8
PLAN_1
  6
CONTINUOUS
 10
-2.160339
 20
1.953248
  0
SEQEND
  8
0
  0
POLYLINE
  8
PLAN_1
  6
CONTINUOUS
 66
     1
 40
0.008398
 41
0.008398
  0
VERTEX
  8
PLAN_1
  6
CONTINUOUS
 10
-1.148362
 20
-0.218453
  0
VERTEX
  8
PLAN_1
  6
CONTINUOUS
 10
-1.148362
 20
-0.134449
  0
VERTEX
  8
PLAN_1
  6
CONTINUOUS
 10
-1.942429
 20
-0.134449
  0
VERTEX
  8
PLAN_1
  6
CONTINUOUS
 10
-1.942429
 20
-0.218453
  0
VERTEX
  8
PLAN_1
  6
CONTINUOUS
 10
-1.148362
 20
-0.218453
  0
SEQEND
  8
0
  0
POLYLINE
  8
PLAN_1
  6
CONTINUOUS
 66
     1
 40
0.008398
 41
0.008398
  0
VERTEX
  8
PLAN_1
  6
CONTINUOUS
 10
-1.047067
 20
-0.134449
  0
VERTEX
  8
PLAN_1
  6
CONTINUOUS
 10
-1.047067
 20
0.279138
  0
VERTEX
  8
PLAN_1
  6
CONTINUOUS
 10
-2.030878
 20
0.279138
  0
VERTEX
  8
PLAN_1
  6
CONTINUOUS
 10
-2.030878
 20
-0.134449
  0
VERTEX
  8
PLAN_1
  6
CONTINUOUS
 10
-1.047067
 20
-0.134449
  0
SEQEND
  8
0
  0
POLYLINE
  8
PLAN_1
  6
CONTINUOUS
 66
     1
 40
0.008398
 41
0.008398
  0
VERTEX
  8
PLAN_1
  6
CONTINUOUS
 10
-1.101913
 20
-0.391398
  0
VERTEX
  8
PLAN_1
  6
CONTINUOUS
 10
-1.101913
 20
-0.218453
  0
VERTEX
  8
PLAN_1
  6
CONTINUOUS
 10
-1.976524
 20
-0.218453
  0
VERTEX
  8
PLAN_1
  6
CONTINUOUS
 10
-1.976524
 20
-0.391398
  0
VERTEX
  8
PLAN_1
  6
CONTINUOUS
 10
-1.101913
 20
-0.391398
  0
SEQEND
  8
0
  0
POLYLINE
  8
PLAN_1
  6
CONTINUOUS
 66
     1
 40
0.008398
 41
0.008398
  0
VERTEX
  8
PLAN_1
  6
CONTINUOUS
 10
-1.979488
 20
-0.311843
  0
VERTEX
  8
PLAN_1
  6
CONTINUOUS
 10
-1.968122
 20
-0.320736
  0
VERTEX
  8
PLAN_1
  6
CONTINUOUS
 10
-1.956264
 20
-0.329138
  0
VERTEX
  8
PLAN_1
  6
CONTINUOUS
 10
-1.944406
 20
-0.337043
  0
VERTEX
  8
PLAN_1
  6
CONTINUOUS
 10
-1.931559
 20
-0.344457
  0
VERTEX
  8
PLAN_1
  6
CONTINUOUS
 10
-1.919205
 20
-0.351374
  0
VERTEX
  8
PLAN_1
  6
CONTINUOUS
 10
-1.905862
 20
-0.357795
  0
VERTEX
  8
PLAN_1
  6
CONTINUOUS
 10
-1.892520
 20
-0.363724
  0
VERTEX
  8
PLAN_1
  6
CONTINUOUS
 10
-1.878685
 20
-0.369161
  0
VERTEX
  8
PLAN_1
  6
CONTINUOUS
 10
-1.864850
 20
-0.373610
  0
VERTEX
  8
PLAN_1
  6
CONTINUOUS
 10
-1.851016
 20
-0.378055
  0
VERTEX
  8
PLAN_1
  6
CONTINUOUS
 10
-1.836189
 20
-0.381516
  0
VERTEX
  8
PLAN_1
  6
CONTINUOUS
 10
-1.821862
 20
-0.384480
  0
VERTEX
  8
PLAN_1
  6
CONTINUOUS
 10
-1.807035
 20
-0.386457
  0
VERTEX
  8
PLAN_1
  6
CONTINUOUS
 10
-1.791720
 20
-0.388433
  0
VERTEX
  8
PLAN_1
  6
CONTINUOUS
 10
-1.776402
 20
-0.389421
  0
VERTEX
  8
PLAN_1
  6
CONTINUOUS
 10
-1.761083
 20
-0.389421
  0
VERTEX
  8
PLAN_1
  6
CONTINUOUS
 10
-1.745764
 20
-0.389421
  0
VERTEX
  8
PLAN_1
  6
CONTINUOUS
 10
-1.730449
 20
-0.388433
  0
VERTEX
  8
PLAN_1
  6
CONTINUOUS
 10
-1.716118
 20
-0.386949
  0
VERTEX
  8
PLAN_1
  6
CONTINUOUS
 10
-1.702283
 20
-0.385469
  0
VERTEX
  8
PLAN_1
  6
CONTINUOUS
 10
-1.688445
 20
-0.382504
  0
VERTEX
  8
PLAN_1
  6
CONTINUOUS
 10
-1.675106
 20
-0.379539
  0
VERTEX
  8
PLAN_1
  6
CONTINUOUS
 10
-1.662256
 20
-0.376079
  0
VERTEX
  8
PLAN_1
  6
CONTINUOUS
 10
-1.649409
 20
-0.371634
  0
VERTEX
  8
PLAN_1
  6
CONTINUOUS
 10
-1.636067
 20
-0.366689
  0
VERTEX
  8
PLAN_1
  6
CONTINUOUS
 10
-1.623220
 20
-0.360760
  0
VERTEX
  8
PLAN_1
  6
CONTINUOUS
 10
-1.610374
 20
-0.354339
  0
VERTEX
  8
PLAN_1
  6
CONTINUOUS
 10
-1.597528
 20
-0.347421
  0
VERTEX
  8
PLAN_1
  6
CONTINUOUS
 10
-1.584185
 20
-0.339512
  0
VERTEX
  8
PLAN_1
  6
CONTINUOUS
 10
-1.570843
 20
-0.331114
  0
VERTEX
  8
PLAN_1
  6
CONTINUOUS
 10
-1.557008
 20
-0.321724
  0
VERTEX
  8
PLAN_1
  6
CONTINUOUS
 10
-1.542677
 20
-0.311843
  0
VERTEX
  8
PLAN_1
  6
CONTINUOUS
 10
-1.532299
 20
-0.319748
  0
VERTEX
  8
PLAN_1
  6
CONTINUOUS
 10
-1.521429
 20
-0.327654
  0
VERTEX
  8
PLAN_1
  6
CONTINUOUS
 10
-1.509571
 20
-0.335067
  0
VERTEX
  8
PLAN_1
  6
CONTINUOUS
 10
-1.497713
 20
-0.342480
  0
VERTEX
  8
PLAN_1
  6
CONTINUOUS
 10
-1.484866
 20
-0.348902
  0
VERTEX
  8
PLAN_1
  6
CONTINUOUS
 10
-1.472016
 20
-0.355327
  0
VERTEX
  8
PLAN_1
  6
CONTINUOUS
 10
-1.458677
 20
-0.361256
  0
VERTEX
  8
PLAN_1
  6
CONTINUOUS
 10
-1.444346
 20
-0.367185
  0
VERTEX
  8
PLAN_1
  6
CONTINUOUS
 10
-1.430512
 20
-0.372126
  0
VERTEX
  8
PLAN_1
  6
CONTINUOUS
 10
-1.415685
 20
-0.376575
  0
VERTEX
  8
PLAN_1
  6
CONTINUOUS
 10
-1.400862
 20
-0.380528
  0
VERTEX
  8
PLAN_1
  6
CONTINUOUS
 10
-1.386039
 20
-0.383492
  0
VERTEX
  8
PLAN_1
  6
CONTINUOUS
 10
-1.370720
 20
-0.385961
  0
VERTEX
  8
PLAN_1
  6
CONTINUOUS
 10
-1.355402
 20
-0.387937
  0
VERTEX
  8
PLAN_1
  6
CONTINUOUS
 10
-1.340087
 20
-0.389421
  0
VERTEX
  8
PLAN_1
  6
CONTINUOUS
 10
-1.324272
 20
-0.389421
  0
VERTEX
  8
PLAN_1
  6
CONTINUOUS
 10
-1.308461
 20
-0.389421
  0
VERTEX
  8
PLAN_1
  6
CONTINUOUS
 10
-1.293142
 20
-0.388433
  0
VERTEX
  8
PLAN_1
  6
CONTINUOUS
 10
-1.277823
 20
-0.386457
  0
VERTEX
  8
PLAN_1
  6
CONTINUOUS
 10
-1.262508
 20
-0.383984
  0
VERTEX
  8
PLAN_1
  6
CONTINUOUS
 10
-1.247681
 20
-0.381020
  0
VERTEX
  8
PLAN_1
  6
CONTINUOUS
 10
-1.233354
 20
-0.377563
  0
VERTEX
  8
PLAN_1
  6
CONTINUOUS
 10
-1.218528
 20
-0.373114
  0
VERTEX
  8
PLAN_1
  6
CONTINUOUS
 10
-1.204693
 20
-0.368173
  0
VERTEX
  8
PLAN_1
  6
CONTINUOUS
 10
-1.190858
 20
-0.362736
  0
VERTEX
  8
PLAN_1
  6
CONTINUOUS
 10
-1.177024
 20
-0.356807
  0
VERTEX
  8
PLAN_1
  6
CONTINUOUS
 10
-1.164173
 20
-0.350386
  0
VERTEX
  8
PLAN_1
  6
CONTINUOUS
 10
-1.151327
 20
-0.342972
  0
VERTEX
  8
PLAN_1
  6
CONTINUOUS
 10
-1.138480
 20
-0.335559
  0
VERTEX
  8
PLAN_1
  6
CONTINUOUS
 10
-1.126622
 20
-0.327161
  0
VERTEX
  8
PLAN_1
  6
CONTINUOUS
 10
-1.114760
 20
-0.318268
  0
VERTEX
  8
PLAN_1
  6
CONTINUOUS
 10
-1.103398
 20
-0.309370
  0
SEQEND
  8
0
  0
POLYLINE
  8
PLAN_1
  6
CONTINUOUS
 66
     1
 40
0.008398
 41
0.008398
  0
VERTEX
  8
PLAN_1
  6
CONTINUOUS
 10
-1.542677
 20
-0.218453
  0
VERTEX
  8
PLAN_1
  6
CONTINUOUS
 10
-1.542677
 20
-0.312831
  0
SEQEND
  8
0
  0
POLYLINE
  8
PLAN_1
  6
CONTINUOUS
 66
     1
 40
0.008398
 41
0.008398
  0
VERTEX
  8
PLAN_1
  6
CONTINUOUS
 10
-2.160339
 20
0.312736
  0
VERTEX
  8
PLAN_1
  6
CONTINUOUS
 10
-2.160339
 20
0.497047
  0
VERTEX
  8
PLAN_1
  6
CONTINUOUS
 10
-2.227047
 20
0.497047
  0
VERTEX
  8
PLAN_1
  6
CONTINUOUS
 10
-2.227047
 20
0.312736
  0
VERTEX
  8
PLAN_1
  6
CONTINUOUS
 10
-2.160339
 20
0.312736
  0
SEQEND
  8
0
  0
POLYLINE
  8
PLAN_1
  6
CONTINUOUS
 66
     1
 40
0.008398
 41
0.008398
  0
VERTEX
  8
PLAN_1
  6
CONTINUOUS
 10
-2.092150
 20
2.454295
  0
VERTEX
  8
PLAN_1
  6
CONTINUOUS
 10
-2.092150
 20
0.280126
  0
SEQEND
  8
0
  0
POLYLINE
  8
PLAN_1
 62
     2
  6
CONTINUOUS
 66
     1
 40
0.003953
 41
0.003953
  0
VERTEX
  8
PLAN_1
 62
     2
  6
CONTINUOUS
 10
-1.548114
 20
3.855150
  0
VERTEX
  8
PLAN_1
 62
     2
  6
CONTINUOUS
 10
-1.072268
 20
3.855150
  0
SEQEND
  8
0
  0
SOLID
  8
PLAN_1
 62
     2
 10
-1.042618
 20
3.855150
 11
-1.101913
 21
3.870965
 12
-1.042618
 22
3.855150
 13
-1.101913
 23
3.839339
  0
POLYLINE
  8
PLAN_1
 62
     2
  6
CONTINUOUS
 66
     1
 40
0.003000
 41
0.003000
  0
VERTEX
  8
PLAN_1
 62
     2
  6
CONTINUOUS
 10
-1.042618
 20
3.855150
  0
VERTEX
  8
PLAN_1
 62
     2
  6
CONTINUOUS
 10
-1.101913
 20
3.870965
  0
VERTEX
  8
PLAN_1
 62
     2
  6
CONTINUOUS
 10
-1.101913
 20
3.839339
  0
VERTEX
  8
PLAN_1
 62
     2
  6
CONTINUOUS
 10
-1.042618
 20
3.855150
  0
SEQEND
  8
0
  0
SOLID
  8
PLAN_1
 62
     2
 10
-1.577760
 20
3.855150
 11
-1.518465
 21
3.870965
 12
-1.577760
 22
3.855150
 13
-1.518465
 23
3.839339
  0
POLYLINE
  8
PLAN_1
 62
     2
  6
CONTINUOUS
 66
     1
 40
0.003000
 41
0.003000
  0
VERTEX
  8
PLAN_1
 62
     2
  6
CONTINUOUS
 10
-1.577760
 20
3.855150
  0
VERTEX
  8
PLAN_1
 62
     2
  6
CONTINUOUS
 10
-1.518465
 20
3.870965
  0
VERTEX
  8
PLAN_1
 62
     2
  6
CONTINUOUS
 10
-1.518465
 20
3.839339
  0
VERTEX
  8
PLAN_1
 62
     2
  6
CONTINUOUS
 10
-1.577760
 20
3.855150
  0
SEQEND
  8
0
  0
POLYLINE
  8
PLAN_1
 62
     2
  6
CONTINUOUS
 66
     1
 40
0.003000
 41
0.003000
  0
VERTEX
  8
PLAN_1
 62
     2
  6
CONTINUOUS
 10
-1.323780
 20
3.878870
  0
VERTEX
  8
PLAN_1
 62
     2
  6
CONTINUOUS
 10
-1.333661
 20
3.878870
  0
VERTEX
  8
PLAN_1
 62
     2
  6
CONTINUOUS
 10
-1.333661
 20
3.930752
  0
VERTEX
  8
PLAN_1
 62
     2
  6
CONTINUOUS
 10
-1.350461
 20
3.930752
  0
VERTEX
  8
PLAN_1
 62
     2
  6
CONTINUOUS
 10
-1.350461
 20
3.938165
  0
VERTEX
  8
PLAN_1
 62
     2
  6
CONTINUOUS
 10
-1.346508
 20
3.938165
  0
VERTEX
  8
PLAN_1
 62
     2
  6
CONTINUOUS
 10
-1.343051
 20
3.938657
  0
VERTEX
  8
PLAN_1
 62
     2
  6
CONTINUOUS
 10
-1.340087
 20
3.939646
  0
VERTEX
  8
PLAN_1
 62
     2
  6
CONTINUOUS
 10
-1.337614
 20
3.940634
  0
VERTEX
  8
PLAN_1
 62
     2
  6
CONTINUOUS
 10
-1.335142
 20
3.942610
  0
VERTEX
  8
PLAN_1
 62
     2
  6
CONTINUOUS
 10
-1.333661
 20
3.945083
  0
VERTEX
  8
PLAN_1
 62
     2
  6
CONTINUOUS
 10
-1.332177
 20
3.948047
  0
VERTEX
  8
PLAN_1
 62
     2
  6
CONTINUOUS
 10
-1.331189
 20
3.952000
  0
VERTEX
  8
PLAN_1
 62
     2
  6
CONTINUOUS
 10
-1.323780
 20
3.952000
  0
VERTEX
  8
PLAN_1
 62
     2
  6
CONTINUOUS
 10
-1.323780
 20
3.878870
  0
SEQEND
  8
0
  0
POLYLINE
  8
PLAN_1
 62
     2
  6
CONTINUOUS
 66
     1
 40
0.003000
 41
0.003000
  0
VERTEX
  8
PLAN_1
 62
     2
  6
CONTINUOUS
 10
-1.259543
 20
3.896657
  0
VERTEX
  8
PLAN_1
 62
     2
  6
CONTINUOUS
 10
-1.259543
 20
3.878870
  0
VERTEX
  8
PLAN_1
 62
     2
  6
CONTINUOUS
 10
-1.268929
 20
3.878870
  0
VERTEX
  8
PLAN_1
 62
     2
  6
CONTINUOUS
 10
-1.268929
 20
3.896657
  0
VERTEX
  8
PLAN_1
 62
     2
  6
CONTINUOUS
 10
-1.300555
 20
3.896657
  0
VERTEX
  8
PLAN_1
 62
     2
  6
CONTINUOUS
 10
-1.300555
 20
3.905551
  0
VERTEX
  8
PLAN_1
 62
     2
  6
CONTINUOUS
 10
-1.266953
 20
3.952000
  0
VERTEX
  8
PLAN_1
 62
     2
  6
CONTINUOUS
 10
-1.259543
 20
3.952000
  0
VERTEX
  8
PLAN_1
 62
     2
  6
CONTINUOUS
 10
-1.259543
 20
3.904563
  0
VERTEX
  8
PLAN_1
 62
     2
  6
CONTINUOUS
 10
-1.248669
 20
3.904563
  0
VERTEX
  8
PLAN_1
 62
     2
  6
CONTINUOUS
 10
-1.248669
 20
3.896657
  0
VERTEX
  8
PLAN_1
 62
     2
  6
CONTINUOUS
 10
-1.259543
 20
3.896657
  0
SEQEND
  8
0
  0
SOLID
  8
PLAN_1
 62
     2
 10
-1.292154
 20
3.904563
 11
-1.268929
 21
3.904563
 12
-1.292154
 22
3.904563
 13
-1.268929
 23
3.937669
  0
POLYLINE
  8
PLAN_1
 62
     2
  6
CONTINUOUS
 66
     1
 40
0.003000
 41
0.003000
  0
VERTEX
  8
PLAN_1
 62
     2
  6
CONTINUOUS
 10
-1.292154
 20
3.904563
  0
VERTEX
  8
PLAN_1
 62
     2
  6
CONTINUOUS
 10
-1.268929
 20
3.904563
  0
VERTEX
  8
PLAN_1
 62
     2
  6
CONTINUOUS
 10
-1.268929
 20
3.937669
  0
VERTEX
  8
PLAN_1
 62
     2
  6
CONTINUOUS
 10
-1.292154
 20
3.904563
  0
SEQEND
  8
0
  0
POLYLINE
  8
PLAN_1
 62
     2
  6
CONTINUOUS
 66
     1
 40
0.003953
 41
0.003953
  0
VERTEX
  8
PLAN_1
 62
     2
  6
CONTINUOUS
 10
-1.577760
 20
3.720748
  0
VERTEX
  8
PLAN_1
 62
     2
  6
CONTINUOUS
 10
-1.577760
 20
3.878870
  0
SEQEND
  8
0
  0
POLYLINE
  8
PLAN_1
 62
     2
  6
CONTINUOUS
 66
     1
 40
0.003953
 41
0.003953
  0
VERTEX
  8
PLAN_1
 62
     2
  6
CONTINUOUS
 10
-1.042618
 20
3.721240
  0
VERTEX
  8
PLAN_1
 62
     2
  6
CONTINUOUS
 10
-1.042618
 20
3.878870
  0
SEQEND
  8
0
  0
POLYLINE
  8
PLAN_1
 62
     2
  6
CONTINUOUS
 66
     1
 40
0.003953
 41
0.003953
  0
VERTEX
  8
PLAN_1
 62
     2
  6
CONTINUOUS
 10
-2.188504
 20
-0.680465
  0
VERTEX
  8
PLAN_1
 62
     2
  6
CONTINUOUS
 10
-1.069795
 20
-0.680465
  0
SEQEND
  8
0
  0
SOLID
  8
PLAN_1
 62
     2
 10
-1.040150
 20
-0.680465
 11
-1.099445
 21
-0.664650
 12
-1.040150
 22
-0.680465
 13
-1.099445
 23
-0.695780
  0
POLYLINE
  8
PLAN_1
 62
     2
  6
CONTINUOUS
 66
     1
 40
0.003000
 41
0.003000
  0
VERTEX
  8
PLAN_1
 62
     2
  6
CONTINUOUS
 10
-1.040150
 20
-0.680465
  0
VERTEX
  8
PLAN_1
 62
     2
  6
CONTINUOUS
 10
-1.099445
 20
-0.664650
  0
VERTEX
  8
PLAN_1
 62
     2
  6
CONTINUOUS
 10
-1.099445
 20
-0.695780
  0
VERTEX
  8
PLAN_1
 62
     2
  6
CONTINUOUS
 10
-1.040150
 20
-0.680465
  0
SEQEND
  8
0
  0
SOLID
  8
PLAN_1
 62
     2
 10
-2.218154
 20
-0.680465
 11
-2.159350
 21
-0.664650
 12
-2.218154
 22
-0.680465
 13
-2.159350
 23
-0.695780
  0
POLYLINE
  8
PLAN_1
 62
     2
  6
CONTINUOUS
 66
     1
 40
0.003000
 41
0.003000
  0
VERTEX
  8
PLAN_1
 62
     2
  6
CONTINUOUS
 10
-2.218154
 20
-0.680465
  0
VERTEX
  8
PLAN_1
 62
     2
  6
CONTINUOUS
 10
-2.159350
 20
-0.664650
  0
VERTEX
  8
PLAN_1
 62
     2
  6
CONTINUOUS
 10
-2.159350
 20
-0.695780
  0
VERTEX
  8
PLAN_1
 62
     2
  6
CONTINUOUS
 10
-2.218154
 20
-0.680465
  0
SEQEND
  8
0
  0
POLYLINE
  8
PLAN_1
 62
     2
  6
CONTINUOUS
 66
     1
 40
0.003000
 41
0.003000
  0
VERTEX
  8
PLAN_1
 62
     2
  6
CONTINUOUS
 10
-1.663740
 20
-0.615236
  0
VERTEX
  8
PLAN_1
 62
     2
  6
CONTINUOUS
 10
-1.663244
 20
-0.615236
  0
VERTEX
  8
PLAN_1
 62
     2
  6
CONTINUOUS
 10
-1.662752
 20
-0.615236
  0
VERTEX
  8
PLAN_1
 62
     2
  6
CONTINUOUS
 10
-1.662256
 20
-0.615236
  0
VERTEX
  8
PLAN_1
 62
     2
  6
CONTINUOUS
 10
-1.661268
 20
-0.615236
  0
VERTEX
  8
PLAN_1
 62
     2
  6
CONTINUOUS
 10
-1.660776
 20
-0.615236
  0
VERTEX
  8
PLAN_1
 62
     2
  6
CONTINUOUS
 10
-1.660280
 20
-0.615236
  0
VERTEX
  8
PLAN_1
 62
     2
  6
CONTINUOUS
 10
-1.659787
 20
-0.615236
  0
VERTEX
  8
PLAN_1
 62
     2
  6
CONTINUOUS
 10
-1.659291
 20
-0.615236
  0
VERTEX
  8
PLAN_1
 62
     2
  6
CONTINUOUS
 10
-1.656327
 20
-0.615236
  0
VERTEX
  8
PLAN_1
 62
     2
  6
CONTINUOUS
 10
-1.653858
 20
-0.614744
  0
VERTEX
  8
PLAN_1
 62
     2
  6
CONTINUOUS
 10
-1.651386
 20
-0.613756
  0
VERTEX
  8
PLAN_1
 62
     2
  6
CONTINUOUS
 10
-1.649409
 20
-0.612768
  0
VERTEX
  8
PLAN_1
 62
     2
  6
CONTINUOUS
 10
-1.647433
 20
-0.611283
  0
VERTEX
  8
PLAN_1
 62
     2
  6
CONTINUOUS
 10
-1.646445
 20
-0.608815
  0
VERTEX
  8
PLAN_1
 62
     2
  6
CONTINUOUS
 10
-1.645457
 20
-0.606343
  0
VERTEX
  8
PLAN_1
 62
     2
  6
CONTINUOUS
 10
-1.644961
 20
-0.603378
  0
VERTEX
  8
PLAN_1
 62
     2
  6
CONTINUOUS
 10
-1.645457
 20
-0.601402
  0
VERTEX
  8
PLAN_1
 62
     2
  6
CONTINUOUS
 10
-1.645457
 20
-0.599425
  0
VERTEX
  8
PLAN_1
 62
     2
  6
CONTINUOUS
 10
-1.646445
 20
-0.597945
  0
VERTEX
  8
PLAN_1
 62
     2
  6
CONTINUOUS
 10
-1.647929
 20
-0.595969
  0
VERTEX
  8
PLAN_1
 62
     2
  6
CONTINUOUS
 10
-1.649409
 20
-0.594484
  0
VERTEX
  8
PLAN_1
 62
     2
  6
CONTINUOUS
 10
-1.651882
 20
-0.593004
  0
VERTEX
  8
PLAN_1
 62
     2
  6
CONTINUOUS
 10
-1.654846
 20
-0.592012
  0
VERTEX
  8
PLAN_1
 62
     2
  6
CONTINUOUS
 10
-1.658799
 20
-0.591520
  0
VERTEX
  8
PLAN_1
 62
     2
  6
CONTINUOUS
 10
-1.660776
 20
-0.592012
  0
VERTEX
  8
PLAN_1
 62
     2
  6
CONTINUOUS
 10
-1.662752
 20
-0.592012
  0
VERTEX
  8
PLAN_1
 62
     2
  6
CONTINUOUS
 10
-1.664728
 20
-0.593004
  0
VERTEX
  8
PLAN_1
 62
     2
  6
CONTINUOUS
 10
-1.666209
 20
-0.593496
  0
VERTEX
  8
PLAN_1
 62
     2
  6
CONTINUOUS
 10
-1.668681
 20
-0.595472
  0
VERTEX
  8
PLAN_1
 62
     2
  6
CONTINUOUS
 10
-1.670657
 20
-0.597449
  0
VERTEX
  8
PLAN_1
 62
     2
  6
CONTINUOUS
 10
-1.671646
 20
-0.600413
  0
VERTEX
  8
PLAN_1
 62
     2
  6
CONTINUOUS
 10
-1.672138
 20
-0.602886
  0
VERTEX
  8
PLAN_1
 62
     2
  6
CONTINUOUS
 10
-1.672634
 20
-0.605354
  0
VERTEX
  8
PLAN_1
 62
     2
  6
CONTINUOUS
 10
-1.673126
 20
-0.607331
  0
VERTEX
  8
PLAN_1
 62
     2
  6
CONTINUOUS
 10
-1.682024
 20
-0.607331
  0
VERTEX
  8
PLAN_1
 62
     2
  6
CONTINUOUS
 10
-1.681528
 20
-0.603378
  0
VERTEX
  8
PLAN_1
 62
     2
  6
CONTINUOUS
 10
-1.681035
 20
-0.599425
  0
VERTEX
  8
PLAN_1
 62
     2
  6
CONTINUOUS
 10
-1.679551
 20
-0.594980
  0
VERTEX
  8
PLAN_1
 62
     2
  6
CONTINUOUS
 10
-1.677083
 20
-0.591520
  0
VERTEX
  8
PLAN_1
 62
     2
  6
CONTINUOUS
 10
-1.675598
 20
-0.590035
  0
VERTEX
  8
PLAN_1
 62
     2
  6
CONTINUOUS
 10
-1.674118
 20
-0.588059
  0
VERTEX
  8
PLAN_1
 62
     2
  6
CONTINUOUS
 10
-1.672138
 20
-0.587071
  0
VERTEX
  8
PLAN_1
 62
     2
  6
CONTINUOUS
 10
-1.670161
 20
-0.585591
  0
VERTEX
  8
PLAN_1
 62
     2
  6
CONTINUOUS
 10
-1.667693
 20
-0.584602
  0
VERTEX
  8
PLAN_1
 62
     2
  6
CONTINUOUS
 10
-1.664728
 20
-0.584106
  0
VERTEX
  8
PLAN_1
 62
     2
  6
CONTINUOUS
 10
-1.661764
 20
-0.583614
  0
VERTEX
  8
PLAN_1
 62
     2
  6
CONTINUOUS
 10
-1.658303
 20
-0.583614
  0
VERTEX
  8
PLAN_1
 62
     2
  6
CONTINUOUS
 10
-1.653362
 20
-0.584106
  0
VERTEX
  8
PLAN_1
 62
     2
  6
CONTINUOUS
 10
-1.648917
 20
-0.585094
  0
VERTEX
  8
PLAN_1
 62
     2
  6
CONTINUOUS
 10
-1.644961
 20
-0.586579
  0
VERTEX
  8
PLAN_1
 62
     2
  6
CONTINUOUS
 10
-1.641504
 20
-0.589047
  0
VERTEX
  8
PLAN_1
 62
     2
  6
CONTINUOUS
 10
-1.639031
 20
-0.592012
  0
VERTEX
  8
PLAN_1
 62
     2
  6
CONTINUOUS
 10
-1.637055
 20
-0.594980
  0
VERTEX
  8
PLAN_1
 62
     2
  6
CONTINUOUS
 10
-1.636067
 20
-0.598933
  0
VERTEX
  8
PLAN_1
 62
     2
  6
CONTINUOUS
 10
-1.635575
 20
-0.602886
  0
VERTEX
  8
PLAN_1
 62
     2
  6
CONTINUOUS
 10
-1.636067
 20
-0.605850
  0
VERTEX
  8
PLAN_1
 62
     2
  6
CONTINUOUS
 10
-1.636563
 20
-0.608815
  0
VERTEX
  8
PLAN_1
 62
     2
  6
CONTINUOUS
 10
-1.637551
 20
-0.611283
  0
VERTEX
  8
PLAN_1
 62
     2
  6
CONTINUOUS
 10
-1.639031
 20
-0.613260
  0
VERTEX
  8
PLAN_1
 62
     2
  6
CONTINUOUS
 10
-1.640516
 20
-0.615236
  0
VERTEX
  8
PLAN_1
 62
     2
  6
CONTINUOUS
 10
-1.641996
 20
-0.616224
  0
VERTEX
  8
PLAN_1
 62
     2
  6
CONTINUOUS
 10
-1.643480
 20
-0.617213
  0
VERTEX
  8
PLAN_1
 62
     2
  6
CONTINUOUS
 10
-1.644961
 20
-0.617709
  0
VERTEX
  8
PLAN_1
 62
     2
  6
CONTINUOUS
 10
-1.644961
 20
-0.618201
  0
VERTEX
  8
PLAN_1
 62
     2
  6
CONTINUOUS
 10
-1.642492
 20
-0.619189
  0
VERTEX
  8
PLAN_1
 62
     2
  6
CONTINUOUS
 10
-1.640020
 20
-0.620177
  0
VERTEX
  8
PLAN_1
 62
     2
  6
CONTINUOUS
 10
-1.638043
 20
-0.621661
  0
VERTEX
  8
PLAN_1
 62
     2
  6
CONTINUOUS
 10
-1.636067
 20
-0.623638
  0
VERTEX
  8
PLAN_1
 62
     2
  6
CONTINUOUS
 10
-1.634587
 20
-0.626110
  0
VERTEX
  8
PLAN_1
 62
     2
  6
CONTINUOUS
 10
-1.633598
 20
-0.628579
  0
VERTEX
  8
PLAN_1
 62
     2
  6
CONTINUOUS
 10
-1.633102
 20
-0.631543
  0
VERTEX
  8
PLAN_1
 62
     2
  6
CONTINUOUS
 10
-1.632610
 20
-0.635004
  0
VERTEX
  8
PLAN_1
 62
     2
  6
CONTINUOUS
 10
-1.633102
 20
-0.639449
  0
VERTEX
  8
PLAN_1
 62
     2
  6
CONTINUOUS
 10
-1.634587
 20
-0.643898
  0
VERTEX
  8
PLAN_1
 62
     2
  6
CONTINUOUS
 10
-1.636067
 20
-0.647850
  0
VERTEX
  8
PLAN_1
 62
     2
  6
CONTINUOUS
 10
-1.639031
 20
-0.651311
  0
VERTEX
  8
PLAN_1
 62
     2
  6
CONTINUOUS
 10
-1.640516
 20
-0.652791
  0
VERTEX
  8
PLAN_1
 62
     2
  6
CONTINUOUS
 10
-1.642492
 20
-0.654276
  0
VERTEX
  8
PLAN_1
 62
     2
  6
CONTINUOUS
 10
-1.644961
 20
-0.655756
  0
VERTEX
  8
PLAN_1
 62
     2
  6
CONTINUOUS
 10
-1.647433
 20
-0.656744
  0
VERTEX
  8
PLAN_1
 62
     2
  6
CONTINUOUS
 10
-1.649906
 20
-0.657240
  0
VERTEX
  8
PLAN_1
 62
     2
  6
CONTINUOUS
 10
-1.652870
 20
-0.658228
  0
VERTEX
  8
PLAN_1
 62
     2
  6
CONTINUOUS
 10
-1.655835
 20
-0.658720
  0
VERTEX
  8
PLAN_1
 62
     2
  6
CONTINUOUS
 10
-1.659291
 20
-0.658720
  0
VERTEX
  8
PLAN_1
 62
     2
  6
CONTINUOUS
 10
-1.661268
 20
-0.658720
  0
VERTEX
  8
PLAN_1
 62
     2
  6
CONTINUOUS
 10
-1.663244
 20
-0.658228
  0
VERTEX
  8
PLAN_1
 62
     2
  6
CONTINUOUS
 10
-1.664728
 20
-0.658228
  0
VERTEX
  8
PLAN_1
 62
     2
  6
CONTINUOUS
 10
-1.666705
 20
-0.657732
  0
VERTEX
  8
PLAN_1
 62
     2
  6
CONTINUOUS
 10
-1.668185
 20
-0.657240
  0
VERTEX
  8
PLAN_1
 62
     2
  6
CONTINUOUS
 10
-1.669669
 20
-0.656744
  0
VERTEX
  8
PLAN_1
 62
     2
  6
CONTINUOUS
 10
-1.671150
 20
-0.656252
  0
VERTEX
  8
PLAN_1
 62
     2
  6
CONTINUOUS
 10
-1.672634
 20
-0.655264
  0
VERTEX
  8
PLAN_1
 62
     2
  6
CONTINUOUS
 10
-1.675598
 20
-0.653780
  0
VERTEX
  8
PLAN_1
 62
     2
  6
CONTINUOUS
 10
-1.677575
 20
-0.651311
  0
VERTEX
  8
PLAN_1
 62
     2
  6
CONTINUOUS
 10
-1.679551
 20
-0.648839
  0
VERTEX
  8
PLAN_1
 62
     2
  6
CONTINUOUS
 10
-1.681035
 20
-0.646366
  0
VERTEX
  8
PLAN_1
 62
     2
  6
CONTINUOUS
 10
-1.682024
 20
-0.643402
  0
VERTEX
  8
PLAN_1
 62
     2
  6
CONTINUOUS
 10
-1.683012
 20
-0.640437
  0
VERTEX
  8
PLAN_1
 62
     2
  6
CONTINUOUS
 10
-1.683504
 20
-0.637472
  0
VERTEX
  8
PLAN_1
 62
     2
  6
CONTINUOUS
 10
-1.683504
 20
-0.634508
  0
VERTEX
  8
PLAN_1
 62
     2
  6
CONTINUOUS
 10
-1.674118
 20
-0.634508
  0
VERTEX
  8
PLAN_1
 62
     2
  6
CONTINUOUS
 10
-1.674118
 20
-0.636980
  0
VERTEX
  8
PLAN_1
 62
     2
  6
CONTINUOUS
 10
-1.673622
 20
-0.639449
  0
VERTEX
  8
PLAN_1
 62
     2
  6
CONTINUOUS
 10
-1.672634
 20
-0.642413
  0
VERTEX
  8
PLAN_1
 62
     2
  6
CONTINUOUS
 10
-1.671150
 20
-0.644886
  0
VERTEX
  8
PLAN_1
 62
     2
  6
CONTINUOUS
 10
-1.669173
 20
-0.647354
  0
VERTEX
  8
PLAN_1
 62
     2
  6
CONTINUOUS
 10
-1.666705
 20
-0.648839
  0
VERTEX
  8
PLAN_1
 62
     2
  6
CONTINUOUS
 10
-1.663244
 20
-0.649827
  0
VERTEX
  8
PLAN_1
 62
     2
  6
CONTINUOUS
 10
-1.658303
 20
-0.650323
  0
VERTEX
  8
PLAN_1
 62
     2
  6
CONTINUOUS
 10
-1.655339
 20
-0.650323
  0
VERTEX
  8
PLAN_1
 62
     2
  6
CONTINUOUS
 10
-1.651882
 20
-0.649335
  0
VERTEX
  8
PLAN_1
 62
     2
  6
CONTINUOUS
 10
-1.649409
 20
-0.648343
  0
VERTEX
  8
PLAN_1
 62
     2
  6
CONTINUOUS
 10
-1.646941
 20
-0.646366
  0
VERTEX
  8
PLAN_1
 62
     2
  6
CONTINUOUS
 10
-1.644961
 20
-0.644390
  0
VERTEX
  8
PLAN_1
 62
     2
  6
CONTINUOUS
 10
-1.643972
 20
-0.641921
  0
VERTEX
  8
PLAN_1
 62
     2
  6
CONTINUOUS
 10
-1.642984
 20
-0.639449
  0
VERTEX
  8
PLAN_1
 62
     2
  6
CONTINUOUS
 10
-1.642492
 20
-0.636484
  0
VERTEX
  8
PLAN_1
 62
     2
  6
CONTINUOUS
 10
-1.642984
 20
-0.634016
  0
VERTEX
  8
PLAN_1
 62
     2
  6
CONTINUOUS
 10
-1.642984
 20
-0.632039
  0
VERTEX
  8
PLAN_1
 62
     2
  6
CONTINUOUS
 10
-1.643480
 20
-0.630555
  0
VERTEX
  8
PLAN_1
 62
     2
  6
CONTINUOUS
 10
-1.644469
 20
-0.629075
  0
VERTEX
  8
PLAN_1
 62
     2
  6
CONTINUOUS
 10
-1.646445
 20
-0.626602
  0
VERTEX
  8
PLAN_1
 62
     2
  6
CONTINUOUS
 10
-1.648917
 20
-0.625122
  0
VERTEX
  8
PLAN_1
 62
     2
  6
CONTINUOUS
 10
-1.651386
 20
-0.623638
  0
VERTEX
  8
PLAN_1
 62
     2
  6
CONTINUOUS
 10
-1.654350
 20
-0.623146
  0
VERTEX
  8
PLAN_1
 62
     2
  6
CONTINUOUS
 10
-1.657315
 20
-0.623146
  0
VERTEX
  8
PLAN_1
 62
     2
  6
CONTINUOUS
 10
-1.659787
 20
-0.622650
  0
VERTEX
  8
PLAN_1
 62
     2
  6
CONTINUOUS
 10
-1.660280
 20
-0.622650
  0
VERTEX
  8
PLAN_1
 62
     2
  6
CONTINUOUS
 10
-1.660776
 20
-0.622650
  0
VERTEX
  8
PLAN_1
 62
     2
  6
CONTINUOUS
 10
-1.661268
 20
-0.622650
  0
VERTEX
  8
PLAN_1
 62
     2
  6
CONTINUOUS
 10
-1.661764
 20
-0.622650
  0
VERTEX
  8
PLAN_1
 62
     2
  6
CONTINUOUS
 10
-1.662256
 20
-0.623146
  0
VERTEX
  8
PLAN_1
 62
     2
  6
CONTINUOUS
 10
-1.662752
 20
-0.623146
  0
VERTEX
  8
PLAN_1
 62
     2
  6
CONTINUOUS
 10
-1.663244
 20
-0.623146
  0
VERTEX
  8
PLAN_1
 62
     2
  6
CONTINUOUS
 10
-1.663740
 20
-0.623146
  0
VERTEX
  8
PLAN_1
 62
     2
  6
CONTINUOUS
 10
-1.663740
 20
-0.615236
  0
SEQEND
  8
0
  0
POLYLINE
  8
PLAN_1
 62
     2
  6
CONTINUOUS
 66
     1
 40
0.003000
 41
0.003000
  0
VERTEX
  8
PLAN_1
 62
     2
  6
CONTINUOUS
 10
-1.600492
 20
-0.658720
  0
VERTEX
  8
PLAN_1
 62
     2
  6
CONTINUOUS
 10
-1.603949
 20
-0.658228
  0
VERTEX
  8
PLAN_1
 62
     2
  6
CONTINUOUS
 10
-1.607409
 20
-0.657732
  0
VERTEX
  8
PLAN_1
 62
     2
  6
CONTINUOUS
 10
-1.610374
 20
-0.656252
  0
VERTEX
  8
PLAN_1
 62
     2
  6
CONTINUOUS
 10
-1.613339
 20
-0.654768
  0
VERTEX
  8
PLAN_1
 62
     2
  6
CONTINUOUS
 10
-1.615315
 20
-0.652791
  0
VERTEX
  8
PLAN_1
 62
     2
  6
CONTINUOUS
 10
-1.617291
 20
-0.650815
  0
VERTEX
  8
PLAN_1
 62
     2
  6
CONTINUOUS
 10
-1.619268
 20
-0.648343
  0
VERTEX
  8
PLAN_1
 62
     2
  6
CONTINUOUS
 10
-1.620752
 20
-0.645378
  0
VERTEX
  8
PLAN_1
 62
     2
  6
CONTINUOUS
 10
-1.623220
 20
-0.639449
  0
VERTEX
  8
PLAN_1
 62
     2
  6
CONTINUOUS
 10
-1.624209
 20
-0.633520
  0
VERTEX
  8
PLAN_1
 62
     2
  6
CONTINUOUS
 10
-1.625197
 20
-0.627098
  0
VERTEX
  8
PLAN_1
 62
     2
  6
CONTINUOUS
 10
-1.625197
 20
-0.621169
  0
VERTEX
  8
PLAN_1
 62
     2
  6
CONTINUOUS
 10
-1.625197
 20
-0.615236
  0
VERTEX
  8
PLAN_1
 62
     2
  6
CONTINUOUS
 10
-1.624209
 20
-0.608815
  0
VERTEX
  8
PLAN_1
 62
     2
  6
CONTINUOUS
 10
-1.623220
 20
-0.602390
  0
VERTEX
  8
PLAN_1
 62
     2
  6
CONTINUOUS
 10
-1.620752
 20
-0.596461
  0
VERTEX
  8
PLAN_1
 62
     2
  6
CONTINUOUS
 10
-1.619268
 20
-0.593992
  0
VERTEX
  8
PLAN_1
 62
     2
  6
CONTINUOUS
 10
-1.617291
 20
-0.591520
  0
VERTEX
  8
PLAN_1
 62
     2
  6
CONTINUOUS
 10
-1.615315
 20
-0.589047
  0
VERTEX
  8
PLAN_1
 62
     2
  6
CONTINUOUS
 10
-1.613339
 20
-0.587071
  0
VERTEX
  8
PLAN_1
 62
     2
  6
CONTINUOUS
 10
-1.610374
 20
-0.585591
  0
VERTEX
  8
PLAN_1
 62
     2
  6
CONTINUOUS
 10
-1.607409
 20
-0.584602
  0
VERTEX
  8
PLAN_1
 62
     2
  6
CONTINUOUS
 10
-1.603949
 20
-0.583614
  0
VERTEX
  8
PLAN_1
 62
     2
  6
CONTINUOUS
 10
-1.600492
 20
-0.583614
  0
VERTEX
  8
PLAN_1
 62
     2
  6
CONTINUOUS
 10
-1.596539
 20
-0.583614
  0
VERTEX
  8
PLAN_1
 62
     2
  6
CONTINUOUS
 10
-1.593079
 20
-0.584602
  0
VERTEX
  8
PLAN_1
 62
     2
  6
CONTINUOUS
 10
-1.590114
 20
-0.585591
  0
VERTEX
  8
PLAN_1
 62
     2
  6
CONTINUOUS
 10
-1.587642
 20
-0.587071
  0
VERTEX
  8
PLAN_1
 62
     2
  6
CONTINUOUS
 10
-1.585173
 20
-0.589047
  0
VERTEX
  8
PLAN_1
 62
     2
  6
CONTINUOUS
 10
-1.583197
 20
-0.591520
  0
VERTEX
  8
PLAN_1
 62
     2
  6
CONTINUOUS
 10
-1.581220
 20
-0.593992
  0
VERTEX
  8
PLAN_1
 62
     2
  6
CONTINUOUS
 10
-1.579736
 20
-0.596461
  0
VERTEX
  8
PLAN_1
 62
     2
  6
CONTINUOUS
 10
-1.577760
 20
-0.602390
  0
VERTEX
  8
PLAN_1
 62
     2
  6
CONTINUOUS
 10
-1.576280
 20
-0.608815
  0
VERTEX
  8
PLAN_1
 62
     2
  6
CONTINUOUS
 10
-1.575291
 20
-0.615236
  0
VERTEX
  8
PLAN_1
 62
     2
  6
CONTINUOUS
 10
-1.575291
 20
-0.621169
  0
VERTEX
  8
PLAN_1
 62
     2
  6
CONTINUOUS
 10
-1.575291
 20
-0.627098
  0
VERTEX
  8
PLAN_1
 62
     2
  6
CONTINUOUS
 10
-1.576280
 20
-0.633520
  0
VERTEX
  8
PLAN_1
 62
     2
  6
CONTINUOUS
 10
-1.577760
 20
-0.639449
  0
VERTEX
  8
PLAN_1
 62
     2
  6
CONTINUOUS
 10
-1.579736
 20
-0.645378
  0
VERTEX
  8
PLAN_1
 62
     2
  6
CONTINUOUS
 10
-1.581220
 20
-0.648343
  0
VERTEX
  8
PLAN_1
 62
     2
  6
CONTINUOUS
 10
-1.583197
 20
-0.650815
  0
VERTEX
  8
PLAN_1
 62
     2
  6
CONTINUOUS
 10
-1.585173
 20
-0.652791
  0
VERTEX
  8
PLAN_1
 62
     2
  6
CONTINUOUS
 10
-1.587642
 20
-0.654768
  0
VERTEX
  8
PLAN_1
 62
     2
  6
CONTINUOUS
 10
-1.590114
 20
-0.656252
  0
VERTEX
  8
PLAN_1
 62
     2
  6
CONTINUOUS
 10
-1.593079
 20
-0.657732
  0
VERTEX
  8
PLAN_1
 62
     2
  6
CONTINUOUS
 10
-1.596539
 20
-0.658228
  0
VERTEX
  8
PLAN_1
 62
     2
  6
CONTINUOUS
 10
-1.600492
 20
-0.658720
  0
SEQEND
  8
0
  0
POLYLINE
  8
PLAN_1
 62
     2
  6
CONTINUOUS
 66
     1
 40
0.003000
 41
0.003000
  0
VERTEX
  8
PLAN_1
 62
     2
  6
CONTINUOUS
 10
-1.600492
 20
-0.591520
  0
VERTEX
  8
PLAN_1
 62
     2
  6
CONTINUOUS
 10
-1.602469
 20
-0.592012
  0
VERTEX
  8
PLAN_1
 62
     2
  6
CONTINUOUS
 10
-1.603949
 20
-0.592012
  0
VERTEX
  8
PLAN_1
 62
     2
  6
CONTINUOUS
 10
-1.605433
 20
-0.593004
  0
VERTEX
  8
PLAN_1
 62
     2
  6
CONTINUOUS
 10
-1.606913
 20
-0.593992
  0
VERTEX
  8
PLAN_1
 62
     2
  6
CONTINUOUS
 10
-1.609878
 20
-0.595969
  0
VERTEX
  8
PLAN_1
 62
     2
  6
CONTINUOUS
 10
-1.611854
 20
-0.599425
  0
VERTEX
  8
PLAN_1
 62
     2
  6
CONTINUOUS
 10
-1.613339
 20
-0.603874
  0
VERTEX
  8
PLAN_1
 62
     2
  6
CONTINUOUS
 10
-1.614819
 20
-0.608815
  0
VERTEX
  8
PLAN_1
 62
     2
  6
CONTINUOUS
 10
-1.615315
 20
-0.614744
  0
VERTEX
  8
PLAN_1
 62
     2
  6
CONTINUOUS
 10
-1.615807
 20
-0.621169
  0
VERTEX
  8
PLAN_1
 62
     2
  6
CONTINUOUS
 10
-1.615315
 20
-0.627591
  0
VERTEX
  8
PLAN_1
 62
     2
  6
CONTINUOUS
 10
-1.614819
 20
-0.633520
  0
VERTEX
  8
PLAN_1
 62
     2
  6
CONTINUOUS
 10
-1.613339
 20
-0.638461
  0
VERTEX
  8
PLAN_1
 62
     2
  6
CONTINUOUS
 10
-1.611854
 20
-0.642413
  0
VERTEX
  8
PLAN_1
 62
     2
  6
CONTINUOUS
 10
-1.609878
 20
-0.645874
  0
VERTEX
  8
PLAN_1
 62
     2
  6
CONTINUOUS
 10
-1.606913
 20
-0.648343
  0
VERTEX
  8
PLAN_1
 62
     2
  6
CONTINUOUS
 10
-1.605433
 20
-0.649335
  0
VERTEX
  8
PLAN_1
 62
     2
  6
CONTINUOUS
 10
-1.603949
 20
-0.649827
  0
VERTEX
  8
PLAN_1
 62
     2
  6
CONTINUOUS
 10
-1.602469
 20
-0.650323
  0
VERTEX
  8
PLAN_1
 62
     2
  6
CONTINUOUS
 10
-1.600492
 20
-0.650323
  0
VERTEX
  8
PLAN_1
 62
     2
  6
CONTINUOUS
 10
-1.598516
 20
-0.650323
  0
VERTEX
  8
PLAN_1
 62
     2
  6
CONTINUOUS
 10
-1.596539
 20
-0.649827
  0
VERTEX
  8
PLAN_1
 62
     2
  6
CONTINUOUS
 10
-1.595055
 20
-0.649335
  0
VERTEX
  8
PLAN_1
 62
     2
  6
CONTINUOUS
 10
-1.593575
 20
-0.648343
  0
VERTEX
  8
PLAN_1
 62
     2
  6
CONTINUOUS
 10
-1.591102
 20
-0.645874
  0
VERTEX
  8
PLAN_1
 62
     2
  6
CONTINUOUS
 10
-1.588630
 20
-0.642413
  0
VERTEX
  8
PLAN_1
 62
     2
  6
CONTINUOUS
 10
-1.587150
 20
-0.638461
  0
VERTEX
  8
PLAN_1
 62
     2
  6
CONTINUOUS
 10
-1.586161
 20
-0.633520
  0
VERTEX
  8
PLAN_1
 62
     2
  6
CONTINUOUS
 10
-1.585173
 20
-0.627591
  0
VERTEX
  8
PLAN_1
 62
     2
  6
CONTINUOUS
 10
-1.585173
 20
-0.621169
  0
VERTEX
  8
PLAN_1
 62
     2
  6
CONTINUOUS
 10
-1.585173
 20
-0.614744
  0
VERTEX
  8
PLAN_1
 62
     2
  6
CONTINUOUS
 10
-1.586161
 20
-0.608815
  0
VERTEX
  8
PLAN_1
 62
     2
  6
CONTINUOUS
 10
-1.587150
 20
-0.603874
  0
VERTEX
  8
PLAN_1
 62
     2
  6
CONTINUOUS
 10
-1.588630
 20
-0.599425
  0
VERTEX
  8
PLAN_1
 62
     2
  6
CONTINUOUS
 10
-1.591102
 20
-0.595969
  0
VERTEX
  8
PLAN_1
 62
     2
  6
CONTINUOUS
 10
-1.593575
 20
-0.593992
  0
VERTEX
  8
PLAN_1
 62
     2
  6
CONTINUOUS
 10
-1.595055
 20
-0.593004
  0
VERTEX
  8
PLAN_1
 62
     2
  6
CONTINUOUS
 10
-1.596539
 20
-0.592012
  0
VERTEX
  8
PLAN_1
 62
     2
  6
CONTINUOUS
 10
-1.598516
 20
-0.592012
  0
VERTEX
  8
PLAN_1
 62
     2
  6
CONTINUOUS
 10
-1.600492
 20
-0.591520
  0
SEQEND
  8
0
  0
SOLID
  8
PLAN_1
 62
     2
 10
-1.542185
 20
-0.395350
 11
-1.488323
 21
-0.424504
 12
-1.542185
 22
-0.395350
 13
-1.480913
 23
-0.393866
  0
POLYLINE
  8
PLAN_1
 62
     2
  6
CONTINUOUS
 66
     1
 40
0.003000
 41
0.003000
  0
VERTEX
  8
PLAN_1
 62
     2
  6
CONTINUOUS
 10
-1.542185
 20
-0.395350
  0
VERTEX
  8
PLAN_1
 62
     2
  6
CONTINUOUS
 10
-1.488323
 20
-0.424504
  0
VERTEX
  8
PLAN_1
 62
     2
  6
CONTINUOUS
 10
-1.480913
 20
-0.393866
  0
VERTEX
  8
PLAN_1
 62
     2
  6
CONTINUOUS
 10
-1.542185
 20
-0.395350
  0
SEQEND
  8
0
  0
POLYLINE
  8
PLAN_1
 62
     2
  6
CONTINUOUS
 66
     1
 40
0.003953
 41
0.003953
  0
VERTEX
  8
PLAN_1
 62
     2
  6
CONTINUOUS
 10
-1.023346
 20
-0.134449
  0
VERTEX
  8
PLAN_1
 62
     2
  6
CONTINUOUS
 10
-0.858803
 20
-0.134449
  0
SEQEND
  8
0
  0
POLYLINE
  8
PLAN_1
 62
     2
  6
CONTINUOUS
 66
     1
 40
0.003953
 41
0.003953
  0
VERTEX
  8
PLAN_1
 62
     2
  6
CONTINUOUS
 10
-1.040150
 20
-0.158169
  0
VERTEX
  8
PLAN_1
 62
     2
  6
CONTINUOUS
 10
-1.040150
 20
-0.498130
  0
SEQEND
  8
0
  0
POLYLINE
  8
PLAN_1
 62
     2
  6
CONTINUOUS
 66
     1
 40
0.003953
 41
0.003953
  0
VERTEX
  8
PLAN_1
 62
     2
  6
CONTINUOUS
 10
-1.040150
 20
-0.545567
  0
VERTEX
  8
PLAN_1
 62
     2
  6
CONTINUOUS
 10
-1.040150
 20
-0.703685
  0
SEQEND
  8
0
  0
POLYLINE
  8
PLAN_1
 62
     2
  6
CONTINUOUS
 66
     1
 40
0.003953
 41
0.003953
  0
VERTEX
  8
PLAN_1
 62
     2
  6
CONTINUOUS
 10
-2.218154
 20
0.289020
  0
VERTEX
  8
PLAN_1
 62
     2
  6
CONTINUOUS
 10
-2.218154
 20
-0.703685
  0
SEQEND
  8
0
  0
POLYLINE
  8
PLAN_1
 62
     2
  6
CONTINUOUS
 66
     1
 40
0.003953
 41
0.003953
  0
VERTEX
  8
PLAN_1
 62
     2
  6
CONTINUOUS
 10
-0.882520
 20
-0.104803
  0
VERTEX
  8
PLAN_1
 62
     2
  6
CONTINUOUS
 10
-0.882520
 20
3.671335
  0
SEQEND
  8
0
  0
SOLID
  8
PLAN_1
 62
     2
 10
-0.882520
 20
3.700980
 11
-0.898335
 21
3.642181
 12
-0.882520
 22
3.700980
 13
-0.866709
 23
3.642181
  0
POLYLINE
  8
PLAN_1
 62
     2
  6
CONTINUOUS
 66
     1
 40
0.003000
 41
0.003000
  0
VERTEX
  8
PLAN_1
 62
     2
  6
CONTINUOUS
 10
-0.882520
 20
3.700980
  0
VERTEX
  8
PLAN_1
 62
     2
  6
CONTINUOUS
 10
-0.898335
 20
3.642181
  0
VERTEX
  8
PLAN_1
 62
     2
  6
CONTINUOUS
 10
-0.866709
 20
3.642181
  0
VERTEX
  8
PLAN_1
 62
     2
  6
CONTINUOUS
 10
-0.882520
 20
3.700980
  0
SEQEND
  8
0
  0
SOLID
  8
PLAN_1
 62
     2
 10
-0.882520
 20
-0.134449
 11
-0.898335
 21
-0.075154
 12
-0.882520
 22
-0.134449
 13
-0.866709
 23
-0.075154
  0
POLYLINE
  8
PLAN_1
 62
     2
  6
CONTINUOUS
 66
     1
 40
0.003000
 41
0.003000
  0
VERTEX
  8
PLAN_1
 62
     2
  6
CONTINUOUS
 10
-0.882520
 20
-0.134449
  0
VERTEX
  8
PLAN_1
 62
     2
  6
CONTINUOUS
 10
-0.898335
 20
-0.075154
  0
VERTEX
  8
PLAN_1
 62
     2
  6
CONTINUOUS
 10
-0.866709
 20
-0.075154
  0
VERTEX
  8
PLAN_1
 62
     2
  6
CONTINUOUS
 10
-0.882520
 20
-0.134449
  0
SEQEND
  8
0
  0
POLYLINE
  8
PLAN_1
 62
     2
  6
CONTINUOUS
 66
     1
 40
0.003953
 41
0.003953
  0
VERTEX
  8
PLAN_1
 62
     2
  6
CONTINUOUS
 10
-1.042618
 20
2.778441
  0
VERTEX
  8
PLAN_1
 62
     2
  6
CONTINUOUS
 10
-1.042618
 20
3.677264
  0
SEQEND
  8
0
  0
POLYLINE
  8
PLAN_1
 62
     2
  6
CONTINUOUS
 66
     1
 40
0.003953
 41
0.003953
  0
VERTEX
  8
PLAN_1
 62
     2
  6
CONTINUOUS
 10
-0.858803
 20
3.700980
  0
VERTEX
  8
PLAN_1
 62
     2
  6
CONTINUOUS
 10
-1.530323
 20
3.700980
  0
SEQEND
  8
0
  0
POLYLINE
  8
PLAN_1
 62
     2
  6
CONTINUOUS
 66
     1
 40
0.003000
 41
0.003000
  0
VERTEX
  8
PLAN_1
 62
     2
  6
CONTINUOUS
 10
-0.981346
 20
1.737807
  0
VERTEX
  8
PLAN_1
 62
     2
  6
CONTINUOUS
 10
-0.986287
 20
1.737807
  0
VERTEX
  8
PLAN_1
 62
     2
  6
CONTINUOUS
 10
-0.990736
 20
1.739287
  0
VERTEX
  8
PLAN_1
 62
     2
  6
CONTINUOUS
 10
-0.995181
 20
1.741264
  0
VERTEX
  8
PLAN_1
 62
     2
  6
CONTINUOUS
 10
-0.998642
 20
1.743736
  0
VERTEX
  8
PLAN_1
 62
     2
  6
CONTINUOUS
 10
-1.000618
 20
1.745217
  0
VERTEX
  8
PLAN_1
 62
     2
  6
CONTINUOUS
 10
-1.002098
 20
1.747193
  0
VERTEX
  8
PLAN_1
 62
     2
  6
CONTINUOUS
 10
-1.003087
 20
1.748677
  0
VERTEX
  8
PLAN_1
 62
     2
  6
CONTINUOUS
 10
-1.004075
 20
1.751150
  0
VERTEX
  8
PLAN_1
 62
     2
  6
CONTINUOUS
 10
-1.005067
 20
1.753126
  0
VERTEX
  8
PLAN_1
 62
     2
  6
CONTINUOUS
 10
-1.005559
 20
1.755594
  0
VERTEX
  8
PLAN_1
 62
     2
  6
CONTINUOUS
 10
-1.006055
 20
1.758559
  0
VERTEX
  8
PLAN_1
 62
     2
  6
CONTINUOUS
 10
-1.006055
 20
1.761031
  0
VERTEX
  8
PLAN_1
 62
     2
  6
CONTINUOUS
 10
-1.006055
 20
1.765476
  0
VERTEX
  8
PLAN_1
 62
     2
  6
CONTINUOUS
 10
-1.005067
 20
1.768937
  0
VERTEX
  8
PLAN_1
 62
     2
  6
CONTINUOUS
 10
-1.004075
 20
1.772394
  0
VERTEX
  8
PLAN_1
 62
     2
  6
CONTINUOUS
 10
-1.002594
 20
1.774866
  0
VERTEX
  8
PLAN_1
 62
     2
  6
CONTINUOUS
 10
-1.000618
 20
1.777339
  0
VERTEX
  8
PLAN_1
 62
     2
  6
CONTINUOUS
 10
-0.998642
 20
1.779315
  0
VERTEX
  8
PLAN_1
 62
     2
  6
CONTINUOUS
 10
-0.996169
 20
1.781291
  0
VERTEX
  8
PLAN_1
 62
     2
  6
CONTINUOUS
 10
-0.993701
 20
1.782772
  0
VERTEX
  8
PLAN_1
 62
     2
  6
CONTINUOUS
 10
-0.988264
 20
1.784748
  0
VERTEX
  8
PLAN_1
 62
     2
  6
CONTINUOUS
 10
-0.982831
 20
1.786232
  0
VERTEX
  8
PLAN_1
 62
     2
  6
CONTINUOUS
 10
-0.977394
 20
1.786724
  0
VERTEX
  8
PLAN_1
 62
     2
  6
CONTINUOUS
 10
-0.972453
 20
1.786724
  0
VERTEX
  8
PLAN_1
 62
     2
  6
CONTINUOUS
 10
-0.968500
 20
1.786724
  0
VERTEX
  8
PLAN_1
 62
     2
  6
CONTINUOUS
 10
-0.962571
 20
1.786232
  0
VERTEX
  8
PLAN_1
 62
     2
  6
CONTINUOUS
 10
-0.956146
 20
1.785244
  0
VERTEX
  8
PLAN_1
 62
     2
  6
CONTINUOUS
 10
-0.948736
 20
1.782772
  0
VERTEX
  8
PLAN_1
 62
     2
  6
CONTINUOUS
 10
-0.945276
 20
1.781291
  0
VERTEX
  8
PLAN_1
 62
     2
  6
CONTINUOUS
 10
-0.942311
 20
1.779807
  0
VERTEX
  8
PLAN_1
 62
     2
  6
CONTINUOUS
 10
-0.939346
 20
1.777339
  0
VERTEX
  8
PLAN_1
 62
     2
  6
CONTINUOUS
 10
-0.936382
 20
1.774866
  0
VERTEX
  8
PLAN_1
 62
     2
  6
CONTINUOUS
 10
-0.934406
 20
1.771902
  0
VERTEX
  8
PLAN_1
 62
     2
  6
CONTINUOUS
 10
-0.932429
 20
1.768441
  0
VERTEX
  8
PLAN_1
 62
     2
  6
CONTINUOUS
 10
-0.931441
 20
1.764488
  0
VERTEX
  8
PLAN_1
 62
     2
  6
CONTINUOUS
 10
-0.930945
 20
1.760043
  0
VERTEX
  8
PLAN_1
 62
     2
  6
CONTINUOUS
 10
-0.931441
 20
1.757079
  0
VERTEX
  8
PLAN_1
 62
     2
  6
CONTINUOUS
 10
-0.931933
 20
1.754606
  0
VERTEX
  8
PLAN_1
 62
     2
  6
CONTINUOUS
 10
-0.932429
 20
1.751642
  0
VERTEX
  8
PLAN_1
 62
     2
  6
CONTINUOUS
 10
-0.933417
 20
1.749665
  0
VERTEX
  8
PLAN_1
 62
     2
  6
CONTINUOUS
 10
-0.935394
 20
1.745713
  0
VERTEX
  8
PLAN_1
 62
     2
  6
CONTINUOUS
 10
-0.938358
 20
1.742748
  0
VERTEX
  8
PLAN_1
 62
     2
  6
CONTINUOUS
 10
-0.941323
 20
1.740772
  0
VERTEX
  8
PLAN_1
 62
     2
  6
CONTINUOUS
 10
-0.944780
 20
1.739287
  0
VERTEX
  8
PLAN_1
 62
     2
  6
CONTINUOUS
 10
-0.947744
 20
1.738795
  0
VERTEX
  8
PLAN_1
 62
     2
  6
CONTINUOUS
 10
-0.950713
 20
1.738299
  0
VERTEX
  8
PLAN_1
 62
     2
  6
CONTINUOUS
 10
-0.950713
 20
1.747689
  0
VERTEX
  8
PLAN_1
 62
     2
  6
CONTINUOUS
 10
-0.948240
 20
1.748181
  0
VERTEX
  8
PLAN_1
 62
     2
  6
CONTINUOUS
 10
-0.945768
 20
1.748677
  0
VERTEX
  8
PLAN_1
 62
     2
  6
CONTINUOUS
 10
-0.943791
 20
1.749665
  0
VERTEX
  8
PLAN_1
 62
     2
  6
CONTINUOUS
 10
-0.941815
 20
1.751150
  0
VERTEX
  8
PLAN_1
 62
     2
  6
CONTINUOUS
 10
-0.940827
 20
1.753126
  0
VERTEX
  8
PLAN_1
 62
     2
  6
CONTINUOUS
 10
-0.939839
 20
1.755102
  0
VERTEX
  8
PLAN_1
 62
     2
  6
CONTINUOUS
 10
-0.938850
 20
1.757571
  0
VERTEX
  8
PLAN_1
 62
     2
  6
CONTINUOUS
 10
-0.938850
 20
1.760043
  0
VERTEX
  8
PLAN_1
 62
     2
  6
CONTINUOUS
 10
-0.939346
 20
1.763500
  0
VERTEX
  8
PLAN_1
 62
     2
  6
CONTINUOUS
 10
-0.940335
 20
1.766465
  0
VERTEX
  8
PLAN_1
 62
     2
  6
CONTINUOUS
 10
-0.942311
 20
1.769429
  0
VERTEX
  8
PLAN_1
 62
     2
  6
CONTINUOUS
 10
-0.945276
 20
1.771902
  0
VERTEX
  8
PLAN_1
 62
     2
  6
CONTINUOUS
 10
-0.949228
 20
1.773878
  0
VERTEX
  8
PLAN_1
 62
     2
  6
CONTINUOUS
 10
-0.953677
 20
1.775358
  0
VERTEX
  8
PLAN_1
 62
     2
  6
CONTINUOUS
 10
-0.959606
 20
1.776843
  0
VERTEX
  8
PLAN_1
 62
     2
  6
CONTINUOUS
 10
-0.966028
 20
1.777831
  0
VERTEX
  8
PLAN_1
 62
     2
  6
CONTINUOUS
 10
-0.966524
 20
1.777339
  0
VERTEX
  8
PLAN_1
 62
     2
  6
CONTINUOUS
 10
-0.964547
 20
1.776346
  0
VERTEX
  8
PLAN_1
 62
     2
  6
CONTINUOUS
 10
-0.962571
 20
1.774370
  0
VERTEX
  8
PLAN_1
 62
     2
  6
CONTINUOUS
 10
-0.961087
 20
1.772890
  0
VERTEX
  8
PLAN_1
 62
     2
  6
CONTINUOUS
 10
-0.960098
 20
1.770417
  0
VERTEX
  8
PLAN_1
 62
     2
  6
CONTINUOUS
 10
-0.959110
 20
1.768441
  0
VERTEX
  8
PLAN_1
 62
     2
  6
CONTINUOUS
 10
-0.958122
 20
1.765972
  0
VERTEX
  8
PLAN_1
 62
     2
  6
CONTINUOUS
 10
-0.957630
 20
1.763008
  0
VERTEX
  8
PLAN_1
 62
     2
  6
CONTINUOUS
 10
-0.957630
 20
1.760535
  0
VERTEX
  8
PLAN_1
 62
     2
  6
CONTINUOUS
 10
-0.958122
 20
1.755594
  0
VERTEX
  8
PLAN_1
 62
     2
  6
CONTINUOUS
 10
-0.959110
 20
1.751150
  0
VERTEX
  8
PLAN_1
 62
     2
  6
CONTINUOUS
 10
-0.961087
 20
1.747193
  0
VERTEX
  8
PLAN_1
 62
     2
  6
CONTINUOUS
 10
-0.964051
 20
1.744228
  0
VERTEX
  8
PLAN_1
 62
     2
  6
CONTINUOUS
 10
-0.967512
 20
1.741264
  0
VERTEX
  8
PLAN_1
 62
     2
  6
CONTINUOUS
 10
-0.971465
 20
1.739287
  0
VERTEX
  8
PLAN_1
 62
     2
  6
CONTINUOUS
 10
-0.975909
 20
1.738299
  0
VERTEX
  8
PLAN_1
 62
     2
  6
CONTINUOUS
 10
-0.981346
 20
1.737807
  0
SEQEND
  8
0
  0
POLYLINE
  8
PLAN_1
 62
     2
  6
CONTINUOUS
 66
     1
 40
0.003000
 41
0.003000
  0
VERTEX
  8
PLAN_1
 62
     2
  6
CONTINUOUS
 10
-0.982335
 20
1.775854
  0
VERTEX
  8
PLAN_1
 62
     2
  6
CONTINUOUS
 10
-0.985299
 20
1.775854
  0
VERTEX
  8
PLAN_1
 62
     2
  6
CONTINUOUS
 10
-0.988264
 20
1.775358
  0
VERTEX
  8
PLAN_1
 62
     2
  6
CONTINUOUS
 10
-0.991228
 20
1.774370
  0
VERTEX
  8
PLAN_1
 62
     2
  6
CONTINUOUS
 10
-0.993205
 20
1.772394
  0
VERTEX
  8
PLAN_1
 62
     2
  6
CONTINUOUS
 10
-0.995181
 20
1.770417
  0
VERTEX
  8
PLAN_1
 62
     2
  6
CONTINUOUS
 10
-0.996665
 20
1.767949
  0
VERTEX
  8
PLAN_1
 62
     2
  6
CONTINUOUS
 10
-0.997654
 20
1.764984
  0
VERTEX
  8
PLAN_1
 62
     2
  6
CONTINUOUS
 10
-0.998146
 20
1.761524
  0
VERTEX
  8
PLAN_1
 62
     2
  6
CONTINUOUS
 10
-0.997654
 20
1.758067
  0
VERTEX
  8
PLAN_1
 62
     2
  6
CONTINUOUS
 10
-0.996665
 20
1.755594
  0
VERTEX
  8
PLAN_1
 62
     2
  6
CONTINUOUS
 10
-0.995677
 20
1.753126
  0
VERTEX
  8
PLAN_1
 62
     2
  6
CONTINUOUS
 10
-0.993701
 20
1.751150
  0
VERTEX
  8
PLAN_1
 62
     2
  6
CONTINUOUS
 10
-0.991228
 20
1.749169
  0
VERTEX
  8
PLAN_1
 62
     2
  6
CONTINUOUS
 10
-0.988264
 20
1.748181
  0
VERTEX
  8
PLAN_1
 62
     2
  6
CONTINUOUS
 10
-0.985299
 20
1.747193
  0
VERTEX
  8
PLAN_1
 62
     2
  6
CONTINUOUS
 10
-0.981843
 20
1.747193
  0
VERTEX
  8
PLAN_1
 62
     2
  6
CONTINUOUS
 10
-0.976902
 20
1.747689
  0
VERTEX
  8
PLAN_1
 62
     2
  6
CONTINUOUS
 10
-0.973441
 20
1.748677
  0
VERTEX
  8
PLAN_1
 62
     2
  6
CONTINUOUS
 10
-0.970476
 20
1.750161
  0
VERTEX
  8
PLAN_1
 62
     2
  6
CONTINUOUS
 10
-0.968500
 20
1.752138
  0
VERTEX
  8
PLAN_1
 62
     2
  6
CONTINUOUS
 10
-0.967016
 20
1.754606
  0
VERTEX
  8
PLAN_1
 62
     2
  6
CONTINUOUS
 10
-0.966524
 20
1.757079
  0
VERTEX
  8
PLAN_1
 62
     2
  6
CONTINUOUS
 10
-0.966028
 20
1.759547
  0
VERTEX
  8
PLAN_1
 62
     2
  6
CONTINUOUS
 10
-0.966028
 20
1.762020
  0
VERTEX
  8
PLAN_1
 62
     2
  6
CONTINUOUS
 10
-0.966028
 20
1.763996
  0
VERTEX
  8
PLAN_1
 62
     2
  6
CONTINUOUS
 10
-0.966524
 20
1.765972
  0
VERTEX
  8
PLAN_1
 62
     2
  6
CONTINUOUS
 10
-0.967512
 20
1.768441
  0
VERTEX
  8
PLAN_1
 62
     2
  6
CONTINUOUS
 10
-0.968500
 20
1.770913
  0
VERTEX
  8
PLAN_1
 62
     2
  6
CONTINUOUS
 10
-0.970969
 20
1.772890
  0
VERTEX
  8
PLAN_1
 62
     2
  6
CONTINUOUS
 10
-0.973933
 20
1.774370
  0
VERTEX
  8
PLAN_1
 62
     2
  6
CONTINUOUS
 10
-0.977394
 20
1.775854
  0
VERTEX
  8
PLAN_1
 62
     2
  6
CONTINUOUS
 10
-0.982335
 20
1.775854
  0
SEQEND
  8
0
  0
POLYLINE
  8
PLAN_1
 62
     2
  6
CONTINUOUS
 66
     1
 40
0.003000
 41
0.003000
  0
VERTEX
  8
PLAN_1
 62
     2
  6
CONTINUOUS
 10
-1.004571
 20
1.795126
  0
VERTEX
  8
PLAN_1
 62
     2
  6
CONTINUOUS
 10
-1.004571
 20
1.845528
  0
VERTEX
  8
PLAN_1
 62
     2
  6
CONTINUOUS
 10
-0.996665
 20
1.845528
  0
VERTEX
  8
PLAN_1
 62
     2
  6
CONTINUOUS
 10
-0.993205
 20
1.842563
  0
VERTEX
  8
PLAN_1
 62
     2
  6
CONTINUOUS
 10
-0.988264
 20
1.838610
  0
VERTEX
  8
PLAN_1
 62
     2
  6
CONTINUOUS
 10
-0.981843
 20
1.834161
  0
VERTEX
  8
PLAN_1
 62
     2
  6
CONTINUOUS
 10
-0.974429
 20
1.829713
  0
VERTEX
  8
PLAN_1
 62
     2
  6
CONTINUOUS
 10
-0.965535
 20
1.825268
  0
VERTEX
  8
PLAN_1
 62
     2
  6
CONTINUOUS
 10
-0.955654
 20
1.821315
  0
VERTEX
  8
PLAN_1
 62
     2
  6
CONTINUOUS
 10
-0.950713
 20
1.819831
  0
VERTEX
  8
PLAN_1
 62
     2
  6
CONTINUOUS
 10
-0.944780
 20
1.817854
  0
VERTEX
  8
PLAN_1
 62
     2
  6
CONTINUOUS
 10
-0.939346
 20
1.816866
  0
VERTEX
  8
PLAN_1
 62
     2
  6
CONTINUOUS
 10
-0.932921
 20
1.815386
  0
VERTEX
  8
PLAN_1
 62
     2
  6
CONTINUOUS
 10
-0.932921
 20
1.805504
  0
VERTEX
  8
PLAN_1
 62
     2
  6
CONTINUOUS
 10
-0.940827
 20
1.806984
  0
VERTEX
  8
PLAN_1
 62
     2
  6
CONTINUOUS
 10
-0.949228
 20
1.808961
  0
VERTEX
  8
PLAN_1
 62
     2
  6
CONTINUOUS
 10
-0.957630
 20
1.812421
  0
VERTEX
  8
PLAN_1
 62
     2
  6
CONTINUOUS
 10
-0.966028
 20
1.815878
  0
VERTEX
  8
PLAN_1
 62
     2
  6
CONTINUOUS
 10
-0.973933
 20
1.820327
  0
VERTEX
  8
PLAN_1
 62
     2
  6
CONTINUOUS
 10
-0.981843
 20
1.825268
  0
VERTEX
  8
PLAN_1
 62
     2
  6
CONTINUOUS
 10
-0.989252
 20
1.830209
  0
VERTEX
  8
PLAN_1
 62
     2
  6
CONTINUOUS
 10
-0.995677
 20
1.835150
  0
VERTEX
  8
PLAN_1
 62
     2
  6
CONTINUOUS
 10
-0.995677
 20
1.795126
  0
VERTEX
  8
PLAN_1
 62
     2
  6
CONTINUOUS
 10
-1.004571
 20
1.795126
  0
SEQEND
  8
0
  0
POLYLINE
  8
PLAN_1
 62
     2
  6
CONTINUOUS
 66
     1
 40
0.003953
 41
0.003953
  0
VERTEX
  8
PLAN_1
 62
     2
  6
CONTINUOUS
 10
-1.505618
 20
-0.403752
  0
VERTEX
  8
PLAN_1
 62
     2
  6
CONTINUOUS
 10
-0.866217
 20
-0.566319
  0
VERTEX
  8
PLAN_1
 62
     2
  6
CONTINUOUS
 10
0.062256
 20
-0.566319
  0
SEQEND
  8
0
  0
POLYLINE
  8
PLAN_1
 62
     2
  6
CONTINUOUS
 66
     1
 40
0.003000
 41
0.003000
  0
VERTEX
  8
PLAN_1
 62
     2
  6
CONTINUOUS
 10
-0.797035
 20
-0.542602
  0
VERTEX
  8
PLAN_1
 62
     2
  6
CONTINUOUS
 10
-0.806917
 20
-0.542602
  0
VERTEX
  8
PLAN_1
 62
     2
  6
CONTINUOUS
 10
-0.806917
 20
-0.490717
  0
VERTEX
  8
PLAN_1
 62
     2
  6
CONTINUOUS
 10
-0.823720
 20
-0.490717
  0
VERTEX
  8
PLAN_1
 62
     2
  6
CONTINUOUS
 10
-0.823720
 20
-0.483799
  0
VERTEX
  8
PLAN_1
 62
     2
  6
CONTINUOUS
 10
-0.819768
 20
-0.483307
  0
VERTEX
  8
PLAN_1
 62
     2
  6
CONTINUOUS
 10
-0.816307
 20
-0.482811
  0
VERTEX
  8
PLAN_1
 62
     2
  6
CONTINUOUS
 10
-0.813343
 20
-0.481823
  0
VERTEX
  8
PLAN_1
 62
     2
  6
CONTINUOUS
 10
-0.810874
 20
-0.480835
  0
VERTEX
  8
PLAN_1
 62
     2
  6
CONTINUOUS
 10
-0.808894
 20
-0.479350
  0
VERTEX
  8
PLAN_1
 62
     2
  6
CONTINUOUS
 10
-0.806917
 20
-0.476882
  0
VERTEX
  8
PLAN_1
 62
     2
  6
CONTINUOUS
 10
-0.805437
 20
-0.473421
  0
VERTEX
  8
PLAN_1
 62
     2
  6
CONTINUOUS
 10
-0.804449
 20
-0.469469
  0
VERTEX
  8
PLAN_1
 62
     2
  6
CONTINUOUS
 10
-0.797035
 20
-0.469469
  0
VERTEX
  8
PLAN_1
 62
     2
  6
CONTINUOUS
 10
-0.797035
 20
-0.542602
  0
SEQEND
  8
0
  0
POLYLINE
  8
PLAN_1
 62
     2
  6
CONTINUOUS
 66
     1
 40
0.003000
 41
0.003000
  0
VERTEX
  8
PLAN_1
 62
     2
  6
CONTINUOUS
 10
-0.729835
 20
-0.496154
  0
VERTEX
  8
PLAN_1
 62
     2
  6
CONTINUOUS
 10
-0.729835
 20
-0.531236
  0
VERTEX
  8
PLAN_1
 62
     2
  6
CONTINUOUS
 10
-0.729343
 20
-0.532717
  0
VERTEX
  8
PLAN_1
 62
     2
  6
CONTINUOUS
 10
-0.728846
 20
-0.533705
  0
VERTEX
  8
PLAN_1
 62
     2
  6
CONTINUOUS
 10
-0.728354
 20
-0.534693
  0
VERTEX
  8
PLAN_1
 62
     2
  6
CONTINUOUS
 10
-0.727366
 20
-0.535189
  0
VERTEX
  8
PLAN_1
 62
     2
  6
CONTINUOUS
 10
-0.726870
 20
-0.535189
  0
VERTEX
  8
PLAN_1
 62
     2
  6
CONTINUOUS
 10
-0.725882
 20
-0.535681
  0
VERTEX
  8
PLAN_1
 62
     2
  6
CONTINUOUS
 10
-0.724894
 20
-0.535681
  0
VERTEX
  8
PLAN_1
 62
     2
  6
CONTINUOUS
 10
-0.723906
 20
-0.535681
  0
VERTEX
  8
PLAN_1
 62
     2
  6
CONTINUOUS
 10
-0.720941
 20
-0.535681
  0
VERTEX
  8
PLAN_1
 62
     2
  6
CONTINUOUS
 10
-0.720941
 20
-0.542602
  0
VERTEX
  8
PLAN_1
 62
     2
  6
CONTINUOUS
 10
-0.721929
 20
-0.543094
  0
VERTEX
  8
PLAN_1
 62
     2
  6
CONTINUOUS
 10
-0.723409
 20
-0.543094
  0
VERTEX
  8
PLAN_1
 62
     2
  6
CONTINUOUS
 10
-0.724398
 20
-0.543094
  0
VERTEX
  8
PLAN_1
 62
     2
  6
CONTINUOUS
 10
-0.725386
 20
-0.543094
  0
VERTEX
  8
PLAN_1
 62
     2
  6
CONTINUOUS
 10
-0.725882
 20
-0.543591
  0
VERTEX
  8
PLAN_1
 62
     2
  6
CONTINUOUS
 10
-0.726870
 20
-0.543591
  0
VERTEX
  8
PLAN_1
 62
     2
  6
CONTINUOUS
 10
-0.727366
 20
-0.543591
  0
VERTEX
  8
PLAN_1
 62
     2
  6
CONTINUOUS
 10
-0.727858
 20
-0.543591
  0
VERTEX
  8
PLAN_1
 62
     2
  6
CONTINUOUS
 10
-0.730823
 20
-0.543094
  0
VERTEX
  8
PLAN_1
 62
     2
  6
CONTINUOUS
 10
-0.733295
 20
-0.542602
  0
VERTEX
  8
PLAN_1
 62
     2
  6
CONTINUOUS
 10
-0.735272
 20
-0.541614
  0
VERTEX
  8
PLAN_1
 62
     2
  6
CONTINUOUS
 10
-0.736752
 20
-0.540130
  0
VERTEX
  8
PLAN_1
 62
     2
  6
CONTINUOUS
 10
-0.737740
 20
-0.538650
  0
VERTEX
  8
PLAN_1
 62
     2
  6
CONTINUOUS
 10
-0.738236
 20
-0.536669
  0
VERTEX
  8
PLAN_1
 62
     2
  6
CONTINUOUS
 10
-0.738728
 20
-0.534201
  0
VERTEX
  8
PLAN_1
 62
     2
  6
CONTINUOUS
 10
-0.738728
 20
-0.531728
  0
VERTEX
  8
PLAN_1
 62
     2
  6
CONTINUOUS
 10
-0.738728
 20
-0.496154
  0
VERTEX
  8
PLAN_1
 62
     2
  6
CONTINUOUS
 10
-0.746142
 20
-0.496154
  0
VERTEX
  8
PLAN_1
 62
     2
  6
CONTINUOUS
 10
-0.746142
 20
-0.488248
  0
VERTEX
  8
PLAN_1
 62
     2
  6
CONTINUOUS
 10
-0.738728
 20
-0.488248
  0
VERTEX
  8
PLAN_1
 62
     2
  6
CONTINUOUS
 10
-0.738728
 20
-0.473421
  0
VERTEX
  8
PLAN_1
 62
     2
  6
CONTINUOUS
 10
-0.729835
 20
-0.473421
  0
VERTEX
  8
PLAN_1
 62
     2
  6
CONTINUOUS
 10
-0.729835
 20
-0.488248
  0
VERTEX
  8
PLAN_1
 62
     2
  6
CONTINUOUS
 10
-0.720941
 20
-0.488248
  0
VERTEX
  8
PLAN_1
 62
     2
  6
CONTINUOUS
 10
-0.720941
 20
-0.496154
  0
VERTEX
  8
PLAN_1
 62
     2
  6
CONTINUOUS
 10
-0.729835
 20
-0.496154
  0
SEQEND
  8
0
  0
POLYLINE
  8
PLAN_1
 62
     2
  6
CONTINUOUS
 66
     1
 40
0.003000
 41
0.003000
  0
VERTEX
  8
PLAN_1
 62
     2
  6
CONTINUOUS
 10
-0.701669
 20
-0.542602
  0
VERTEX
  8
PLAN_1
 62
     2
  6
CONTINUOUS
 10
-0.710563
 20
-0.542602
  0
VERTEX
  8
PLAN_1
 62
     2
  6
CONTINUOUS
 10
-0.710563
 20
-0.488248
  0
VERTEX
  8
PLAN_1
 62
     2
  6
CONTINUOUS
 10
-0.702165
 20
-0.488248
  0
VERTEX
  8
PLAN_1
 62
     2
  6
CONTINUOUS
 10
-0.702165
 20
-0.497634
  0
VERTEX
  8
PLAN_1
 62
     2
  6
CONTINUOUS
 10
-0.701669
 20
-0.497634
  0
VERTEX
  8
PLAN_1
 62
     2
  6
CONTINUOUS
 10
-0.700189
 20
-0.495165
  0
VERTEX
  8
PLAN_1
 62
     2
  6
CONTINUOUS
 10
-0.698705
 20
-0.493189
  0
VERTEX
  8
PLAN_1
 62
     2
  6
CONTINUOUS
 10
-0.697220
 20
-0.491213
  0
VERTEX
  8
PLAN_1
 62
     2
  6
CONTINUOUS
 10
-0.695244
 20
-0.489728
  0
VERTEX
  8
PLAN_1
 62
     2
  6
CONTINUOUS
 10
-0.693268
 20
-0.488740
  0
VERTEX
  8
PLAN_1
 62
     2
  6
CONTINUOUS
 10
-0.691291
 20
-0.487752
  0
VERTEX
  8
PLAN_1
 62
     2
  6
CONTINUOUS
 10
-0.688823
 20
-0.487260
  0
VERTEX
  8
PLAN_1
 62
     2
  6
CONTINUOUS
 10
-0.686350
 20
-0.486764
  0
VERTEX
  8
PLAN_1
 62
     2
  6
CONTINUOUS
 10
-0.685858
 20
-0.486764
  0
VERTEX
  8
PLAN_1
 62
     2
  6
CONTINUOUS
 10
-0.685362
 20
-0.486764
  0
VERTEX
  8
PLAN_1
 62
     2
  6
CONTINUOUS
 10
-0.684870
 20
-0.486764
  0
VERTEX
  8
PLAN_1
 62
     2
  6
CONTINUOUS
 10
-0.684374
 20
-0.487260
  0
VERTEX
  8
PLAN_1
 62
     2
  6
CONTINUOUS
 10
-0.684374
 20
-0.496646
  0
VERTEX
  8
PLAN_1
 62
     2
  6
CONTINUOUS
 10
-0.687835
 20
-0.496646
  0
VERTEX
  8
PLAN_1
 62
     2
  6
CONTINUOUS
 10
-0.690799
 20
-0.497142
  0
VERTEX
  8
PLAN_1
 62
     2
  6
CONTINUOUS
 10
-0.693268
 20
-0.497634
  0
VERTEX
  8
PLAN_1
 62
     2
  6
CONTINUOUS
 10
-0.695740
 20
-0.499118
  0
VERTEX
  8
PLAN_1
 62
     2
  6
CONTINUOUS
 10
-0.697717
 20
-0.501094
  0
VERTEX
  8
PLAN_1
 62
     2
  6
CONTINUOUS
 10
-0.699201
 20
-0.503071
  0
VERTEX
  8
PLAN_1
 62
     2
  6
CONTINUOUS
 10
-0.700681
 20
-0.505539
  0
VERTEX
  8
PLAN_1
 62
     2
  6
CONTINUOUS
 10
-0.701177
 20
-0.508504
  0
VERTEX
  8
PLAN_1
 62
     2
  6
CONTINUOUS
 10
-0.701669
 20
-0.510976
  0
VERTEX
  8
PLAN_1
 62
     2
  6
CONTINUOUS
 10
-0.701669
 20
-0.542602
  0
SEQEND
  8
0
  0
POLYLINE
  8
PLAN_1
 62
     2
  6
CONTINUOUS
 66
     1
 40
0.003000
 41
0.003000
  0
VERTEX
  8
PLAN_1
 62
     2
  6
CONTINUOUS
 10
-0.655220
 20
-0.486764
  0
VERTEX
  8
PLAN_1
 62
     2
  6
CONTINUOUS
 10
-0.651764
 20
-0.486764
  0
VERTEX
  8
PLAN_1
 62
     2
  6
CONTINUOUS
 10
-0.649291
 20
-0.487260
  0
VERTEX
  8
PLAN_1
 62
     2
  6
CONTINUOUS
 10
-0.646327
 20
-0.488248
  0
VERTEX
  8
PLAN_1
 62
     2
  6
CONTINUOUS
 10
-0.643858
 20
-0.489236
  0
VERTEX
  8
PLAN_1
 62
     2
  6
CONTINUOUS
 10
-0.641386
 20
-0.490717
  0
VERTEX
  8
PLAN_1
 62
     2
  6
CONTINUOUS
 10
-0.639409
 20
-0.492201
  0
VERTEX
  8
PLAN_1
 62
     2
  6
CONTINUOUS
 10
-0.637433
 20
-0.494177
  0
VERTEX
  8
PLAN_1
 62
     2
  6
CONTINUOUS
 10
-0.635949
 20
-0.496154
  0
VERTEX
  8
PLAN_1
 62
     2
  6
CONTINUOUS
 10
-0.633480
 20
-0.500106
  0
VERTEX
  8
PLAN_1
 62
     2
  6
CONTINUOUS
 10
-0.631504
 20
-0.505047
  0
VERTEX
  8
PLAN_1
 62
     2
  6
CONTINUOUS
 10
-0.630020
 20
-0.510484
  0
VERTEX
  8
PLAN_1
 62
     2
  6
CONTINUOUS
 10
-0.630020
 20
-0.515425
  0
VERTEX
  8
PLAN_1
 62
     2
  6
CONTINUOUS
 10
-0.630020
 20
-0.520858
  0
VERTEX
  8
PLAN_1
 62
     2
  6
CONTINUOUS
 10
-0.631504
 20
-0.525799
  0
VERTEX
  8
PLAN_1
 62
     2
  6
CONTINUOUS
 10
-0.633480
 20
-0.530740
  0
VERTEX
  8
PLAN_1
 62
     2
  6
CONTINUOUS
 10
-0.635949
 20
-0.535189
  0
VERTEX
  8
PLAN_1
 62
     2
  6
CONTINUOUS
 10
-0.637433
 20
-0.537165
  0
VERTEX
  8
PLAN_1
 62
     2
  6
CONTINUOUS
 10
-0.639409
 20
-0.538650
  0
VERTEX
  8
PLAN_1
 62
     2
  6
CONTINUOUS
 10
-0.641386
 20
-0.540626
  0
VERTEX
  8
PLAN_1
 62
     2
  6
CONTINUOUS
 10
-0.643858
 20
-0.541614
  0
VERTEX
  8
PLAN_1
 62
     2
  6
CONTINUOUS
 10
-0.646327
 20
-0.542602
  0
VERTEX
  8
PLAN_1
 62
     2
  6
CONTINUOUS
 10
-0.649291
 20
-0.543591
  0
VERTEX
  8
PLAN_1
 62
     2
  6
CONTINUOUS
 10
-0.651764
 20
-0.544083
  0
VERTEX
  8
PLAN_1
 62
     2
  6
CONTINUOUS
 10
-0.655220
 20
-0.544083
  0
VERTEX
  8
PLAN_1
 62
     2
  6
CONTINUOUS
 10
-0.658185
 20
-0.544083
  0
VERTEX
  8
PLAN_1
 62
     2
  6
CONTINUOUS
 10
-0.661150
 20
-0.543591
  0
VERTEX
  8
PLAN_1
 62
     2
  6
CONTINUOUS
 10
-0.664114
 20
-0.542602
  0
VERTEX
  8
PLAN_1
 62
     2
  6
CONTINUOUS
 10
-0.666587
 20
-0.541614
  0
VERTEX
  8
PLAN_1
 62
     2
  6
CONTINUOUS
 10
-0.668563
 20
-0.540626
  0
VERTEX
  8
PLAN_1
 62
     2
  6
CONTINUOUS
 10
-0.670539
 20
-0.538650
  0
VERTEX
  8
PLAN_1
 62
     2
  6
CONTINUOUS
 10
-0.672516
 20
-0.537165
  0
VERTEX
  8
PLAN_1
 62
     2
  6
CONTINUOUS
 10
-0.674492
 20
-0.535189
  0
VERTEX
  8
PLAN_1
 62
     2
  6
CONTINUOUS
 10
-0.676965
 20
-0.530740
  0
VERTEX
  8
PLAN_1
 62
     2
  6
CONTINUOUS
 10
-0.678941
 20
-0.525799
  0
VERTEX
  8
PLAN_1
 62
     2
  6
CONTINUOUS
 10
-0.679929
 20
-0.520858
  0
VERTEX
  8
PLAN_1
 62
     2
  6
CONTINUOUS
 10
-0.680421
 20
-0.515425
  0
VERTEX
  8
PLAN_1
 62
     2
  6
CONTINUOUS
 10
-0.679929
 20
-0.510484
  0
VERTEX
  8
PLAN_1
 62
     2
  6
CONTINUOUS
 10
-0.678941
 20
-0.505047
  0
VERTEX
  8
PLAN_1
 62
     2
  6
CONTINUOUS
 10
-0.676965
 20
-0.500106
  0
VERTEX
  8
PLAN_1
 62
     2
  6
CONTINUOUS
 10
-0.674492
 20
-0.496154
  0
VERTEX
  8
PLAN_1
 62
     2
  6
CONTINUOUS
 10
-0.672516
 20
-0.494177
  0
VERTEX
  8
PLAN_1
 62
     2
  6
CONTINUOUS
 10
-0.670539
 20
-0.492201
  0
VERTEX
  8
PLAN_1
 62
     2
  6
CONTINUOUS
 10
-0.668563
 20
-0.490717
  0
VERTEX
  8
PLAN_1
 62
     2
  6
CONTINUOUS
 10
-0.666587
 20
-0.489236
  0
VERTEX
  8
PLAN_1
 62
     2
  6
CONTINUOUS
 10
-0.664114
 20
-0.488248
  0
VERTEX
  8
PLAN_1
 62
     2
  6
CONTINUOUS
 10
-0.661150
 20
-0.487260
  0
VERTEX
  8
PLAN_1
 62
     2
  6
CONTINUOUS
 10
-0.658185
 20
-0.486764
  0
VERTEX
  8
PLAN_1
 62
     2
  6
CONTINUOUS
 10
-0.655220
 20
-0.486764
  0
SEQEND
  8
0
  0
POLYLINE
  8
PLAN_1
 62
     2
  6
CONTINUOUS
 66
     1
 40
0.003000
 41
0.003000
  0
VERTEX
  8
PLAN_1
 62
     2
  6
CONTINUOUS
 10
-0.655220
 20
-0.536177
  0
VERTEX
  8
PLAN_1
 62
     2
  6
CONTINUOUS
 10
-0.652752
 20
-0.536177
  0
VERTEX
  8
PLAN_1
 62
     2
  6
CONTINUOUS
 10
-0.650776
 20
-0.535681
  0
VERTEX
  8
PLAN_1
 62
     2
  6
CONTINUOUS
 10
-0.648799
 20
-0.535189
  0
VERTEX
  8
PLAN_1
 62
     2
  6
CONTINUOUS
 10
-0.647315
 20
-0.534201
  0
VERTEX
  8
PLAN_1
 62
     2
  6
CONTINUOUS
 10
-0.644350
 20
-0.531728
  0
VERTEX
  8
PLAN_1
 62
     2
  6
CONTINUOUS
 10
-0.642374
 20
-0.528764
  0
VERTEX
  8
PLAN_1
 62
     2
  6
CONTINUOUS
 10
-0.640890
 20
-0.525307
  0
VERTEX
  8
PLAN_1
 62
     2
  6
CONTINUOUS
 10
-0.639902
 20
-0.521846
  0
VERTEX
  8
PLAN_1
 62
     2
  6
CONTINUOUS
 10
-0.639409
 20
-0.518390
  0
VERTEX
  8
PLAN_1
 62
     2
  6
CONTINUOUS
 10
-0.639409
 20
-0.515425
  0
VERTEX
  8
PLAN_1
 62
     2
  6
CONTINUOUS
 10
-0.639409
 20
-0.512461
  0
VERTEX
  8
PLAN_1
 62
     2
  6
CONTINUOUS
 10
-0.639902
 20
-0.509000
  0
VERTEX
  8
PLAN_1
 62
     2
  6
CONTINUOUS
 10
-0.640890
 20
-0.505539
  0
VERTEX
  8
PLAN_1
 62
     2
  6
CONTINUOUS
 10
-0.642374
 20
-0.502575
  0
VERTEX
  8
PLAN_1
 62
     2
  6
CONTINUOUS
 10
-0.644350
 20
-0.499610
  0
VERTEX
  8
PLAN_1
 62
     2
  6
CONTINUOUS
 10
-0.647315
 20
-0.497142
  0
VERTEX
  8
PLAN_1
 62
     2
  6
CONTINUOUS
 10
-0.648799
 20
-0.496154
  0
VERTEX
  8
PLAN_1
 62
     2
  6
CONTINUOUS
 10
-0.650776
 20
-0.495165
  0
VERTEX
  8
PLAN_1
 62
     2
  6
CONTINUOUS
 10
-0.652752
 20
-0.494669
  0
VERTEX
  8
PLAN_1
 62
     2
  6
CONTINUOUS
 10
-0.655220
 20
-0.494669
  0
VERTEX
  8
PLAN_1
 62
     2
  6
CONTINUOUS
 10
-0.657693
 20
-0.494669
  0
VERTEX
  8
PLAN_1
 62
     2
  6
CONTINUOUS
 10
-0.659669
 20
-0.495165
  0
VERTEX
  8
PLAN_1
 62
     2
  6
CONTINUOUS
 10
-0.661646
 20
-0.496154
  0
VERTEX
  8
PLAN_1
 62
     2
  6
CONTINUOUS
 10
-0.663126
 20
-0.497142
  0
VERTEX
  8
PLAN_1
 62
     2
  6
CONTINUOUS
 10
-0.666091
 20
-0.499610
  0
VERTEX
  8
PLAN_1
 62
     2
  6
CONTINUOUS
 10
-0.668067
 20
-0.502575
  0
VERTEX
  8
PLAN_1
 62
     2
  6
CONTINUOUS
 10
-0.669551
 20
-0.505539
  0
VERTEX
  8
PLAN_1
 62
     2
  6
CONTINUOUS
 10
-0.670539
 20
-0.509000
  0
VERTEX
  8
PLAN_1
 62
     2
  6
CONTINUOUS
 10
-0.671035
 20
-0.512461
  0
VERTEX
  8
PLAN_1
 62
     2
  6
CONTINUOUS
 10
-0.671035
 20
-0.515425
  0
VERTEX
  8
PLAN_1
 62
     2
  6
CONTINUOUS
 10
-0.671035
 20
-0.518390
  0
VERTEX
  8
PLAN_1
 62
     2
  6
CONTINUOUS
 10
-0.670539
 20
-0.521846
  0
VERTEX
  8
PLAN_1
 62
     2
  6
CONTINUOUS
 10
-0.669551
 20
-0.525307
  0
VERTEX
  8
PLAN_1
 62
     2
  6
CONTINUOUS
 10
-0.668067
 20
-0.528764
  0
VERTEX
  8
PLAN_1
 62
     2
  6
CONTINUOUS
 10
-0.666091
 20
-0.531728
  0
VERTEX
  8
PLAN_1
 62
     2
  6
CONTINUOUS
 10
-0.663126
 20
-0.534201
  0
VERTEX
  8
PLAN_1
 62
     2
  6
CONTINUOUS
 10
-0.661646
 20
-0.535189
  0
VERTEX
  8
PLAN_1
 62
     2
  6
CONTINUOUS
 10
-0.659669
 20
-0.535681
  0
VERTEX
  8
PLAN_1
 62
     2
  6
CONTINUOUS
 10
-0.657693
 20
-0.536177
  0
VERTEX
  8
PLAN_1
 62
     2
  6
CONTINUOUS
 10
-0.655220
 20
-0.536177
  0
SEQEND
  8
0
  0
POLYLINE
  8
PLAN_1
 62
     2
  6
CONTINUOUS
 66
     1
 40
0.003000
 41
0.003000
  0
VERTEX
  8
PLAN_1
 62
     2
  6
CONTINUOUS
 10
-0.584067
 20
-0.542602
  0
VERTEX
  8
PLAN_1
 62
     2
  6
CONTINUOUS
 10
-0.584067
 20
-0.534693
  0
VERTEX
  8
PLAN_1
 62
     2
  6
CONTINUOUS
 10
-0.585547
 20
-0.536669
  0
VERTEX
  8
PLAN_1
 62
     2
  6
CONTINUOUS
 10
-0.587031
 20
-0.538650
  0
VERTEX
  8
PLAN_1
 62
     2
  6
CONTINUOUS
 10
-0.589008
 20
-0.540626
  0
VERTEX
  8
PLAN_1
 62
     2
  6
CONTINUOUS
 10
-0.590984
 20
-0.542106
  0
VERTEX
  8
PLAN_1
 62
     2
  6
CONTINUOUS
 10
-0.592961
 20
-0.543094
  0
VERTEX
  8
PLAN_1
 62
     2
  6
CONTINUOUS
 10
-0.595433
 20
-0.543591
  0
VERTEX
  8
PLAN_1
 62
     2
  6
CONTINUOUS
 10
-0.598398
 20
-0.544083
  0
VERTEX
  8
PLAN_1
 62
     2
  6
CONTINUOUS
 10
-0.601362
 20
-0.544579
  0
VERTEX
  8
PLAN_1
 62
     2
  6
CONTINUOUS
 10
-0.604327
 20
-0.544083
  0
VERTEX
  8
PLAN_1
 62
     2
  6
CONTINUOUS
 10
-0.607783
 20
-0.543591
  0
VERTEX
  8
PLAN_1
 62
     2
  6
CONTINUOUS
 10
-0.610748
 20
-0.542602
  0
VERTEX
  8
PLAN_1
 62
     2
  6
CONTINUOUS
 10
-0.613220
 20
-0.540626
  0
VERTEX
  8
PLAN_1
 62
     2
  6
CONTINUOUS
 10
-0.615693
 20
-0.538650
  0
VERTEX
  8
PLAN_1
 62
     2
  6
CONTINUOUS
 10
-0.617669
 20
-0.535681
  0
VERTEX
  8
PLAN_1
 62
     2
  6
CONTINUOUS
 10
-0.618657
 20
-0.531728
  0
VERTEX
  8
PLAN_1
 62
     2
  6
CONTINUOUS
 10
-0.619150
 20
-0.527283
  0
VERTEX
  8
PLAN_1
 62
     2
  6
CONTINUOUS
 10
-0.619150
 20
-0.488248
  0
VERTEX
  8
PLAN_1
 62
     2
  6
CONTINUOUS
 10
-0.609760
 20
-0.488248
  0
VERTEX
  8
PLAN_1
 62
     2
  6
CONTINUOUS
 10
-0.609760
 20
-0.524319
  0
VERTEX
  8
PLAN_1
 62
     2
  6
CONTINUOUS
 10
-0.609760
 20
-0.527776
  0
VERTEX
  8
PLAN_1
 62
     2
  6
CONTINUOUS
 10
-0.609268
 20
-0.530248
  0
VERTEX
  8
PLAN_1
 62
     2
  6
CONTINUOUS
 10
-0.608280
 20
-0.532224
  0
VERTEX
  8
PLAN_1
 62
     2
  6
CONTINUOUS
 10
-0.606795
 20
-0.533705
  0
VERTEX
  8
PLAN_1
 62
     2
  6
CONTINUOUS
 10
-0.605315
 20
-0.535189
  0
VERTEX
  8
PLAN_1
 62
     2
  6
CONTINUOUS
 10
-0.603339
 20
-0.535681
  0
VERTEX
  8
PLAN_1
 62
     2
  6
CONTINUOUS
 10
-0.601362
 20
-0.536177
  0
VERTEX
  8
PLAN_1
 62
     2
  6
CONTINUOUS
 10
-0.599386
 20
-0.536669
  0
VERTEX
  8
PLAN_1
 62
     2
  6
CONTINUOUS
 10
-0.595433
 20
-0.536177
  0
VERTEX
  8
PLAN_1
 62
     2
  6
CONTINUOUS
 10
-0.592469
 20
-0.534693
  0
VERTEX
  8
PLAN_1
 62
     2
  6
CONTINUOUS
 10
-0.589504
 20
-0.532717
  0
VERTEX
  8
PLAN_1
 62
     2
  6
CONTINUOUS
 10
-0.587528
 20
-0.530248
  0
VERTEX
  8
PLAN_1
 62
     2
  6
CONTINUOUS
 10
-0.586043
 20
-0.527776
  0
VERTEX
  8
PLAN_1
 62
     2
  6
CONTINUOUS
 10
-0.585055
 20
-0.524319
  0
VERTEX
  8
PLAN_1
 62
     2
  6
CONTINUOUS
 10
-0.584559
 20
-0.521354
  0
VERTEX
  8
PLAN_1
 62
     2
  6
CONTINUOUS
 10
-0.584559
 20
-0.518390
  0
VERTEX
  8
PLAN_1
 62
     2
  6
CONTINUOUS
 10
-0.584559
 20
-0.488248
  0
VERTEX
  8
PLAN_1
 62
     2
  6
CONTINUOUS
 10
-0.575173
 20
-0.488248
  0
VERTEX
  8
PLAN_1
 62
     2
  6
CONTINUOUS
 10
-0.575173
 20
-0.542602
  0
VERTEX
  8
PLAN_1
 62
     2
  6
CONTINUOUS
 10
-0.584067
 20
-0.542602
  0
SEQEND
  8
0
  0
POLYLINE
  8
PLAN_1
 62
     2
  6
CONTINUOUS
 66
     1
 40
0.003000
 41
0.003000
  0
VERTEX
  8
PLAN_1
 62
     2
  6
CONTINUOUS
 10
-0.521311
 20
-0.496154
  0
VERTEX
  8
PLAN_1
 62
     2
  6
CONTINUOUS
 10
-0.521311
 20
-0.531236
  0
VERTEX
  8
PLAN_1
 62
     2
  6
CONTINUOUS
 10
-0.521311
 20
-0.532717
  0
VERTEX
  8
PLAN_1
 62
     2
  6
CONTINUOUS
 10
-0.520819
 20
-0.533705
  0
VERTEX
  8
PLAN_1
 62
     2
  6
CONTINUOUS
 10
-0.520323
 20
-0.534693
  0
VERTEX
  8
PLAN_1
 62
     2
  6
CONTINUOUS
 10
-0.519335
 20
-0.535189
  0
VERTEX
  8
PLAN_1
 62
     2
  6
CONTINUOUS
 10
-0.518346
 20
-0.535189
  0
VERTEX
  8
PLAN_1
 62
     2
  6
CONTINUOUS
 10
-0.517358
 20
-0.535681
  0
VERTEX
  8
PLAN_1
 62
     2
  6
CONTINUOUS
 10
-0.516866
 20
-0.535681
  0
VERTEX
  8
PLAN_1
 62
     2
  6
CONTINUOUS
 10
-0.515878
 20
-0.535681
  0
VERTEX
  8
PLAN_1
 62
     2
  6
CONTINUOUS
 10
-0.512417
 20
-0.535681
  0
VERTEX
  8
PLAN_1
 62
     2
  6
CONTINUOUS
 10
-0.512417
 20
-0.542602
  0
VERTEX
  8
PLAN_1
 62
     2
  6
CONTINUOUS
 10
-0.513902
 20
-0.543094
  0
VERTEX
  8
PLAN_1
 62
     2
  6
CONTINUOUS
 10
-0.514890
 20
-0.543094
  0
VERTEX
  8
PLAN_1
 62
     2
  6
CONTINUOUS
 10
-0.515878
 20
-0.543094
  0
VERTEX
  8
PLAN_1
 62
     2
  6
CONTINUOUS
 10
-0.516866
 20
-0.543094
  0
VERTEX
  8
PLAN_1
 62
     2
  6
CONTINUOUS
 10
-0.517854
 20
-0.543591
  0
VERTEX
  8
PLAN_1
 62
     2
  6
CONTINUOUS
 10
-0.518346
 20
-0.543591
  0
VERTEX
  8
PLAN_1
 62
     2
  6
CONTINUOUS
 10
-0.518843
 20
-0.543591
  0
VERTEX
  8
PLAN_1
 62
     2
  6
CONTINUOUS
 10
-0.519335
 20
-0.543591
  0
VERTEX
  8
PLAN_1
 62
     2
  6
CONTINUOUS
 10
-0.522795
 20
-0.543094
  0
VERTEX
  8
PLAN_1
 62
     2
  6
CONTINUOUS
 10
-0.525264
 20
-0.542602
  0
VERTEX
  8
PLAN_1
 62
     2
  6
CONTINUOUS
 10
-0.526748
 20
-0.541614
  0
VERTEX
  8
PLAN_1
 62
     2
  6
CONTINUOUS
 10
-0.528228
 20
-0.540130
  0
VERTEX
  8
PLAN_1
 62
     2
  6
CONTINUOUS
 10
-0.529217
 20
-0.538650
  0
VERTEX
  8
PLAN_1
 62
     2
  6
CONTINUOUS
 10
-0.530205
 20
-0.536669
  0
VERTEX
  8
PLAN_1
 62
     2
  6
CONTINUOUS
 10
-0.530205
 20
-0.534201
  0
VERTEX
  8
PLAN_1
 62
     2
  6
CONTINUOUS
 10
-0.530701
 20
-0.531728
  0
VERTEX
  8
PLAN_1
 62
     2
  6
CONTINUOUS
 10
-0.530701
 20
-0.496154
  0
VERTEX
  8
PLAN_1
 62
     2
  6
CONTINUOUS
 10
-0.538114
 20
-0.496154
  0
VERTEX
  8
PLAN_1
 62
     2
  6
CONTINUOUS
 10
-0.538114
 20
-0.488248
  0
VERTEX
  8
PLAN_1
 62
     2
  6
CONTINUOUS
 10
-0.530701
 20
-0.488248
  0
VERTEX
  8
PLAN_1
 62
     2
  6
CONTINUOUS
 10
-0.530701
 20
-0.473421
  0
VERTEX
  8
PLAN_1
 62
     2
  6
CONTINUOUS
 10
-0.521311
 20
-0.473421
  0
VERTEX
  8
PLAN_1
 62
     2
  6
CONTINUOUS
 10
-0.521311
 20
-0.488248
  0
VERTEX
  8
PLAN_1
 62
     2
  6
CONTINUOUS
 10
-0.512417
 20
-0.488248
  0
VERTEX
  8
PLAN_1
 62
     2
  6
CONTINUOUS
 10
-0.512417
 20
-0.496154
  0
VERTEX
  8
PLAN_1
 62
     2
  6
CONTINUOUS
 10
-0.521311
 20
-0.496154
  0
SEQEND
  8
0
  0
POLYLINE
  8
PLAN_1
 62
     2
  6
CONTINUOUS
 66
     1
 40
0.003000
 41
0.003000
  0
VERTEX
  8
PLAN_1
 62
     2
  6
CONTINUOUS
 10
-0.504020
 20
-0.505047
  0
VERTEX
  8
PLAN_1
 62
     2
  6
CONTINUOUS
 10
-0.503524
 20
-0.500598
  0
VERTEX
  8
PLAN_1
 62
     2
  6
CONTINUOUS
 10
-0.502039
 20
-0.496646
  0
VERTEX
  8
PLAN_1
 62
     2
  6
CONTINUOUS
 10
-0.500063
 20
-0.493681
  0
VERTEX
  8
PLAN_1
 62
     2
  6
CONTINUOUS
 10
-0.497594
 20
-0.491213
  0
VERTEX
  8
PLAN_1
 62
     2
  6
CONTINUOUS
 10
-0.494630
 20
-0.489236
  0
VERTEX
  8
PLAN_1
 62
     2
  6
CONTINUOUS
 10
-0.490677
 20
-0.487752
  0
VERTEX
  8
PLAN_1
 62
     2
  6
CONTINUOUS
 10
-0.486228
 20
-0.487260
  0
VERTEX
  8
PLAN_1
 62
     2
  6
CONTINUOUS
 10
-0.481287
 20
-0.486764
  0
VERTEX
  8
PLAN_1
 62
     2
  6
CONTINUOUS
 10
-0.479311
 20
-0.486764
  0
VERTEX
  8
PLAN_1
 62
     2
  6
CONTINUOUS
 10
-0.476346
 20
-0.487260
  0
VERTEX
  8
PLAN_1
 62
     2
  6
CONTINUOUS
 10
-0.473382
 20
-0.487752
  0
VERTEX
  8
PLAN_1
 62
     2
  6
CONTINUOUS
 10
-0.469921
 20
-0.489236
  0
VERTEX
  8
PLAN_1
 62
     2
  6
CONTINUOUS
 10
-0.466465
 20
-0.491213
  0
VERTEX
  8
PLAN_1
 62
     2
  6
CONTINUOUS
 10
-0.463992
 20
-0.493681
  0
VERTEX
  8
PLAN_1
 62
     2
  6
CONTINUOUS
 10
-0.463004
 20
-0.495657
  0
VERTEX
  8
PLAN_1
 62
     2
  6
CONTINUOUS
 10
-0.462016
 20
-0.497142
  0
VERTEX
  8
PLAN_1
 62
     2
  6
CONTINUOUS
 10
-0.461524
 20
-0.499610
  0
VERTEX
  8
PLAN_1
 62
     2
  6
CONTINUOUS
 10
-0.461524
 20
-0.502083
  0
VERTEX
  8
PLAN_1
 62
     2
  6
CONTINUOUS
 10
-0.461524
 20
-0.533213
  0
VERTEX
  8
PLAN_1
 62
     2
  6
CONTINUOUS
 10
-0.461028
 20
-0.534201
  0
VERTEX
  8
PLAN_1
 62
     2
  6
CONTINUOUS
 10
-0.461028
 20
-0.534693
  0
VERTEX
  8
PLAN_1
 62
     2
  6
CONTINUOUS
 10
-0.461028
 20
-0.535189
  0
VERTEX
  8
PLAN_1
 62
     2
  6
CONTINUOUS
 10
-0.460535
 20
-0.535681
  0
VERTEX
  8
PLAN_1
 62
     2
  6
CONTINUOUS
 10
-0.460039
 20
-0.536177
  0
VERTEX
  8
PLAN_1
 62
     2
  6
CONTINUOUS
 10
-0.459547
 20
-0.536177
  0
VERTEX
  8
PLAN_1
 62
     2
  6
CONTINUOUS
 10
-0.459051
 20
-0.536669
  0
VERTEX
  8
PLAN_1
 62
     2
  6
CONTINUOUS
 10
-0.458063
 20
-0.536669
  0
VERTEX
  8
PLAN_1
 62
     2
  6
CONTINUOUS
 10
-0.457571
 20
-0.536669
  0
VERTEX
  8
PLAN_1
 62
     2
  6
CONTINUOUS
 10
-0.457075
 20
-0.536669
  0
VERTEX
  8
PLAN_1
 62
     2
  6
CONTINUOUS
 10
-0.457075
 20
-0.536177
  0
VERTEX
  8
PLAN_1
 62
     2
  6
CONTINUOUS
 10
-0.456583
 20
-0.536177
  0
VERTEX
  8
PLAN_1
 62
     2
  6
CONTINUOUS
 10
-0.456087
 20
-0.536177
  0
VERTEX
  8
PLAN_1
 62
     2
  6
CONTINUOUS
 10
-0.455594
 20
-0.536177
  0
VERTEX
  8
PLAN_1
 62
     2
  6
CONTINUOUS
 10
-0.455098
 20
-0.536177
  0
VERTEX
  8
PLAN_1
 62
     2
  6
CONTINUOUS
 10
-0.455098
 20
-0.542602
  0
VERTEX
  8
PLAN_1
 62
     2
  6
CONTINUOUS
 10
-0.456087
 20
-0.543094
  0
VERTEX
  8
PLAN_1
 62
     2
  6
CONTINUOUS
 10
-0.456583
 20
-0.543094
  0
VERTEX
  8
PLAN_1
 62
     2
  6
CONTINUOUS
 10
-0.457075
 20
-0.543094
  0
VERTEX
  8
PLAN_1
 62
     2
  6
CONTINUOUS
 10
-0.457571
 20
-0.543591
  0
VERTEX
  8
PLAN_1
 62
     2
  6
CONTINUOUS
 10
-0.458063
 20
-0.543591
  0
VERTEX
  8
PLAN_1
 62
     2
  6
CONTINUOUS
 10
-0.459051
 20
-0.543591
  0
VERTEX
  8
PLAN_1
 62
     2
  6
CONTINUOUS
 10
-0.459547
 20
-0.543591
  0
VERTEX
  8
PLAN_1
 62
     2
  6
CONTINUOUS
 10
-0.460039
 20
-0.543591
  0
VERTEX
  8
PLAN_1
 62
     2
  6
CONTINUOUS
 10
-0.463004
 20
-0.543591
  0
VERTEX
  8
PLAN_1
 62
     2
  6
CONTINUOUS
 10
-0.464980
 20
-0.543094
  0
VERTEX
  8
PLAN_1
 62
     2
  6
CONTINUOUS
 10
-0.466957
 20
-0.542106
  0
VERTEX
  8
PLAN_1
 62
     2
  6
CONTINUOUS
 10
-0.467945
 20
-0.541118
  0
VERTEX
  8
PLAN_1
 62
     2
  6
CONTINUOUS
 10
-0.468933
 20
-0.540130
  0
VERTEX
  8
PLAN_1
 62
     2
  6
CONTINUOUS
 10
-0.469429
 20
-0.538650
  0
VERTEX
  8
PLAN_1
 62
     2
  6
CONTINUOUS
 10
-0.469921
 20
-0.537165
  0
VERTEX
  8
PLAN_1
 62
     2
  6
CONTINUOUS
 10
-0.469921
 20
-0.535681
  0
VERTEX
  8
PLAN_1
 62
     2
  6
CONTINUOUS
 10
-0.471406
 20
-0.537165
  0
VERTEX
  8
PLAN_1
 62
     2
  6
CONTINUOUS
 10
-0.472886
 20
-0.538650
  0
VERTEX
  8
PLAN_1
 62
     2
  6
CONTINUOUS
 10
-0.474866
 20
-0.540130
  0
VERTEX
  8
PLAN_1
 62
     2
  6
CONTINUOUS
 10
-0.477335
 20
-0.541118
  0
VERTEX
  8
PLAN_1
 62
     2
  6
CONTINUOUS
 10
-0.479807
 20
-0.542602
  0
VERTEX
  8
PLAN_1
 62
     2
  6
CONTINUOUS
 10
-0.482772
 20
-0.543591
  0
VERTEX
  8
PLAN_1
 62
     2
  6
CONTINUOUS
 10
-0.485736
 20
-0.544083
  0
VERTEX
  8
PLAN_1
 62
     2
  6
CONTINUOUS
 10
-0.489689
 20
-0.544579
  0
VERTEX
  8
PLAN_1
 62
     2
  6
CONTINUOUS
 10
-0.493146
 20
-0.544083
  0
VERTEX
  8
PLAN_1
 62
     2
  6
CONTINUOUS
 10
-0.496606
 20
-0.543094
  0
VERTEX
  8
PLAN_1
 62
     2
  6
CONTINUOUS
 10
-0.499571
 20
-0.541614
  0
VERTEX
  8
PLAN_1
 62
     2
  6
CONTINUOUS
 10
-0.502039
 20
-0.540130
  0
VERTEX
  8
PLAN_1
 62
     2
  6
CONTINUOUS
 10
-0.504020
 20
-0.537661
  0
VERTEX
  8
PLAN_1
 62
     2
  6
CONTINUOUS
 10
-0.505500
 20
-0.535189
  0
VERTEX
  8
PLAN_1
 62
     2
  6
CONTINUOUS
 10
-0.506488
 20
-0.532224
  0
VERTEX
  8
PLAN_1
 62
     2
  6
CONTINUOUS
 10
-0.506488
 20
-0.528764
  0
VERTEX
  8
PLAN_1
 62
     2
  6
CONTINUOUS
 10
-0.506488
 20
-0.526787
  0
VERTEX
  8
PLAN_1
 62
     2
  6
CONTINUOUS
 10
-0.505996
 20
-0.524319
  0
VERTEX
  8
PLAN_1
 62
     2
  6
CONTINUOUS
 10
-0.505500
 20
-0.521846
  0
VERTEX
  8
PLAN_1
 62
     2
  6
CONTINUOUS
 10
-0.504020
 20
-0.518882
  0
VERTEX
  8
PLAN_1
 62
     2
  6
CONTINUOUS
 10
-0.502039
 20
-0.516413
  0
VERTEX
  8
PLAN_1
 62
     2
  6
CONTINUOUS
 10
-0.499075
 20
-0.514437
  0
VERTEX
  8
PLAN_1
 62
     2
  6
CONTINUOUS
 10
-0.495122
 20
-0.512461
  0
VERTEX
  8
PLAN_1
 62
     2
  6
CONTINUOUS
 10
-0.490181
 20
-0.511472
  0
VERTEX
  8
PLAN_1
 62
     2
  6
CONTINUOUS
 10
-0.474866
 20
-0.509496
  0
VERTEX
  8
PLAN_1
 62
     2
  6
CONTINUOUS
 10
-0.474370
 20
-0.509496
  0
VERTEX
  8
PLAN_1
 62
     2
  6
CONTINUOUS
 10
-0.473382
 20
-0.509496
  0
VERTEX
  8
PLAN_1
 62
     2
  6
CONTINUOUS
 10
-0.472394
 20
-0.509000
  0
VERTEX
  8
PLAN_1
 62
     2
  6
CONTINUOUS
 10
-0.471898
 20
-0.508504
  0
VERTEX
  8
PLAN_1
 62
     2
  6
CONTINUOUS
 10
-0.471406
 20
-0.507516
  0
VERTEX
  8
PLAN_1
 62
     2
  6
CONTINUOUS
 10
-0.470909
 20
-0.506528
  0
VERTEX
  8
PLAN_1
 62
     2
  6
CONTINUOUS
 10
-0.470417
 20
-0.505047
  0
VERTEX
  8
PLAN_1
 62
     2
  6
CONTINUOUS
 10
-0.470417
 20
-0.503071
  0
VERTEX
  8
PLAN_1
 62
     2
  6
CONTINUOUS
 10
-0.470417
 20
-0.501094
  0
VERTEX
  8
PLAN_1
 62
     2
  6
CONTINUOUS
 10
-0.470909
 20
-0.499610
  0
VERTEX
  8
PLAN_1
 62
     2
  6
CONTINUOUS
 10
-0.471898
 20
-0.498130
  0
VERTEX
  8
PLAN_1
 62
     2
  6
CONTINUOUS
 10
-0.473382
 20
-0.496646
  0
VERTEX
  8
PLAN_1
 62
     2
  6
CONTINUOUS
 10
-0.475358
 20
-0.495657
  0
VERTEX
  8
PLAN_1
 62
     2
  6
CONTINUOUS
 10
-0.477335
 20
-0.495165
  0
VERTEX
  8
PLAN_1
 62
     2
  6
CONTINUOUS
 10
-0.479807
 20
-0.494669
  0
VERTEX
  8
PLAN_1
 62
     2
  6
CONTINUOUS
 10
-0.483264
 20
-0.494177
  0
VERTEX
  8
PLAN_1
 62
     2
  6
CONTINUOUS
 10
-0.486724
 20
-0.494669
  0
VERTEX
  8
PLAN_1
 62
     2
  6
CONTINUOUS
 10
-0.489193
 20
-0.495657
  0
VERTEX
  8
PLAN_1
 62
     2
  6
CONTINUOUS
 10
-0.491665
 20
-0.496646
  0
VERTEX
  8
PLAN_1
 62
     2
  6
CONTINUOUS
 10
-0.493146
 20
-0.498130
  0
VERTEX
  8
PLAN_1
 62
     2
  6
CONTINUOUS
 10
-0.494134
 20
-0.499610
  0
VERTEX
  8
PLAN_1
 62
     2
  6
CONTINUOUS
 10
-0.494630
 20
-0.501587
  0
VERTEX
  8
PLAN_1
 62
     2
  6
CONTINUOUS
 10
-0.495122
 20
-0.503071
  0
VERTEX
  8
PLAN_1
 62
     2
  6
CONTINUOUS
 10
-0.495618
 20
-0.505047
  0
VERTEX
  8
PLAN_1
 62
     2
  6
CONTINUOUS
 10
-0.504020
 20
-0.505047
  0
SEQEND
  8
0
  0
POLYLINE
  8
PLAN_1
 62
     2
  6
CONTINUOUS
 66
     1
 40
0.003000
 41
0.003000
  0
VERTEX
  8
PLAN_1
 62
     2
  6
CONTINUOUS
 10
-0.470417
 20
-0.514929
  0
VERTEX
  8
PLAN_1
 62
     2
  6
CONTINUOUS
 10
-0.470909
 20
-0.515425
  0
VERTEX
  8
PLAN_1
 62
     2
  6
CONTINUOUS
 10
-0.471898
 20
-0.515917
  0
VERTEX
  8
PLAN_1
 62
     2
  6
CONTINUOUS
 10
-0.472886
 20
-0.516413
  0
VERTEX
  8
PLAN_1
 62
     2
  6
CONTINUOUS
 10
-0.474370
 20
-0.516413
  0
VERTEX
  8
PLAN_1
 62
     2
  6
CONTINUOUS
 10
-0.476346
 20
-0.516906
  0
VERTEX
  8
PLAN_1
 62
     2
  6
CONTINUOUS
 10
-0.478819
 20
-0.517402
  0
VERTEX
  8
PLAN_1
 62
     2
  6
CONTINUOUS
 10
-0.481783
 20
-0.517894
  0
VERTEX
  8
PLAN_1
 62
     2
  6
CONTINUOUS
 10
-0.485736
 20
-0.518390
  0
VERTEX
  8
PLAN_1
 62
     2
  6
CONTINUOUS
 10
-0.487217
 20
-0.518882
  0
VERTEX
  8
PLAN_1
 62
     2
  6
CONTINUOUS
 10
-0.489193
 20
-0.518882
  0
VERTEX
  8
PLAN_1
 62
     2
  6
CONTINUOUS
 10
-0.491169
 20
-0.519870
  0
VERTEX
  8
PLAN_1
 62
     2
  6
CONTINUOUS
 10
-0.493146
 20
-0.520366
  0
VERTEX
  8
PLAN_1
 62
     2
  6
CONTINUOUS
 10
-0.494630
 20
-0.521846
  0
VERTEX
  8
PLAN_1
 62
     2
  6
CONTINUOUS
 10
-0.496110
 20
-0.523331
  0
VERTEX
  8
PLAN_1
 62
     2
  6
CONTINUOUS
 10
-0.497098
 20
-0.524811
  0
VERTEX
  8
PLAN_1
 62
     2
  6
CONTINUOUS
 10
-0.497098
 20
-0.527283
  0
VERTEX
  8
PLAN_1
 62
     2
  6
CONTINUOUS
 10
-0.497098
 20
-0.529260
  0
VERTEX
  8
PLAN_1
 62
     2
  6
CONTINUOUS
 10
-0.496606
 20
-0.531236
  0
VERTEX
  8
PLAN_1
 62
     2
  6
CONTINUOUS
 10
-0.496110
 20
-0.532717
  0
VERTEX
  8
PLAN_1
 62
     2
  6
CONTINUOUS
 10
-0.494630
 20
-0.534201
  0
VERTEX
  8
PLAN_1
 62
     2
  6
CONTINUOUS
 10
-0.493642
 20
-0.535189
  0
VERTEX
  8
PLAN_1
 62
     2
  6
CONTINUOUS
 10
-0.491665
 20
-0.536177
  0
VERTEX
  8
PLAN_1
 62
     2
  6
CONTINUOUS
 10
-0.489689
 20
-0.536669
  0
VERTEX
  8
PLAN_1
 62
     2
  6
CONTINUOUS
 10
-0.487217
 20
-0.536669
  0
VERTEX
  8
PLAN_1
 62
     2
  6
CONTINUOUS
 10
-0.484252
 20
-0.536669
  0
VERTEX
  8
PLAN_1
 62
     2
  6
CONTINUOUS
 10
-0.481287
 20
-0.535681
  0
VERTEX
  8
PLAN_1
 62
     2
  6
CONTINUOUS
 10
-0.478323
 20
-0.534693
  0
VERTEX
  8
PLAN_1
 62
     2
  6
CONTINUOUS
 10
-0.475854
 20
-0.533213
  0
VERTEX
  8
PLAN_1
 62
     2
  6
CONTINUOUS
 10
-0.473382
 20
-0.531236
  0
VERTEX
  8
PLAN_1
 62
     2
  6
CONTINUOUS
 10
-0.471898
 20
-0.529260
  0
VERTEX
  8
PLAN_1
 62
     2
  6
CONTINUOUS
 10
-0.470909
 20
-0.526787
  0
VERTEX
  8
PLAN_1
 62
     2
  6
CONTINUOUS
 10
-0.470417
 20
-0.523823
  0
VERTEX
  8
PLAN_1
 62
     2
  6
CONTINUOUS
 10
-0.470417
 20
-0.514929
  0
SEQEND
  8
0
  0
POLYLINE
  8
PLAN_1
 62
     2
  6
CONTINUOUS
 66
     1
 40
0.003000
 41
0.003000
  0
VERTEX
  8
PLAN_1
 62
     2
  6
CONTINUOUS
 10
-0.435335
 20
-0.542602
  0
VERTEX
  8
PLAN_1
 62
     2
  6
CONTINUOUS
 10
-0.444720
 20
-0.542602
  0
VERTEX
  8
PLAN_1
 62
     2
  6
CONTINUOUS
 10
-0.444720
 20
-0.488248
  0
VERTEX
  8
PLAN_1
 62
     2
  6
CONTINUOUS
 10
-0.435827
 20
-0.488248
  0
VERTEX
  8
PLAN_1
 62
     2
  6
CONTINUOUS
 10
-0.435827
 20
-0.497634
  0
VERTEX
  8
PLAN_1
 62
     2
  6
CONTINUOUS
 10
-0.434346
 20
-0.495165
  0
VERTEX
  8
PLAN_1
 62
     2
  6
CONTINUOUS
 10
-0.432862
 20
-0.493189
  0
VERTEX
  8
PLAN_1
 62
     2
  6
CONTINUOUS
 10
-0.430886
 20
-0.491213
  0
VERTEX
  8
PLAN_1
 62
     2
  6
CONTINUOUS
 10
-0.429406
 20
-0.489728
  0
VERTEX
  8
PLAN_1
 62
     2
  6
CONTINUOUS
 10
-0.427429
 20
-0.488740
  0
VERTEX
  8
PLAN_1
 62
     2
  6
CONTINUOUS
 10
-0.424957
 20
-0.487752
  0
VERTEX
  8
PLAN_1
 62
     2
  6
CONTINUOUS
 10
-0.422980
 20
-0.487260
  0
VERTEX
  8
PLAN_1
 62
     2
  6
CONTINUOUS
 10
-0.420512
 20
-0.486764
  0
VERTEX
  8
PLAN_1
 62
     2
  6
CONTINUOUS
 10
-0.420016
 20
-0.486764
  0
VERTEX
  8
PLAN_1
 62
     2
  6
CONTINUOUS
 10
-0.419524
 20
-0.486764
  0
VERTEX
  8
PLAN_1
 62
     2
  6
CONTINUOUS
 10
-0.419028
 20
-0.486764
  0
VERTEX
  8
PLAN_1
 62
     2
  6
CONTINUOUS
 10
-0.418531
 20
-0.486764
  0
VERTEX
  8
PLAN_1
 62
     2
  6
CONTINUOUS
 10
-0.418039
 20
-0.487260
  0
VERTEX
  8
PLAN_1
 62
     2
  6
CONTINUOUS
 10
-0.418039
 20
-0.496646
  0
VERTEX
  8
PLAN_1
 62
     2
  6
CONTINUOUS
 10
-0.421500
 20
-0.496646
  0
VERTEX
  8
PLAN_1
 62
     2
  6
CONTINUOUS
 10
-0.424465
 20
-0.497142
  0
VERTEX
  8
PLAN_1
 62
     2
  6
CONTINUOUS
 10
-0.427429
 20
-0.497634
  0
VERTEX
  8
PLAN_1
 62
     2
  6
CONTINUOUS
 10
-0.429406
 20
-0.499118
  0
VERTEX
  8
PLAN_1
 62
     2
  6
CONTINUOUS
 10
-0.431382
 20
-0.501094
  0
VERTEX
  8
PLAN_1
 62
     2
  6
CONTINUOUS
 10
-0.433358
 20
-0.503071
  0
VERTEX
  8
PLAN_1
 62
     2
  6
CONTINUOUS
 10
-0.434346
 20
-0.505539
  0
VERTEX
  8
PLAN_1
 62
     2
  6
CONTINUOUS
 10
-0.435335
 20
-0.508504
  0
VERTEX
  8
PLAN_1
 62
     2
  6
CONTINUOUS
 10
-0.435335
 20
-0.510976
  0
VERTEX
  8
PLAN_1
 62
     2
  6
CONTINUOUS
 10
-0.435335
 20
-0.542602
  0
SEQEND
  8
0
  0
POLYLINE
  8
PLAN_1
 62
     2
  6
CONTINUOUS
 66
     1
 40
0.003000
 41
0.003000
  0
VERTEX
  8
PLAN_1
 62
     2
  6
CONTINUOUS
 10
-0.412602
 20
-0.505047
  0
VERTEX
  8
PLAN_1
 62
     2
  6
CONTINUOUS
 10
-0.412110
 20
-0.500598
  0
VERTEX
  8
PLAN_1
 62
     2
  6
CONTINUOUS
 10
-0.410626
 20
-0.496646
  0
VERTEX
  8
PLAN_1
 62
     2
  6
CONTINUOUS
 10
-0.408650
 20
-0.493681
  0
VERTEX
  8
PLAN_1
 62
     2
  6
CONTINUOUS
 10
-0.406181
 20
-0.491213
  0
VERTEX
  8
PLAN_1
 62
     2
  6
CONTINUOUS
 10
-0.402720
 20
-0.489236
  0
VERTEX
  8
PLAN_1
 62
     2
  6
CONTINUOUS
 10
-0.399264
 20
-0.487752
  0
VERTEX
  8
PLAN_1
 62
     2
  6
CONTINUOUS
 10
-0.394815
 20
-0.487260
  0
VERTEX
  8
PLAN_1
 62
     2
  6
CONTINUOUS
 10
-0.389874
 20
-0.486764
  0
VERTEX
  8
PLAN_1
 62
     2
  6
CONTINUOUS
 10
-0.387898
 20
-0.486764
  0
VERTEX
  8
PLAN_1
 62
     2
  6
CONTINUOUS
 10
-0.384933
 20
-0.487260
  0
VERTEX
  8
PLAN_1
 62
     2
  6
CONTINUOUS
 10
-0.381472
 20
-0.487752
  0
VERTEX
  8
PLAN_1
 62
     2
  6
CONTINUOUS
 10
-0.378016
 20
-0.489236
  0
VERTEX
  8
PLAN_1
 62
     2
  6
CONTINUOUS
 10
-0.375051
 20
-0.491213
  0
VERTEX
  8
PLAN_1
 62
     2
  6
CONTINUOUS
 10
-0.372579
 20
-0.493681
  0
VERTEX
  8
PLAN_1
 62
     2
  6
CONTINUOUS
 10
-0.371098
 20
-0.495657
  0
VERTEX
  8
PLAN_1
 62
     2
  6
CONTINUOUS
 10
-0.370602
 20
-0.497142
  0
VERTEX
  8
PLAN_1
 62
     2
  6
CONTINUOUS
 10
-0.370110
 20
-0.499610
  0
VERTEX
  8
PLAN_1
 62
     2
  6
CONTINUOUS
 10
-0.369614
 20
-0.502083
  0
VERTEX
  8
PLAN_1
 62
     2
  6
CONTINUOUS
 10
-0.369614
 20
-0.533213
  0
VERTEX
  8
PLAN_1
 62
     2
  6
CONTINUOUS
 10
-0.369614
 20
-0.534201
  0
VERTEX
  8
PLAN_1
 62
     2
  6
CONTINUOUS
 10
-0.369614
 20
-0.534693
  0
VERTEX
  8
PLAN_1
 62
     2
  6
CONTINUOUS
 10
-0.369122
 20
-0.535189
  0
VERTEX
  8
PLAN_1
 62
     2
  6
CONTINUOUS
 10
-0.369122
 20
-0.535681
  0
VERTEX
  8
PLAN_1
 62
     2
  6
CONTINUOUS
 10
-0.368626
 20
-0.536177
  0
VERTEX
  8
PLAN_1
 62
     2
  6
CONTINUOUS
 10
-0.368134
 20
-0.536177
  0
VERTEX
  8
PLAN_1
 62
     2
  6
CONTINUOUS
 10
-0.367638
 20
-0.536669
  0
VERTEX
  8
PLAN_1
 62
     2
  6
CONTINUOUS
 10
-0.366650
 20
-0.536669
  0
VERTEX
  8
PLAN_1
 62
     2
  6
CONTINUOUS
 10
-0.366157
 20
-0.536669
  0
VERTEX
  8
PLAN_1
 62
     2
  6
CONTINUOUS
 10
-0.365661
 20
-0.536669
  0
VERTEX
  8
PLAN_1
 62
     2
  6
CONTINUOUS
 10
-0.365169
 20
-0.536177
  0
VERTEX
  8
PLAN_1
 62
     2
  6
CONTINUOUS
 10
-0.364673
 20
-0.536177
  0
VERTEX
  8
PLAN_1
 62
     2
  6
CONTINUOUS
 10
-0.364181
 20
-0.536177
  0
VERTEX
  8
PLAN_1
 62
     2
  6
CONTINUOUS
 10
-0.363685
 20
-0.536177
  0
VERTEX
  8
PLAN_1
 62
     2
  6
CONTINUOUS
 10
-0.363685
 20
-0.542602
  0
VERTEX
  8
PLAN_1
 62
     2
  6
CONTINUOUS
 10
-0.364181
 20
-0.543094
  0
VERTEX
  8
PLAN_1
 62
     2
  6
CONTINUOUS
 10
-0.365169
 20
-0.543094
  0
VERTEX
  8
PLAN_1
 62
     2
  6
CONTINUOUS
 10
-0.365661
 20
-0.543094
  0
VERTEX
  8
PLAN_1
 62
     2
  6
CONTINUOUS
 10
-0.366157
 20
-0.543591
  0
VERTEX
  8
PLAN_1
 62
     2
  6
CONTINUOUS
 10
-0.366650
 20
-0.543591
  0
VERTEX
  8
PLAN_1
 62
     2
  6
CONTINUOUS
 10
-0.367146
 20
-0.543591
  0
VERTEX
  8
PLAN_1
 62
     2
  6
CONTINUOUS
 10
-0.368134
 20
-0.543591
  0
VERTEX
  8
PLAN_1
 62
     2
  6
CONTINUOUS
 10
-0.368626
 20
-0.543591
  0
VERTEX
  8
PLAN_1
 62
     2
  6
CONTINUOUS
 10
-0.371591
 20
-0.543591
  0
VERTEX
  8
PLAN_1
 62
     2
  6
CONTINUOUS
 10
-0.373567
 20
-0.543094
  0
VERTEX
  8
PLAN_1
 62
     2
  6
CONTINUOUS
 10
-0.375543
 20
-0.542106
  0
VERTEX
  8
PLAN_1
 62
     2
  6
CONTINUOUS
 10
-0.376531
 20
-0.541118
  0
VERTEX
  8
PLAN_1
 62
     2
  6
CONTINUOUS
 10
-0.377520
 20
-0.540130
  0
VERTEX
  8
PLAN_1
 62
     2
  6
CONTINUOUS
 10
-0.378016
 20
-0.538650
  0
VERTEX
  8
PLAN_1
 62
     2
  6
CONTINUOUS
 10
-0.378508
 20
-0.537165
  0
VERTEX
  8
PLAN_1
 62
     2
  6
CONTINUOUS
 10
-0.378508
 20
-0.535681
  0
VERTEX
  8
PLAN_1
 62
     2
  6
CONTINUOUS
 10
-0.379992
 20
-0.537165
  0
VERTEX
  8
PLAN_1
 62
     2
  6
CONTINUOUS
 10
-0.381472
 20
-0.538650
  0
VERTEX
  8
PLAN_1
 62
     2
  6
CONTINUOUS
 10
-0.383449
 20
-0.540130
  0
VERTEX
  8
PLAN_1
 62
     2
  6
CONTINUOUS
 10
-0.385425
 20
-0.541118
  0
VERTEX
  8
PLAN_1
 62
     2
  6
CONTINUOUS
 10
-0.388390
 20
-0.542602
  0
VERTEX
  8
PLAN_1
 62
     2
  6
CONTINUOUS
 10
-0.390862
 20
-0.543591
  0
VERTEX
  8
PLAN_1
 62
     2
  6
CONTINUOUS
 10
-0.394323
 20
-0.544083
  0
VERTEX
  8
PLAN_1
 62
     2
  6
CONTINUOUS
 10
-0.398276
 20
-0.544579
  0
VERTEX
  8
PLAN_1
 62
     2
  6
CONTINUOUS
 10
-0.401732
 20
-0.544083
  0
VERTEX
  8
PLAN_1
 62
     2
  6
CONTINUOUS
 10
-0.405193
 20
-0.543094
  0
VERTEX
  8
PLAN_1
 62
     2
  6
CONTINUOUS
 10
-0.407661
 20
-0.541614
  0
VERTEX
  8
PLAN_1
 62
     2
  6
CONTINUOUS
 10
-0.410134
 20
-0.540130
  0
VERTEX
  8
PLAN_1
 62
     2
  6
CONTINUOUS
 10
-0.412602
 20
-0.537661
  0
VERTEX
  8
PLAN_1
 62
     2
  6
CONTINUOUS
 10
-0.414087
 20
-0.535189
  0
VERTEX
  8
PLAN_1
 62
     2
  6
CONTINUOUS
 10
-0.415075
 20
-0.532224
  0
VERTEX
  8
PLAN_1
 62
     2
  6
CONTINUOUS
 10
-0.415075
 20
-0.528764
  0
VERTEX
  8
PLAN_1
 62
     2
  6
CONTINUOUS
 10
-0.415075
 20
-0.526787
  0
VERTEX
  8
PLAN_1
 62
     2
  6
CONTINUOUS
 10
-0.414579
 20
-0.524319
  0
VERTEX
  8
PLAN_1
 62
     2
  6
CONTINUOUS
 10
-0.414087
 20
-0.521846
  0
VERTEX
  8
PLAN_1
 62
     2
  6
CONTINUOUS
 10
-0.412602
 20
-0.518882
  0
VERTEX
  8
PLAN_1
 62
     2
  6
CONTINUOUS
 10
-0.410626
 20
-0.516413
  0
VERTEX
  8
PLAN_1
 62
     2
  6
CONTINUOUS
 10
-0.407661
 20
-0.514437
  0
VERTEX
  8
PLAN_1
 62
     2
  6
CONTINUOUS
 10
-0.403709
 20
-0.512461
  0
VERTEX
  8
PLAN_1
 62
     2
  6
CONTINUOUS
 10
-0.398768
 20
-0.511472
  0
VERTEX
  8
PLAN_1
 62
     2
  6
CONTINUOUS
 10
-0.383449
 20
-0.509496
  0
VERTEX
  8
PLAN_1
 62
     2
  6
CONTINUOUS
 10
-0.382957
 20
-0.509496
  0
VERTEX
  8
PLAN_1
 62
     2
  6
CONTINUOUS
 10
-0.381969
 20
-0.509496
  0
VERTEX
  8
PLAN_1
 62
     2
  6
CONTINUOUS
 10
-0.380980
 20
-0.509000
  0
VERTEX
  8
PLAN_1
 62
     2
  6
CONTINUOUS
 10
-0.380484
 20
-0.508504
  0
VERTEX
  8
PLAN_1
 62
     2
  6
CONTINUOUS
 10
-0.379496
 20
-0.507516
  0
VERTEX
  8
PLAN_1
 62
     2
  6
CONTINUOUS
 10
-0.379004
 20
-0.506528
  0
VERTEX
  8
PLAN_1
 62
     2
  6
CONTINUOUS
 10
-0.379004
 20
-0.505047
  0
VERTEX
  8
PLAN_1
 62
     2
  6
CONTINUOUS
 10
-0.378508
 20
-0.503071
  0
VERTEX
  8
PLAN_1
 62
     2
  6
CONTINUOUS
 10
-0.379004
 20
-0.501094
  0
VERTEX
  8
PLAN_1
 62
     2
  6
CONTINUOUS
 10
-0.379496
 20
-0.499610
  0
VERTEX
  8
PLAN_1
 62
     2
  6
CONTINUOUS
 10
-0.380484
 20
-0.498130
  0
VERTEX
  8
PLAN_1
 62
     2
  6
CONTINUOUS
 10
-0.381969
 20
-0.496646
  0
VERTEX
  8
PLAN_1
 62
     2
  6
CONTINUOUS
 10
-0.383945
 20
-0.495657
  0
VERTEX
  8
PLAN_1
 62
     2
  6
CONTINUOUS
 10
-0.385921
 20
-0.495165
  0
VERTEX
  8
PLAN_1
 62
     2
  6
CONTINUOUS
 10
-0.388390
 20
-0.494669
  0
VERTEX
  8
PLAN_1
 62
     2
  6
CONTINUOUS
 10
-0.391358
 20
-0.494177
  0
VERTEX
  8
PLAN_1
 62
     2
  6
CONTINUOUS
 10
-0.394815
 20
-0.494669
  0
VERTEX
  8
PLAN_1
 62
     2
  6
CONTINUOUS
 10
-0.397780
 20
-0.495657
  0
VERTEX
  8
PLAN_1
 62
     2
  6
CONTINUOUS
 10
-0.399756
 20
-0.496646
  0
VERTEX
  8
PLAN_1
 62
     2
  6
CONTINUOUS
 10
-0.401240
 20
-0.498130
  0
VERTEX
  8
PLAN_1
 62
     2
  6
CONTINUOUS
 10
-0.402720
 20
-0.499610
  0
VERTEX
  8
PLAN_1
 62
     2
  6
CONTINUOUS
 10
-0.403217
 20
-0.501587
  0
VERTEX
  8
PLAN_1
 62
     2
  6
CONTINUOUS
 10
-0.403709
 20
-0.503071
  0
VERTEX
  8
PLAN_1
 62
     2
  6
CONTINUOUS
 10
-0.404205
 20
-0.505047
  0
VERTEX
  8
PLAN_1
 62
     2
  6
CONTINUOUS
 10
-0.412602
 20
-0.505047
  0
SEQEND
  8
0
  0
POLYLINE
  8
PLAN_1
 62
     2
  6
CONTINUOUS
 66
     1
 40
0.003000
 41
0.003000
  0
VERTEX
  8
PLAN_1
 62
     2
  6
CONTINUOUS
 10
-0.379004
 20
-0.514929
  0
VERTEX
  8
PLAN_1
 62
     2
  6
CONTINUOUS
 10
-0.379496
 20
-0.515425
  0
VERTEX
  8
PLAN_1
 62
     2
  6
CONTINUOUS
 10
-0.380484
 20
-0.515917
  0
VERTEX
  8
PLAN_1
 62
     2
  6
CONTINUOUS
 10
-0.381472
 20
-0.516413
  0
VERTEX
  8
PLAN_1
 62
     2
  6
CONTINUOUS
 10
-0.382957
 20
-0.516413
  0
VERTEX
  8
PLAN_1
 62
     2
  6
CONTINUOUS
 10
-0.384437
 20
-0.516906
  0
VERTEX
  8
PLAN_1
 62
     2
  6
CONTINUOUS
 10
-0.386909
 20
-0.517402
  0
VERTEX
  8
PLAN_1
 62
     2
  6
CONTINUOUS
 10
-0.390366
 20
-0.517894
  0
VERTEX
  8
PLAN_1
 62
     2
  6
CONTINUOUS
 10
-0.393827
 20
-0.518390
  0
VERTEX
  8
PLAN_1
 62
     2
  6
CONTINUOUS
 10
-0.395803
 20
-0.518882
  0
VERTEX
  8
PLAN_1
 62
     2
  6
CONTINUOUS
 10
-0.397780
 20
-0.518882
  0
VERTEX
  8
PLAN_1
 62
     2
  6
CONTINUOUS
 10
-0.399756
 20
-0.519870
  0
VERTEX
  8
PLAN_1
 62
     2
  6
CONTINUOUS
 10
-0.401732
 20
-0.520366
  0
VERTEX
  8
PLAN_1
 62
     2
  6
CONTINUOUS
 10
-0.403217
 20
-0.521846
  0
VERTEX
  8
PLAN_1
 62
     2
  6
CONTINUOUS
 10
-0.404697
 20
-0.523331
  0
VERTEX
  8
PLAN_1
 62
     2
  6
CONTINUOUS
 10
-0.405193
 20
-0.524811
  0
VERTEX
  8
PLAN_1
 62
     2
  6
CONTINUOUS
 10
-0.405685
 20
-0.527283
  0
VERTEX
  8
PLAN_1
 62
     2
  6
CONTINUOUS
 10
-0.405685
 20
-0.529260
  0
VERTEX
  8
PLAN_1
 62
     2
  6
CONTINUOUS
 10
-0.405193
 20
-0.531236
  0
VERTEX
  8
PLAN_1
 62
     2
  6
CONTINUOUS
 10
-0.404205
 20
-0.532717
  0
VERTEX
  8
PLAN_1
 62
     2
  6
CONTINUOUS
 10
-0.403217
 20
-0.534201
  0
VERTEX
  8
PLAN_1
 62
     2
  6
CONTINUOUS
 10
-0.401732
 20
-0.535189
  0
VERTEX
  8
PLAN_1
 62
     2
  6
CONTINUOUS
 10
-0.400252
 20
-0.536177
  0
VERTEX
  8
PLAN_1
 62
     2
  6
CONTINUOUS
 10
-0.398276
 20
-0.536669
  0
VERTEX
  8
PLAN_1
 62
     2
  6
CONTINUOUS
 10
-0.395803
 20
-0.536669
  0
VERTEX
  8
PLAN_1
 62
     2
  6
CONTINUOUS
 10
-0.392839
 20
-0.536669
  0
VERTEX
  8
PLAN_1
 62
     2
  6
CONTINUOUS
 10
-0.389378
 20
-0.535681
  0
VERTEX
  8
PLAN_1
 62
     2
  6
CONTINUOUS
 10
-0.386909
 20
-0.534693
  0
VERTEX
  8
PLAN_1
 62
     2
  6
CONTINUOUS
 10
-0.383945
 20
-0.533213
  0
VERTEX
  8
PLAN_1
 62
     2
  6
CONTINUOUS
 10
-0.381969
 20
-0.531236
  0
VERTEX
  8
PLAN_1
 62
     2
  6
CONTINUOUS
 10
-0.380484
 20
-0.529260
  0
VERTEX
  8
PLAN_1
 62
     2
  6
CONTINUOUS
 10
-0.379496
 20
-0.526787
  0
VERTEX
  8
PLAN_1
 62
     2
  6
CONTINUOUS
 10
-0.379004
 20
-0.523823
  0
VERTEX
  8
PLAN_1
 62
     2
  6
CONTINUOUS
 10
-0.379004
 20
-0.514929
  0
SEQEND
  8
0
  0
POLYLINE
  8
PLAN_1
 62
     2
  6
CONTINUOUS
 66
     1
 40
0.003000
 41
0.003000
  0
VERTEX
  8
PLAN_1
 62
     2
  6
CONTINUOUS
 10
-0.318720
 20
-0.542602
  0
VERTEX
  8
PLAN_1
 62
     2
  6
CONTINUOUS
 10
-0.318720
 20
-0.534693
  0
VERTEX
  8
PLAN_1
 62
     2
  6
CONTINUOUS
 10
-0.319213
 20
-0.534693
  0
VERTEX
  8
PLAN_1
 62
     2
  6
CONTINUOUS
 10
-0.320697
 20
-0.536669
  0
VERTEX
  8
PLAN_1
 62
     2
  6
CONTINUOUS
 10
-0.322177
 20
-0.538650
  0
VERTEX
  8
PLAN_1
 62
     2
  6
CONTINUOUS
 10
-0.323661
 20
-0.540626
  0
VERTEX
  8
PLAN_1
 62
     2
  6
CONTINUOUS
 10
-0.325638
 20
-0.542106
  0
VERTEX
  8
PLAN_1
 62
     2
  6
CONTINUOUS
 10
-0.328106
 20
-0.543094
  0
VERTEX
  8
PLAN_1
 62
     2
  6
CONTINUOUS
 10
-0.330579
 20
-0.543591
  0
VERTEX
  8
PLAN_1
 62
     2
  6
CONTINUOUS
 10
-0.333047
 20
-0.544083
  0
VERTEX
  8
PLAN_1
 62
     2
  6
CONTINUOUS
 10
-0.336016
 20
-0.544579
  0
VERTEX
  8
PLAN_1
 62
     2
  6
CONTINUOUS
 10
-0.339472
 20
-0.544083
  0
VERTEX
  8
PLAN_1
 62
     2
  6
CONTINUOUS
 10
-0.342437
 20
-0.543591
  0
VERTEX
  8
PLAN_1
 62
     2
  6
CONTINUOUS
 10
-0.345402
 20
-0.542602
  0
VERTEX
  8
PLAN_1
 62
     2
  6
CONTINUOUS
 10
-0.347874
 20
-0.540626
  0
VERTEX
  8
PLAN_1
 62
     2
  6
CONTINUOUS
 10
-0.350343
 20
-0.538650
  0
VERTEX
  8
PLAN_1
 62
     2
  6
CONTINUOUS
 10
-0.352319
 20
-0.535681
  0
VERTEX
  8
PLAN_1
 62
     2
  6
CONTINUOUS
 10
-0.353307
 20
-0.531728
  0
VERTEX
  8
PLAN_1
 62
     2
  6
CONTINUOUS
 10
-0.353803
 20
-0.527283
  0
VERTEX
  8
PLAN_1
 62
     2
  6
CONTINUOUS
 10
-0.353803
 20
-0.488248
  0
VERTEX
  8
PLAN_1
 62
     2
  6
CONTINUOUS
 10
-0.344909
 20
-0.488248
  0
VERTEX
  8
PLAN_1
 62
     2
  6
CONTINUOUS
 10
-0.344909
 20
-0.524319
  0
VERTEX
  8
PLAN_1
 62
     2
  6
CONTINUOUS
 10
-0.344413
 20
-0.527776
  0
VERTEX
  8
PLAN_1
 62
     2
  6
CONTINUOUS
 10
-0.343921
 20
-0.530248
  0
VERTEX
  8
PLAN_1
 62
     2
  6
CONTINUOUS
 10
-0.342933
 20
-0.532224
  0
VERTEX
  8
PLAN_1
 62
     2
  6
CONTINUOUS
 10
-0.341945
 20
-0.533705
  0
VERTEX
  8
PLAN_1
 62
     2
  6
CONTINUOUS
 10
-0.340461
 20
-0.535189
  0
VERTEX
  8
PLAN_1
 62
     2
  6
CONTINUOUS
 10
-0.338484
 20
-0.535681
  0
VERTEX
  8
PLAN_1
 62
     2
  6
CONTINUOUS
 10
-0.336508
 20
-0.536177
  0
VERTEX
  8
PLAN_1
 62
     2
  6
CONTINUOUS
 10
-0.334035
 20
-0.536669
  0
VERTEX
  8
PLAN_1
 62
     2
  6
CONTINUOUS
 10
-0.330083
 20
-0.536177
  0
VERTEX
  8
PLAN_1
 62
     2
  6
CONTINUOUS
 10
-0.327118
 20
-0.534693
  0
VERTEX
  8
PLAN_1
 62
     2
  6
CONTINUOUS
 10
-0.324650
 20
-0.532717
  0
VERTEX
  8
PLAN_1
 62
     2
  6
CONTINUOUS
 10
-0.322673
 20
-0.530248
  0
VERTEX
  8
PLAN_1
 62
     2
  6
CONTINUOUS
 10
-0.321189
 20
-0.527776
  0
VERTEX
  8
PLAN_1
 62
     2
  6
CONTINUOUS
 10
-0.320201
 20
-0.524319
  0
VERTEX
  8
PLAN_1
 62
     2
  6
CONTINUOUS
 10
-0.319709
 20
-0.521354
  0
VERTEX
  8
PLAN_1
 62
     2
  6
CONTINUOUS
 10
-0.319213
 20
-0.518390
  0
VERTEX
  8
PLAN_1
 62
     2
  6
CONTINUOUS
 10
-0.319213
 20
-0.488248
  0
VERTEX
  8
PLAN_1
 62
     2
  6
CONTINUOUS
 10
-0.310319
 20
-0.488248
  0
VERTEX
  8
PLAN_1
 62
     2
  6
CONTINUOUS
 10
-0.310319
 20
-0.542602
  0
VERTEX
  8
PLAN_1
 62
     2
  6
CONTINUOUS
 10
-0.318720
 20
-0.542602
  0
SEQEND
  8
0
  0
POLYLINE
  8
PLAN_1
 62
     2
  6
CONTINUOUS
 66
     1
 40
0.003000
 41
0.003000
  0
VERTEX
  8
PLAN_1
 62
     2
  6
CONTINUOUS
 10
-0.251024
 20
-0.542602
  0
VERTEX
  8
PLAN_1
 62
     2
  6
CONTINUOUS
 10
-0.259917
 20
-0.542602
  0
VERTEX
  8
PLAN_1
 62
     2
  6
CONTINUOUS
 10
-0.259917
 20
-0.535189
  0
VERTEX
  8
PLAN_1
 62
     2
  6
CONTINUOUS
 10
-0.261894
 20
-0.537661
  0
VERTEX
  8
PLAN_1
 62
     2
  6
CONTINUOUS
 10
-0.263378
 20
-0.539638
  0
VERTEX
  8
PLAN_1
 62
     2
  6
CONTINUOUS
 10
-0.265354
 20
-0.541614
  0
VERTEX
  8
PLAN_1
 62
     2
  6
CONTINUOUS
 10
-0.267331
 20
-0.542602
  0
VERTEX
  8
PLAN_1
 62
     2
  6
CONTINUOUS
 10
-0.269307
 20
-0.543591
  0
VERTEX
  8
PLAN_1
 62
     2
  6
CONTINUOUS
 10
-0.271283
 20
-0.544083
  0
VERTEX
  8
PLAN_1
 62
     2
  6
CONTINUOUS
 10
-0.273752
 20
-0.544083
  0
VERTEX
  8
PLAN_1
 62
     2
  6
CONTINUOUS
 10
-0.275728
 20
-0.544579
  0
VERTEX
  8
PLAN_1
 62
     2
  6
CONTINUOUS
 10
-0.278693
 20
-0.544083
  0
VERTEX
  8
PLAN_1
 62
     2
  6
CONTINUOUS
 10
-0.282154
 20
-0.543591
  0
VERTEX
  8
PLAN_1
 62
     2
  6
CONTINUOUS
 10
-0.284626
 20
-0.542602
  0
VERTEX
  8
PLAN_1
 62
     2
  6
CONTINUOUS
 10
-0.287094
 20
-0.541614
  0
VERTEX
  8
PLAN_1
 62
     2
  6
CONTINUOUS
 10
-0.289567
 20
-0.540130
  0
VERTEX
  8
PLAN_1
 62
     2
  6
CONTINUOUS
 10
-0.291047
 20
-0.538154
  0
VERTEX
  8
PLAN_1
 62
     2
  6
CONTINUOUS
 10
-0.293024
 20
-0.536177
  0
VERTEX
  8
PLAN_1
 62
     2
  6
CONTINUOUS
 10
-0.294508
 20
-0.534201
  0
VERTEX
  8
PLAN_1
 62
     2
  6
CONTINUOUS
 10
-0.296976
 20
-0.529260
  0
VERTEX
  8
PLAN_1
 62
     2
  6
CONTINUOUS
 10
-0.298461
 20
-0.524319
  0
VERTEX
  8
PLAN_1
 62
     2
  6
CONTINUOUS
 10
-0.299449
 20
-0.518882
  0
VERTEX
  8
PLAN_1
 62
     2
  6
CONTINUOUS
 10
-0.299449
 20
-0.513941
  0
VERTEX
  8
PLAN_1
 62
     2
  6
CONTINUOUS
 10
-0.298953
 20
-0.508504
  0
VERTEX
  8
PLAN_1
 62
     2
  6
CONTINUOUS
 10
-0.297965
 20
-0.503071
  0
VERTEX
  8
PLAN_1
 62
     2
  6
CONTINUOUS
 10
-0.295988
 20
-0.498622
  0
VERTEX
  8
PLAN_1
 62
     2
  6
CONTINUOUS
 10
-0.293520
 20
-0.494669
  0
VERTEX
  8
PLAN_1
 62
     2
  6
CONTINUOUS
 10
-0.292035
 20
-0.492693
  0
VERTEX
  8
PLAN_1
 62
     2
  6
CONTINUOUS
 10
-0.290555
 20
-0.491213
  0
VERTEX
  8
PLAN_1
 62
     2
  6
CONTINUOUS
 10
-0.288579
 20
-0.490224
  0
VERTEX
  8
PLAN_1
 62
     2
  6
CONTINUOUS
 10
-0.286602
 20
-0.488740
  0
VERTEX
  8
PLAN_1
 62
     2
  6
CONTINUOUS
 10
-0.284130
 20
-0.488248
  0
VERTEX
  8
PLAN_1
 62
     2
  6
CONTINUOUS
 10
-0.282154
 20
-0.487260
  0
VERTEX
  8
PLAN_1
 62
     2
  6
CONTINUOUS
 10
-0.279685
 20
-0.486764
  0
VERTEX
  8
PLAN_1
 62
     2
  6
CONTINUOUS
 10
-0.276717
 20
-0.486764
  0
VERTEX
  8
PLAN_1
 62
     2
  6
CONTINUOUS
 10
-0.273260
 20
-0.487260
  0
VERTEX
  8
PLAN_1
 62
     2
  6
CONTINUOUS
 10
-0.270295
 20
-0.487752
  0
VERTEX
  8
PLAN_1
 62
     2
  6
CONTINUOUS
 10
-0.267823
 20
-0.488740
  0
VERTEX
  8
PLAN_1
 62
     2
  6
CONTINUOUS
 10
-0.265846
 20
-0.490224
  0
VERTEX
  8
PLAN_1
 62
     2
  6
CONTINUOUS
 10
-0.263870
 20
-0.491705
  0
VERTEX
  8
PLAN_1
 62
     2
  6
CONTINUOUS
 10
-0.262882
 20
-0.493189
  0
VERTEX
  8
PLAN_1
 62
     2
  6
CONTINUOUS
 10
-0.261402
 20
-0.494669
  0
VERTEX
  8
PLAN_1
 62
     2
  6
CONTINUOUS
 10
-0.260413
 20
-0.496154
  0
VERTEX
  8
PLAN_1
 62
     2
  6
CONTINUOUS
 10
-0.260413
 20
-0.495165
  0
VERTEX
  8
PLAN_1
 62
     2
  6
CONTINUOUS
 10
-0.260413
 20
-0.467988
  0
VERTEX
  8
PLAN_1
 62
     2
  6
CONTINUOUS
 10
-0.251024
 20
-0.467988
  0
VERTEX
  8
PLAN_1
 62
     2
  6
CONTINUOUS
 10
-0.251024
 20
-0.542602
  0
SEQEND
  8
0
  0
POLYLINE
  8
PLAN_1
 62
     2
  6
CONTINUOUS
 66
     1
 40
0.003000
 41
0.003000
  0
VERTEX
  8
PLAN_1
 62
     2
  6
CONTINUOUS
 10
-0.275236
 20
-0.536669
  0
VERTEX
  8
PLAN_1
 62
     2
  6
CONTINUOUS
 10
-0.273260
 20
-0.536177
  0
VERTEX
  8
PLAN_1
 62
     2
  6
CONTINUOUS
 10
-0.270787
 20
-0.535681
  0
VERTEX
  8
PLAN_1
 62
     2
  6
CONTINUOUS
 10
-0.268319
 20
-0.534693
  0
VERTEX
  8
PLAN_1
 62
     2
  6
CONTINUOUS
 10
-0.265846
 20
-0.532717
  0
VERTEX
  8
PLAN_1
 62
     2
  6
CONTINUOUS
 10
-0.263870
 20
-0.530248
  0
VERTEX
  8
PLAN_1
 62
     2
  6
CONTINUOUS
 10
-0.261894
 20
-0.527283
  0
VERTEX
  8
PLAN_1
 62
     2
  6
CONTINUOUS
 10
-0.260906
 20
-0.522835
  0
VERTEX
  8
PLAN_1
 62
     2
  6
CONTINUOUS
 10
-0.260413
 20
-0.517894
  0
VERTEX
  8
PLAN_1
 62
     2
  6
CONTINUOUS
 10
-0.260413
 20
-0.514437
  0
VERTEX
  8
PLAN_1
 62
     2
  6
CONTINUOUS
 10
-0.260906
 20
-0.510976
  0
VERTEX
  8
PLAN_1
 62
     2
  6
CONTINUOUS
 10
-0.261402
 20
-0.507024
  0
VERTEX
  8
PLAN_1
 62
     2
  6
CONTINUOUS
 10
-0.262882
 20
-0.503071
  0
VERTEX
  8
PLAN_1
 62
     2
  6
CONTINUOUS
 10
-0.264858
 20
-0.500106
  0
VERTEX
  8
PLAN_1
 62
     2
  6
CONTINUOUS
 10
-0.267331
 20
-0.497634
  0
VERTEX
  8
PLAN_1
 62
     2
  6
CONTINUOUS
 10
-0.268811
 20
-0.496646
  0
VERTEX
  8
PLAN_1
 62
     2
  6
CONTINUOUS
 10
-0.270787
 20
-0.495657
  0
VERTEX
  8
PLAN_1
 62
     2
  6
CONTINUOUS
 10
-0.272764
 20
-0.495165
  0
VERTEX
  8
PLAN_1
 62
     2
  6
CONTINUOUS
 10
-0.275236
 20
-0.495165
  0
VERTEX
  8
PLAN_1
 62
     2
  6
CONTINUOUS
 10
-0.277705
 20
-0.495165
  0
VERTEX
  8
PLAN_1
 62
     2
  6
CONTINUOUS
 10
-0.279685
 20
-0.495657
  0
VERTEX
  8
PLAN_1
 62
     2
  6
CONTINUOUS
 10
-0.281661
 20
-0.496154
  0
VERTEX
  8
PLAN_1
 62
     2
  6
CONTINUOUS
 10
-0.283638
 20
-0.497142
  0
VERTEX
  8
PLAN_1
 62
     2
  6
CONTINUOUS
 10
-0.286106
 20
-0.499610
  0
VERTEX
  8
PLAN_1
 62
     2
  6
CONTINUOUS
 10
-0.288083
 20
-0.502575
  0
VERTEX
  8
PLAN_1
 62
     2
  6
CONTINUOUS
 10
-0.289071
 20
-0.506035
  0
VERTEX
  8
PLAN_1
 62
     2
  6
CONTINUOUS
 10
-0.289567
 20
-0.509496
  0
VERTEX
  8
PLAN_1
 62
     2
  6
CONTINUOUS
 10
-0.290059
 20
-0.512461
  0
VERTEX
  8
PLAN_1
 62
     2
  6
CONTINUOUS
 10
-0.290059
 20
-0.515425
  0
VERTEX
  8
PLAN_1
 62
     2
  6
CONTINUOUS
 10
-0.289567
 20
-0.519870
  0
VERTEX
  8
PLAN_1
 62
     2
  6
CONTINUOUS
 10
-0.289071
 20
-0.523823
  0
VERTEX
  8
PLAN_1
 62
     2
  6
CONTINUOUS
 10
-0.288083
 20
-0.527283
  0
VERTEX
  8
PLAN_1
 62
     2
  6
CONTINUOUS
 10
-0.286602
 20
-0.530248
  0
VERTEX
  8
PLAN_1
 62
     2
  6
CONTINUOUS
 10
-0.284626
 20
-0.532717
  0
VERTEX
  8
PLAN_1
 62
     2
  6
CONTINUOUS
 10
-0.281661
 20
-0.534693
  0
VERTEX
  8
PLAN_1
 62
     2
  6
CONTINUOUS
 10
-0.278693
 20
-0.536177
  0
VERTEX
  8
PLAN_1
 62
     2
  6
CONTINUOUS
 10
-0.275236
 20
-0.536669
  0
SEQEND
  8
0
  0
SOLID
  8
PLAN_1
 62
     2
 10
-0.213965
 20
-0.481331
 11
-0.220882
 21
-0.481331
 12
-0.200622
 22
-0.466504
 13
-0.211492
 23
-0.466504
  0
POLYLINE
  8
PLAN_1
 62
     2
  6
CONTINUOUS
 66
     1
 40
0.003000
 41
0.003000
  0
VERTEX
  8
PLAN_1
 62
     2
  6
CONTINUOUS
 10
-0.213965
 20
-0.481331
  0
VERTEX
  8
PLAN_1
 62
     2
  6
CONTINUOUS
 10
-0.220882
 20
-0.481331
  0
VERTEX
  8
PLAN_1
 62
     2
  6
CONTINUOUS
 10
-0.211492
 20
-0.466504
  0
VERTEX
  8
PLAN_1
 62
     2
  6
CONTINUOUS
 10
-0.200622
 20
-0.466504
  0
VERTEX
  8
PLAN_1
 62
     2
  6
CONTINUOUS
 10
-0.213965
 20
-0.481331
  0
SEQEND
  8
0
  0
POLYLINE
  8
PLAN_1
 62
     2
  6
CONTINUOUS
 66
     1
 40
0.003000
 41
0.003000
  0
VERTEX
  8
PLAN_1
 62
     2
  6
CONTINUOUS
 10
-0.192220
 20
-0.525799
  0
VERTEX
  8
PLAN_1
 62
     2
  6
CONTINUOUS
 10
-0.192717
 20
-0.526787
  0
VERTEX
  8
PLAN_1
 62
     2
  6
CONTINUOUS
 10
-0.193209
 20
-0.528272
  0
VERTEX
  8
PLAN_1
 62
     2
  6
CONTINUOUS
 10
-0.193705
 20
-0.530248
  0
VERTEX
  8
PLAN_1
 62
     2
  6
CONTINUOUS
 10
-0.194693
 20
-0.532224
  0
VERTEX
  8
PLAN_1
 62
     2
  6
CONTINUOUS
 10
-0.196177
 20
-0.534693
  0
VERTEX
  8
PLAN_1
 62
     2
  6
CONTINUOUS
 10
-0.197657
 20
-0.536669
  0
VERTEX
  8
PLAN_1
 62
     2
  6
CONTINUOUS
 10
-0.199634
 20
-0.538650
  0
VERTEX
  8
PLAN_1
 62
     2
  6
CONTINUOUS
 10
-0.202106
 20
-0.540626
  0
VERTEX
  8
PLAN_1
 62
     2
  6
CONTINUOUS
 10
-0.203094
 20
-0.541118
  0
VERTEX
  8
PLAN_1
 62
     2
  6
CONTINUOUS
 10
-0.204083
 20
-0.542106
  0
VERTEX
  8
PLAN_1
 62
     2
  6
CONTINUOUS
 10
-0.205563
 20
-0.542602
  0
VERTEX
  8
PLAN_1
 62
     2
  6
CONTINUOUS
 10
-0.207047
 20
-0.543094
  0
VERTEX
  8
PLAN_1
 62
     2
  6
CONTINUOUS
 10
-0.209024
 20
-0.543591
  0
VERTEX
  8
PLAN_1
 62
     2
  6
CONTINUOUS
 10
-0.211000
 20
-0.544083
  0
VERTEX
  8
PLAN_1
 62
     2
  6
CONTINUOUS
 10
-0.213469
 20
-0.544083
  0
VERTEX
  8
PLAN_1
 62
     2
  6
CONTINUOUS
 10
-0.216929
 20
-0.544579
  0
VERTEX
  8
PLAN_1
 62
     2
  6
CONTINUOUS
 10
-0.219398
 20
-0.544083
  0
VERTEX
  8
PLAN_1
 62
     2
  6
CONTINUOUS
 10
-0.222362
 20
-0.543591
  0
VERTEX
  8
PLAN_1
 62
     2
  6
CONTINUOUS
 10
-0.224835
 20
-0.543094
  0
VERTEX
  8
PLAN_1
 62
     2
  6
CONTINUOUS
 10
-0.226811
 20
-0.542106
  0
VERTEX
  8
PLAN_1
 62
     2
  6
CONTINUOUS
 10
-0.229283
 20
-0.541118
  0
VERTEX
  8
PLAN_1
 62
     2
  6
CONTINUOUS
 10
-0.231260
 20
-0.539638
  0
VERTEX
  8
PLAN_1
 62
     2
  6
CONTINUOUS
 10
-0.233236
 20
-0.538154
  0
VERTEX
  8
PLAN_1
 62
     2
  6
CONTINUOUS
 10
-0.234717
 20
-0.536669
  0
VERTEX
  8
PLAN_1
 62
     2
  6
CONTINUOUS
 10
-0.237189
 20
-0.532717
  0
VERTEX
  8
PLAN_1
 62
     2
  6
CONTINUOUS
 10
-0.239657
 20
-0.527776
  0
VERTEX
  8
PLAN_1
 62
     2
  6
CONTINUOUS
 10
-0.240646
 20
-0.522835
  0
VERTEX
  8
PLAN_1
 62
     2
  6
CONTINUOUS
 10
-0.241142
 20
-0.516906
  0
VERTEX
  8
PLAN_1
 62
     2
  6
CONTINUOUS
 10
-0.240646
 20
-0.510976
  0
VERTEX
  8
PLAN_1
 62
     2
  6
CONTINUOUS
 10
-0.239657
 20
-0.505047
  0
VERTEX
  8
PLAN_1
 62
     2
  6
CONTINUOUS
 10
-0.238669
 20
-0.502575
  0
VERTEX
  8
PLAN_1
 62
     2
  6
CONTINUOUS
 10
-0.237681
 20
-0.500106
  0
VERTEX
  8
PLAN_1
 62
     2
  6
CONTINUOUS
 10
-0.236201
 20
-0.497634
  0
VERTEX
  8
PLAN_1
 62
     2
  6
CONTINUOUS
 10
-0.234717
 20
-0.495657
  0
VERTEX
  8
PLAN_1
 62
     2
  6
CONTINUOUS
 10
-0.233236
 20
-0.493681
  0
VERTEX
  8
PLAN_1
 62
     2
  6
CONTINUOUS
 10
-0.231260
 20
-0.492201
  0
VERTEX
  8
PLAN_1
 62
     2
  6
CONTINUOUS
 10
-0.228787
 20
-0.490224
  0
VERTEX
  8
PLAN_1
 62
     2
  6
CONTINUOUS
 10
-0.226811
 20
-0.489236
  0
VERTEX
  8
PLAN_1
 62
     2
  6
CONTINUOUS
 10
-0.223846
 20
-0.488248
  0
VERTEX
  8
PLAN_1
 62
     2
  6
CONTINUOUS
 10
-0.221374
 20
-0.487260
  0
VERTEX
  8
PLAN_1
 62
     2
  6
CONTINUOUS
 10
-0.218409
 20
-0.486764
  0
VERTEX
  8
PLAN_1
 62
     2
  6
CONTINUOUS
 10
-0.214953
 20
-0.486764
  0
VERTEX
  8
PLAN_1
 62
     2
  6
CONTINUOUS
 10
-0.211988
 20
-0.486764
  0
VERTEX
  8
PLAN_1
 62
     2
  6
CONTINUOUS
 10
-0.209516
 20
-0.487260
  0
VERTEX
  8
PLAN_1
 62
     2
  6
CONTINUOUS
 10
-0.207047
 20
-0.488248
  0
VERTEX
  8
PLAN_1
 62
     2
  6
CONTINUOUS
 10
-0.204575
 20
-0.489236
  0
VERTEX
  8
PLAN_1
 62
     2
  6
CONTINUOUS
 10
-0.202598
 20
-0.490224
  0
VERTEX
  8
PLAN_1
 62
     2
  6
CONTINUOUS
 10
-0.200622
 20
-0.491705
  0
VERTEX
  8
PLAN_1
 62
     2
  6
CONTINUOUS
 10
-0.199142
 20
-0.493681
  0
VERTEX
  8
PLAN_1
 62
     2
  6
CONTINUOUS
 10
-0.197165
 20
-0.495657
  0
VERTEX
  8
PLAN_1
 62
     2
  6
CONTINUOUS
 10
-0.196177
 20
-0.497634
  0
VERTEX
  8
PLAN_1
 62
     2
  6
CONTINUOUS
 10
-0.194693
 20
-0.500106
  0
VERTEX
  8
PLAN_1
 62
     2
  6
CONTINUOUS
 10
-0.193705
 20
-0.502575
  0
VERTEX
  8
PLAN_1
 62
     2
  6
CONTINUOUS
 10
-0.193209
 20
-0.505539
  0
VERTEX
  8
PLAN_1
 62
     2
  6
CONTINUOUS
 10
-0.191728
 20
-0.511472
  0
VERTEX
  8
PLAN_1
 62
     2
  6
CONTINUOUS
 10
-0.191728
 20
-0.518390
  0
VERTEX
  8
PLAN_1
 62
     2
  6
CONTINUOUS
 10
-0.231260
 20
-0.518390
  0
VERTEX
  8
PLAN_1
 62
     2
  6
CONTINUOUS
 10
-0.231260
 20
-0.522343
  0
VERTEX
  8
PLAN_1
 62
     2
  6
CONTINUOUS
 10
-0.230272
 20
-0.526295
  0
VERTEX
  8
PLAN_1
 62
     2
  6
CONTINUOUS
 10
-0.229283
 20
-0.529260
  0
VERTEX
  8
PLAN_1
 62
     2
  6
CONTINUOUS
 10
-0.227307
 20
-0.531728
  0
VERTEX
  8
PLAN_1
 62
     2
  6
CONTINUOUS
 10
-0.225331
 20
-0.533705
  0
VERTEX
  8
PLAN_1
 62
     2
  6
CONTINUOUS
 10
-0.222362
 20
-0.535189
  0
VERTEX
  8
PLAN_1
 62
     2
  6
CONTINUOUS
 10
-0.219398
 20
-0.536177
  0
VERTEX
  8
PLAN_1
 62
     2
  6
CONTINUOUS
 10
-0.215445
 20
-0.536669
  0
VERTEX
  8
PLAN_1
 62
     2
  6
CONTINUOUS
 10
-0.212480
 20
-0.536177
  0
VERTEX
  8
PLAN_1
 62
     2
  6
CONTINUOUS
 10
-0.209516
 20
-0.535189
  0
VERTEX
  8
PLAN_1
 62
     2
  6
CONTINUOUS
 10
-0.207539
 20
-0.534201
  0
VERTEX
  8
PLAN_1
 62
     2
  6
CONTINUOUS
 10
-0.205563
 20
-0.532717
  0
VERTEX
  8
PLAN_1
 62
     2
  6
CONTINUOUS
 10
-0.203587
 20
-0.530740
  0
VERTEX
  8
PLAN_1
 62
     2
  6
CONTINUOUS
 10
-0.202598
 20
-0.529260
  0
VERTEX
  8
PLAN_1
 62
     2
  6
CONTINUOUS
 10
-0.201610
 20
-0.527283
  0
VERTEX
  8
PLAN_1
 62
     2
  6
CONTINUOUS
 10
-0.201610
 20
-0.525799
  0
VERTEX
  8
PLAN_1
 62
     2
  6
CONTINUOUS
 10
-0.192220
 20
-0.525799
  0
SEQEND
  8
0
  0
POLYLINE
  8
PLAN_1
 62
     2
  6
CONTINUOUS
 66
     1
 40
0.003000
 41
0.003000
  0
VERTEX
  8
PLAN_1
 62
     2
  6
CONTINUOUS
 10
-0.201118
 20
-0.511472
  0
VERTEX
  8
PLAN_1
 62
     2
  6
CONTINUOUS
 10
-0.201610
 20
-0.508012
  0
VERTEX
  8
PLAN_1
 62
     2
  6
CONTINUOUS
 10
-0.202106
 20
-0.505047
  0
VERTEX
  8
PLAN_1
 62
     2
  6
CONTINUOUS
 10
-0.203094
 20
-0.502575
  0
VERTEX
  8
PLAN_1
 62
     2
  6
CONTINUOUS
 10
-0.204575
 20
-0.500106
  0
VERTEX
  8
PLAN_1
 62
     2
  6
CONTINUOUS
 10
-0.206551
 20
-0.498130
  0
VERTEX
  8
PLAN_1
 62
     2
  6
CONTINUOUS
 10
-0.209024
 20
-0.496154
  0
VERTEX
  8
PLAN_1
 62
     2
  6
CONTINUOUS
 10
-0.212480
 20
-0.495165
  0
VERTEX
  8
PLAN_1
 62
     2
  6
CONTINUOUS
 10
-0.216433
 20
-0.495165
  0
VERTEX
  8
PLAN_1
 62
     2
  6
CONTINUOUS
 10
-0.219398
 20
-0.495165
  0
VERTEX
  8
PLAN_1
 62
     2
  6
CONTINUOUS
 10
-0.222362
 20
-0.496154
  0
VERTEX
  8
PLAN_1
 62
     2
  6
CONTINUOUS
 10
-0.224835
 20
-0.498130
  0
VERTEX
  8
PLAN_1
 62
     2
  6
CONTINUOUS
 10
-0.226811
 20
-0.500106
  0
VERTEX
  8
PLAN_1
 62
     2
  6
CONTINUOUS
 10
-0.228787
 20
-0.502575
  0
VERTEX
  8
PLAN_1
 62
     2
  6
CONTINUOUS
 10
-0.230272
 20
-0.505047
  0
VERTEX
  8
PLAN_1
 62
     2
  6
CONTINUOUS
 10
-0.230764
 20
-0.508012
  0
VERTEX
  8
PLAN_1
 62
     2
  6
CONTINUOUS
 10
-0.231260
 20
-0.511472
  0
VERTEX
  8
PLAN_1
 62
     2
  6
CONTINUOUS
 10
-0.201118
 20
-0.511472
  0
SEQEND
  8
0
  0
POLYLINE
  8
PLAN_1
 62
     2
  6
CONTINUOUS
 66
     1
 40
0.003000
 41
0.003000
  0
VERTEX
  8
PLAN_1
 62
     2
  6
CONTINUOUS
 10
-0.152197
 20
-0.488248
  0
VERTEX
  8
PLAN_1
 62
     2
  6
CONTINUOUS
 10
-0.143799
 20
-0.488248
  0
VERTEX
  8
PLAN_1
 62
     2
  6
CONTINUOUS
 10
-0.143799
 20
-0.496154
  0
VERTEX
  8
PLAN_1
 62
     2
  6
CONTINUOUS
 10
-0.142811
 20
-0.494669
  0
VERTEX
  8
PLAN_1
 62
     2
  6
CONTINUOUS
 10
-0.141327
 20
-0.493189
  0
VERTEX
  8
PLAN_1
 62
     2
  6
CONTINUOUS
 10
-0.139843
 20
-0.491705
  0
VERTEX
  8
PLAN_1
 62
     2
  6
CONTINUOUS
 10
-0.138362
 20
-0.490224
  0
VERTEX
  8
PLAN_1
 62
     2
  6
CONTINUOUS
 10
-0.136386
 20
-0.488740
  0
VERTEX
  8
PLAN_1
 62
     2
  6
CONTINUOUS
 10
-0.133913
 20
-0.487752
  0
VERTEX
  8
PLAN_1
 62
     2
  6
CONTINUOUS
 10
-0.130949
 20
-0.487260
  0
VERTEX
  8
PLAN_1
 62
     2
  6
CONTINUOUS
 10
-0.127492
 20
-0.486764
  0
VERTEX
  8
PLAN_1
 62
     2
  6
CONTINUOUS
 10
-0.124528
 20
-0.486764
  0
VERTEX
  8
PLAN_1
 62
     2
  6
CONTINUOUS
 10
-0.122055
 20
-0.487260
  0
VERTEX
  8
PLAN_1
 62
     2
  6
CONTINUOUS
 10
-0.120079
 20
-0.488248
  0
VERTEX
  8
PLAN_1
 62
     2
  6
CONTINUOUS
 10
-0.117610
 20
-0.488740
  0
VERTEX
  8
PLAN_1
 62
     2
  6
CONTINUOUS
 10
-0.115634
 20
-0.490224
  0
VERTEX
  8
PLAN_1
 62
     2
  6
CONTINUOUS
 10
-0.113657
 20
-0.491213
  0
VERTEX
  8
PLAN_1
 62
     2
  6
CONTINUOUS
 10
-0.112173
 20
-0.492693
  0
VERTEX
  8
PLAN_1
 62
     2
  6
CONTINUOUS
 10
-0.110689
 20
-0.494669
  0
VERTEX
  8
PLAN_1
 62
     2
  6
CONTINUOUS
 10
-0.108220
 20
-0.498622
  0
VERTEX
  8
PLAN_1
 62
     2
  6
CONTINUOUS
 10
-0.106244
 20
-0.503071
  0
VERTEX
  8
PLAN_1
 62
     2
  6
CONTINUOUS
 10
-0.105256
 20
-0.508504
  0
VERTEX
  8
PLAN_1
 62
     2
  6
CONTINUOUS
 10
-0.104760
 20
-0.513941
  0
VERTEX
  8
PLAN_1
 62
     2
  6
CONTINUOUS
 10
-0.104760
 20
-0.518882
  0
VERTEX
  8
PLAN_1
 62
     2
  6
CONTINUOUS
 10
-0.105748
 20
-0.524319
  0
VERTEX
  8
PLAN_1
 62
     2
  6
CONTINUOUS
 10
-0.107232
 20
-0.529260
  0
VERTEX
  8
PLAN_1
 62
     2
  6
CONTINUOUS
 10
-0.109701
 20
-0.534201
  0
VERTEX
  8
PLAN_1
 62
     2
  6
CONTINUOUS
 10
-0.111185
 20
-0.536177
  0
VERTEX
  8
PLAN_1
 62
     2
  6
CONTINUOUS
 10
-0.112669
 20
-0.538154
  0
VERTEX
  8
PLAN_1
 62
     2
  6
CONTINUOUS
 10
-0.114646
 20
-0.540130
  0
VERTEX
  8
PLAN_1
 62
     2
  6
CONTINUOUS
 10
-0.117114
 20
-0.541614
  0
VERTEX
  8
PLAN_1
 62
     2
  6
CONTINUOUS
 10
-0.119587
 20
-0.542602
  0
VERTEX
  8
PLAN_1
 62
     2
  6
CONTINUOUS
 10
-0.122055
 20
-0.543591
  0
VERTEX
  8
PLAN_1
 62
     2
  6
CONTINUOUS
 10
-0.125020
 20
-0.544083
  0
VERTEX
  8
PLAN_1
 62
     2
  6
CONTINUOUS
 10
-0.128480
 20
-0.544579
  0
VERTEX
  8
PLAN_1
 62
     2
  6
CONTINUOUS
 10
-0.131445
 20
-0.544083
  0
VERTEX
  8
PLAN_1
 62
     2
  6
CONTINUOUS
 10
-0.133421
 20
-0.543591
  0
VERTEX
  8
PLAN_1
 62
     2
  6
CONTINUOUS
 10
-0.135890
 20
-0.543094
  0
VERTEX
  8
PLAN_1
 62
     2
  6
CONTINUOUS
 10
-0.137866
 20
-0.542106
  0
VERTEX
  8
PLAN_1
 62
     2
  6
CONTINUOUS
 10
-0.139350
 20
-0.541118
  0
VERTEX
  8
PLAN_1
 62
     2
  6
CONTINUOUS
 10
-0.140835
 20
-0.539638
  0
VERTEX
  8
PLAN_1
 62
     2
  6
CONTINUOUS
 10
-0.141823
 20
-0.538650
  0
VERTEX
  8
PLAN_1
 62
     2
  6
CONTINUOUS
 10
-0.142811
 20
-0.537165
  0
VERTEX
  8
PLAN_1
 62
     2
  6
CONTINUOUS
 10
-0.143303
 20
-0.537165
  0
VERTEX
  8
PLAN_1
 62
     2
  6
CONTINUOUS
 10
-0.143303
 20
-0.564343
  0
VERTEX
  8
PLAN_1
 62
     2
  6
CONTINUOUS
 10
-0.152197
 20
-0.564343
  0
VERTEX
  8
PLAN_1
 62
     2
  6
CONTINUOUS
 10
-0.152197
 20
-0.488248
  0
SEQEND
  8
0
  0
POLYLINE
  8
PLAN_1
 62
     2
  6
CONTINUOUS
 66
     1
 40
0.003000
 41
0.003000
  0
VERTEX
  8
PLAN_1
 62
     2
  6
CONTINUOUS
 10
-0.128972
 20
-0.536669
  0
VERTEX
  8
PLAN_1
 62
     2
  6
CONTINUOUS
 10
-0.125516
 20
-0.536177
  0
VERTEX
  8
PLAN_1
 62
     2
  6
CONTINUOUS
 10
-0.122055
 20
-0.534693
  0
VERTEX
  8
PLAN_1
 62
     2
  6
CONTINUOUS
 10
-0.119587
 20
-0.532717
  0
VERTEX
  8
PLAN_1
 62
     2
  6
CONTINUOUS
 10
-0.117610
 20
-0.530248
  0
VERTEX
  8
PLAN_1
 62
     2
  6
CONTINUOUS
 10
-0.116126
 20
-0.527283
  0
VERTEX
  8
PLAN_1
 62
     2
  6
CONTINUOUS
 10
-0.115138
 20
-0.523823
  0
VERTEX
  8
PLAN_1
 62
     2
  6
CONTINUOUS
 10
-0.114150
 20
-0.519870
  0
VERTEX
  8
PLAN_1
 62
     2
  6
CONTINUOUS
 10
-0.114150
 20
-0.515425
  0
VERTEX
  8
PLAN_1
 62
     2
  6
CONTINUOUS
 10
-0.114150
 20
-0.512461
  0
VERTEX
  8
PLAN_1
 62
     2
  6
CONTINUOUS
 10
-0.114646
 20
-0.509496
  0
VERTEX
  8
PLAN_1
 62
     2
  6
CONTINUOUS
 10
-0.115138
 20
-0.506035
  0
VERTEX
  8
PLAN_1
 62
     2
  6
CONTINUOUS
 10
-0.116126
 20
-0.502575
  0
VERTEX
  8
PLAN_1
 62
     2
  6
CONTINUOUS
 10
-0.118102
 20
-0.499610
  0
VERTEX
  8
PLAN_1
 62
     2
  6
CONTINUOUS
 10
-0.120575
 20
-0.497142
  0
VERTEX
  8
PLAN_1
 62
     2
  6
CONTINUOUS
 10
-0.122551
 20
-0.496154
  0
VERTEX
  8
PLAN_1
 62
     2
  6
CONTINUOUS
 10
-0.124528
 20
-0.495657
  0
VERTEX
  8
PLAN_1
 62
     2
  6
CONTINUOUS
 10
-0.126504
 20
-0.495165
  0
VERTEX
  8
PLAN_1
 62
     2
  6
CONTINUOUS
 10
-0.128972
 20
-0.495165
  0
VERTEX
  8
PLAN_1
 62
     2
  6
CONTINUOUS
 10
-0.131445
 20
-0.495165
  0
VERTEX
  8
PLAN_1
 62
     2
  6
CONTINUOUS
 10
-0.133421
 20
-0.495657
  0
VERTEX
  8
PLAN_1
 62
     2
  6
CONTINUOUS
 10
-0.135398
 20
-0.496646
  0
VERTEX
  8
PLAN_1
 62
     2
  6
CONTINUOUS
 10
-0.136878
 20
-0.497634
  0
VERTEX
  8
PLAN_1
 62
     2
  6
CONTINUOUS
 10
-0.139350
 20
-0.500106
  0
VERTEX
  8
PLAN_1
 62
     2
  6
CONTINUOUS
 10
-0.141327
 20
-0.503071
  0
VERTEX
  8
PLAN_1
 62
     2
  6
CONTINUOUS
 10
-0.142315
 20
-0.507024
  0
VERTEX
  8
PLAN_1
 62
     2
  6
CONTINUOUS
 10
-0.143303
 20
-0.510976
  0
VERTEX
  8
PLAN_1
 62
     2
  6
CONTINUOUS
 10
-0.143799
 20
-0.514437
  0
VERTEX
  8
PLAN_1
 62
     2
  6
CONTINUOUS
 10
-0.143799
 20
-0.517894
  0
VERTEX
  8
PLAN_1
 62
     2
  6
CONTINUOUS
 10
-0.143303
 20
-0.522835
  0
VERTEX
  8
PLAN_1
 62
     2
  6
CONTINUOUS
 10
-0.142315
 20
-0.527283
  0
VERTEX
  8
PLAN_1
 62
     2
  6
CONTINUOUS
 10
-0.140339
 20
-0.530248
  0
VERTEX
  8
PLAN_1
 62
     2
  6
CONTINUOUS
 10
-0.138362
 20
-0.532717
  0
VERTEX
  8
PLAN_1
 62
     2
  6
CONTINUOUS
 10
-0.135890
 20
-0.534693
  0
VERTEX
  8
PLAN_1
 62
     2
  6
CONTINUOUS
 10
-0.133421
 20
-0.535681
  0
VERTEX
  8
PLAN_1
 62
     2
  6
CONTINUOUS
 10
-0.130949
 20
-0.536177
  0
VERTEX
  8
PLAN_1
 62
     2
  6
CONTINUOUS
 10
-0.128972
 20
-0.536669
  0
SEQEND
  8
0
  0
POLYLINE
  8
PLAN_1
 62
     2
  6
CONTINUOUS
 66
     1
 40
0.003000
 41
0.003000
  0
VERTEX
  8
PLAN_1
 62
     2
  6
CONTINUOUS
 10
-0.071654
 20
-0.486764
  0
VERTEX
  8
PLAN_1
 62
     2
  6
CONTINUOUS
 10
-0.068689
 20
-0.486764
  0
VERTEX
  8
PLAN_1
 62
     2
  6
CONTINUOUS
 10
-0.065724
 20
-0.487260
  0
VERTEX
  8
PLAN_1
 62
     2
  6
CONTINUOUS
 10
-0.062760
 20
-0.488248
  0
VERTEX
  8
PLAN_1
 62
     2
  6
CONTINUOUS
 10
-0.060291
 20
-0.489236
  0
VERTEX
  8
PLAN_1
 62
     2
  6
CONTINUOUS
 10
-0.058315
 20
-0.490717
  0
VERTEX
  8
PLAN_1
 62
     2
  6
CONTINUOUS
 10
-0.055843
 20
-0.492201
  0
VERTEX
  8
PLAN_1
 62
     2
  6
CONTINUOUS
 10
-0.054358
 20
-0.494177
  0
VERTEX
  8
PLAN_1
 62
     2
  6
CONTINUOUS
 10
-0.052382
 20
-0.496154
  0
VERTEX
  8
PLAN_1
 62
     2
  6
CONTINUOUS
 10
-0.049913
 20
-0.500106
  0
VERTEX
  8
PLAN_1
 62
     2
  6
CONTINUOUS
 10
-0.047937
 20
-0.505047
  0
VERTEX
  8
PLAN_1
 62
     2
  6
CONTINUOUS
 10
-0.046949
 20
-0.510484
  0
VERTEX
  8
PLAN_1
 62
     2
  6
CONTINUOUS
 10
-0.046453
 20
-0.515425
  0
VERTEX
  8
PLAN_1
 62
     2
  6
CONTINUOUS
 10
-0.046949
 20
-0.520858
  0
VERTEX
  8
PLAN_1
 62
     2
  6
CONTINUOUS
 10
-0.047937
 20
-0.525799
  0
VERTEX
  8
PLAN_1
 62
     2
  6
CONTINUOUS
 10
-0.049913
 20
-0.530740
  0
VERTEX
  8
PLAN_1
 62
     2
  6
CONTINUOUS
 10
-0.052382
 20
-0.535189
  0
VERTEX
  8
PLAN_1
 62
     2
  6
CONTINUOUS
 10
-0.054358
 20
-0.537165
  0
VERTEX
  8
PLAN_1
 62
     2
  6
CONTINUOUS
 10
-0.055843
 20
-0.538650
  0
VERTEX
  8
PLAN_1
 62
     2
  6
CONTINUOUS
 10
-0.058315
 20
-0.540626
  0
VERTEX
  8
PLAN_1
 62
     2
  6
CONTINUOUS
 10
-0.060291
 20
-0.541614
  0
VERTEX
  8
PLAN_1
 62
     2
  6
CONTINUOUS
 10
-0.062760
 20
-0.542602
  0
VERTEX
  8
PLAN_1
 62
     2
  6
CONTINUOUS
 10
-0.065724
 20
-0.543591
  0
VERTEX
  8
PLAN_1
 62
     2
  6
CONTINUOUS
 10
-0.068689
 20
-0.544083
  0
VERTEX
  8
PLAN_1
 62
     2
  6
CONTINUOUS
 10
-0.071654
 20
-0.544083
  0
VERTEX
  8
PLAN_1
 62
     2
  6
CONTINUOUS
 10
-0.074618
 20
-0.544083
  0
VERTEX
  8
PLAN_1
 62
     2
  6
CONTINUOUS
 10
-0.077583
 20
-0.543591
  0
VERTEX
  8
PLAN_1
 62
     2
  6
CONTINUOUS
 10
-0.080547
 20
-0.542602
  0
VERTEX
  8
PLAN_1
 62
     2
  6
CONTINUOUS
 10
-0.083020
 20
-0.541614
  0
VERTEX
  8
PLAN_1
 62
     2
  6
CONTINUOUS
 10
-0.084996
 20
-0.540626
  0
VERTEX
  8
PLAN_1
 62
     2
  6
CONTINUOUS
 10
-0.087469
 20
-0.538650
  0
VERTEX
  8
PLAN_1
 62
     2
  6
CONTINUOUS
 10
-0.088949
 20
-0.537165
  0
VERTEX
  8
PLAN_1
 62
     2
  6
CONTINUOUS
 10
-0.090925
 20
-0.535189
  0
VERTEX
  8
PLAN_1
 62
     2
  6
CONTINUOUS
 10
-0.093398
 20
-0.530740
  0
VERTEX
  8
PLAN_1
 62
     2
  6
CONTINUOUS
 10
-0.095374
 20
-0.525799
  0
VERTEX
  8
PLAN_1
 62
     2
  6
CONTINUOUS
 10
-0.096362
 20
-0.520858
  0
VERTEX
  8
PLAN_1
 62
     2
  6
CONTINUOUS
 10
-0.096854
 20
-0.515425
  0
VERTEX
  8
PLAN_1
 62
     2
  6
CONTINUOUS
 10
-0.096362
 20
-0.510484
  0
VERTEX
  8
PLAN_1
 62
     2
  6
CONTINUOUS
 10
-0.095374
 20
-0.505047
  0
VERTEX
  8
PLAN_1
 62
     2
  6
CONTINUOUS
 10
-0.093398
 20
-0.500106
  0
VERTEX
  8
PLAN_1
 62
     2
  6
CONTINUOUS
 10
-0.090925
 20
-0.496154
  0
VERTEX
  8
PLAN_1
 62
     2
  6
CONTINUOUS
 10
-0.088949
 20
-0.494177
  0
VERTEX
  8
PLAN_1
 62
     2
  6
CONTINUOUS
 10
-0.087469
 20
-0.492201
  0
VERTEX
  8
PLAN_1
 62
     2
  6
CONTINUOUS
 10
-0.084996
 20
-0.490717
  0
VERTEX
  8
PLAN_1
 62
     2
  6
CONTINUOUS
 10
-0.083020
 20
-0.489236
  0
VERTEX
  8
PLAN_1
 62
     2
  6
CONTINUOUS
 10
-0.080547
 20
-0.488248
  0
VERTEX
  8
PLAN_1
 62
     2
  6
CONTINUOUS
 10
-0.077583
 20
-0.487260
  0
VERTEX
  8
PLAN_1
 62
     2
  6
CONTINUOUS
 10
-0.074618
 20
-0.486764
  0
VERTEX
  8
PLAN_1
 62
     2
  6
CONTINUOUS
 10
-0.071654
 20
-0.486764
  0
SEQEND
  8
0
  0
POLYLINE
  8
PLAN_1
 62
     2
  6
CONTINUOUS
 66
     1
 40
0.003000
 41
0.003000
  0
VERTEX
  8
PLAN_1
 62
     2
  6
CONTINUOUS
 10
-0.071654
 20
-0.536177
  0
VERTEX
  8
PLAN_1
 62
     2
  6
CONTINUOUS
 10
-0.069185
 20
-0.536177
  0
VERTEX
  8
PLAN_1
 62
     2
  6
CONTINUOUS
 10
-0.067209
 20
-0.535681
  0
VERTEX
  8
PLAN_1
 62
     2
  6
CONTINUOUS
 10
-0.065232
 20
-0.535189
  0
VERTEX
  8
PLAN_1
 62
     2
  6
CONTINUOUS
 10
-0.063748
 20
-0.534201
  0
VERTEX
  8
PLAN_1
 62
     2
  6
CONTINUOUS
 10
-0.060783
 20
-0.531728
  0
VERTEX
  8
PLAN_1
 62
     2
  6
CONTINUOUS
 10
-0.058807
 20
-0.528764
  0
VERTEX
  8
PLAN_1
 62
     2
  6
CONTINUOUS
 10
-0.057327
 20
-0.525307
  0
VERTEX
  8
PLAN_1
 62
     2
  6
CONTINUOUS
 10
-0.056339
 20
-0.521846
  0
VERTEX
  8
PLAN_1
 62
     2
  6
CONTINUOUS
 10
-0.055843
 20
-0.518390
  0
VERTEX
  8
PLAN_1
 62
     2
  6
CONTINUOUS
 10
-0.055843
 20
-0.515425
  0
VERTEX
  8
PLAN_1
 62
     2
  6
CONTINUOUS
 10
-0.055843
 20
-0.512461
  0
VERTEX
  8
PLAN_1
 62
     2
  6
CONTINUOUS
 10
-0.056339
 20
-0.509000
  0
VERTEX
  8
PLAN_1
 62
     2
  6
CONTINUOUS
 10
-0.057327
 20
-0.505539
  0
VERTEX
  8
PLAN_1
 62
     2
  6
CONTINUOUS
 10
-0.058807
 20
-0.502575
  0
VERTEX
  8
PLAN_1
 62
     2
  6
CONTINUOUS
 10
-0.060783
 20
-0.499610
  0
VERTEX
  8
PLAN_1
 62
     2
  6
CONTINUOUS
 10
-0.063748
 20
-0.497142
  0
VERTEX
  8
PLAN_1
 62
     2
  6
CONTINUOUS
 10
-0.065232
 20
-0.496154
  0
VERTEX
  8
PLAN_1
 62
     2
  6
CONTINUOUS
 10
-0.067209
 20
-0.495165
  0
VERTEX
  8
PLAN_1
 62
     2
  6
CONTINUOUS
 10
-0.069185
 20
-0.494669
  0
VERTEX
  8
PLAN_1
 62
     2
  6
CONTINUOUS
 10
-0.071654
 20
-0.494669
  0
VERTEX
  8
PLAN_1
 62
     2
  6
CONTINUOUS
 10
-0.074126
 20
-0.494669
  0
VERTEX
  8
PLAN_1
 62
     2
  6
CONTINUOUS
 10
-0.076102
 20
-0.495165
  0
VERTEX
  8
PLAN_1
 62
     2
  6
CONTINUOUS
 10
-0.078079
 20
-0.496154
  0
VERTEX
  8
PLAN_1
 62
     2
  6
CONTINUOUS
 10
-0.079559
 20
-0.497142
  0
VERTEX
  8
PLAN_1
 62
     2
  6
CONTINUOUS
 10
-0.082524
 20
-0.499610
  0
VERTEX
  8
PLAN_1
 62
     2
  6
CONTINUOUS
 10
-0.084504
 20
-0.502575
  0
VERTEX
  8
PLAN_1
 62
     2
  6
CONTINUOUS
 10
-0.085984
 20
-0.505539
  0
VERTEX
  8
PLAN_1
 62
     2
  6
CONTINUOUS
 10
-0.086972
 20
-0.509000
  0
VERTEX
  8
PLAN_1
 62
     2
  6
CONTINUOUS
 10
-0.087469
 20
-0.512461
  0
VERTEX
  8
PLAN_1
 62
     2
  6
CONTINUOUS
 10
-0.087469
 20
-0.515425
  0
VERTEX
  8
PLAN_1
 62
     2
  6
CONTINUOUS
 10
-0.087469
 20
-0.518390
  0
VERTEX
  8
PLAN_1
 62
     2
  6
CONTINUOUS
 10
-0.086972
 20
-0.521846
  0
VERTEX
  8
PLAN_1
 62
     2
  6
CONTINUOUS
 10
-0.085984
 20
-0.525307
  0
VERTEX
  8
PLAN_1
 62
     2
  6
CONTINUOUS
 10
-0.084504
 20
-0.528764
  0
VERTEX
  8
PLAN_1
 62
     2
  6
CONTINUOUS
 10
-0.082524
 20
-0.531728
  0
VERTEX
  8
PLAN_1
 62
     2
  6
CONTINUOUS
 10
-0.079559
 20
-0.534201
  0
VERTEX
  8
PLAN_1
 62
     2
  6
CONTINUOUS
 10
-0.078079
 20
-0.535189
  0
VERTEX
  8
PLAN_1
 62
     2
  6
CONTINUOUS
 10
-0.076102
 20
-0.535681
  0
VERTEX
  8
PLAN_1
 62
     2
  6
CONTINUOUS
 10
-0.074126
 20
-0.536177
  0
VERTEX
  8
PLAN_1
 62
     2
  6
CONTINUOUS
 10
-0.071654
 20
-0.536177
  0
SEQEND
  8
0
  0
POLYLINE
  8
PLAN_1
 62
     2
  6
CONTINUOUS
 66
     1
 40
0.003000
 41
0.003000
  0
VERTEX
  8
PLAN_1
 62
     2
  6
CONTINUOUS
 10
-0.000500
 20
-0.542602
  0
VERTEX
  8
PLAN_1
 62
     2
  6
CONTINUOUS
 10
-0.000500
 20
-0.534693
  0
VERTEX
  8
PLAN_1
 62
     2
  6
CONTINUOUS
 10
-0.001984
 20
-0.536669
  0
VERTEX
  8
PLAN_1
 62
     2
  6
CONTINUOUS
 10
-0.003961
 20
-0.538650
  0
VERTEX
  8
PLAN_1
 62
     2
  6
CONTINUOUS
 10
-0.005441
 20
-0.540626
  0
VERTEX
  8
PLAN_1
 62
     2
  6
CONTINUOUS
 10
-0.007417
 20
-0.542106
  0
VERTEX
  8
PLAN_1
 62
     2
  6
CONTINUOUS
 10
-0.009394
 20
-0.543094
  0
VERTEX
  8
PLAN_1
 62
     2
  6
CONTINUOUS
 10
-0.011866
 20
-0.543591
  0
VERTEX
  8
PLAN_1
 62
     2
  6
CONTINUOUS
 10
-0.014831
 20
-0.544083
  0
VERTEX
  8
PLAN_1
 62
     2
  6
CONTINUOUS
 10
-0.017795
 20
-0.544579
  0
VERTEX
  8
PLAN_1
 62
     2
  6
CONTINUOUS
 10
-0.020760
 20
-0.544083
  0
VERTEX
  8
PLAN_1
 62
     2
  6
CONTINUOUS
 10
-0.024217
 20
-0.543591
  0
VERTEX
  8
PLAN_1
 62
     2
  6
CONTINUOUS
 10
-0.027181
 20
-0.542602
  0
VERTEX
  8
PLAN_1
 62
     2
  6
CONTINUOUS
 10
-0.029654
 20
-0.540626
  0
VERTEX
  8
PLAN_1
 62
     2
  6
CONTINUOUS
 10
-0.032126
 20
-0.538650
  0
VERTEX
  8
PLAN_1
 62
     2
  6
CONTINUOUS
 10
-0.034102
 20
-0.535681
  0
VERTEX
  8
PLAN_1
 62
     2
  6
CONTINUOUS
 10
-0.035091
 20
-0.531728
  0
VERTEX
  8
PLAN_1
 62
     2
  6
CONTINUOUS
 10
-0.035583
 20
-0.527283
  0
VERTEX
  8
PLAN_1
 62
     2
  6
CONTINUOUS
 10
-0.035583
 20
-0.488248
  0
VERTEX
  8
PLAN_1
 62
     2
  6
CONTINUOUS
 10
-0.026193
 20
-0.488248
  0
VERTEX
  8
PLAN_1
 62
     2
  6
CONTINUOUS
 10
-0.026193
 20
-0.524319
  0
VERTEX
  8
PLAN_1
 62
     2
  6
CONTINUOUS
 10
-0.026193
 20
-0.527776
  0
VERTEX
  8
PLAN_1
 62
     2
  6
CONTINUOUS
 10
-0.025701
 20
-0.530248
  0
VERTEX
  8
PLAN_1
 62
     2
  6
CONTINUOUS
 10
-0.024713
 20
-0.532224
  0
VERTEX
  8
PLAN_1
 62
     2
  6
CONTINUOUS
 10
-0.023228
 20
-0.533705
  0
VERTEX
  8
PLAN_1
 62
     2
  6
CONTINUOUS
 10
-0.021748
 20
-0.535189
  0
VERTEX
  8
PLAN_1
 62
     2
  6
CONTINUOUS
 10
-0.020264
 20
-0.535681
  0
VERTEX
  8
PLAN_1
 62
     2
  6
CONTINUOUS
 10
-0.018287
 20
-0.536177
  0
VERTEX
  8
PLAN_1
 62
     2
  6
CONTINUOUS
 10
-0.015819
 20
-0.536669
  0
VERTEX
  8
PLAN_1
 62
     2
  6
CONTINUOUS
 10
-0.011866
 20
-0.536177
  0
VERTEX
  8
PLAN_1
 62
     2
  6
CONTINUOUS
 10
-0.008902
 20
-0.534693
  0
VERTEX
  8
PLAN_1
 62
     2
  6
CONTINUOUS
 10
-0.005937
 20
-0.532717
  0
VERTEX
  8
PLAN_1
 62
     2
  6
CONTINUOUS
 10
-0.003961
 20
-0.530248
  0
VERTEX
  8
PLAN_1
 62
     2
  6
CONTINUOUS
 10
-0.002476
 20
-0.527776
  0
VERTEX
  8
PLAN_1
 62
     2
  6
CONTINUOUS
 10
-0.001488
 20
-0.524319
  0
VERTEX
  8
PLAN_1
 62
     2
  6
CONTINUOUS
 10
-0.000996
 20
-0.521354
  0
VERTEX
  8
PLAN_1
 62
     2
  6
CONTINUOUS
 10
-0.000996
 20
-0.518390
  0
VERTEX
  8
PLAN_1
 62
     2
  6
CONTINUOUS
 10
-0.000996
 20
-0.488248
  0
VERTEX
  8
PLAN_1
 62
     2
  6
CONTINUOUS
 10
0.008394
 20
-0.488248
  0
VERTEX
  8
PLAN_1
 62
     2
  6
CONTINUOUS
 10
0.008394
 20
-0.542602
  0
VERTEX
  8
PLAN_1
 62
     2
  6
CONTINUOUS
 10
-0.000500
 20
-0.542602
  0
SEQEND
  8
0
  0
POLYLINE
  8
PLAN_1
 62
     2
  6
CONTINUOUS
 66
     1
 40
0.003000
 41
0.003000
  0
VERTEX
  8
PLAN_1
 62
     2
  6
CONTINUOUS
 10
0.032606
 20
-0.542602
  0
VERTEX
  8
PLAN_1
 62
     2
  6
CONTINUOUS
 10
0.023217
 20
-0.542602
  0
VERTEX
  8
PLAN_1
 62
     2
  6
CONTINUOUS
 10
0.023217
 20
-0.488248
  0
VERTEX
  8
PLAN_1
 62
     2
  6
CONTINUOUS
 10
0.031618
 20
-0.488248
  0
VERTEX
  8
PLAN_1
 62
     2
  6
CONTINUOUS
 10
0.031618
 20
-0.497634
  0
VERTEX
  8
PLAN_1
 62
     2
  6
CONTINUOUS
 10
0.032114
 20
-0.497634
  0
VERTEX
  8
PLAN_1
 62
     2
  6
CONTINUOUS
 10
0.033594
 20
-0.495165
  0
VERTEX
  8
PLAN_1
 62
     2
  6
CONTINUOUS
 10
0.035079
 20
-0.493189
  0
VERTEX
  8
PLAN_1
 62
     2
  6
CONTINUOUS
 10
0.036559
 20
-0.491213
  0
VERTEX
  8
PLAN_1
 62
     2
  6
CONTINUOUS
 10
0.038535
 20
-0.489728
  0
VERTEX
  8
PLAN_1
 62
     2
  6
CONTINUOUS
 10
0.040512
 20
-0.488740
  0
VERTEX
  8
PLAN_1
 62
     2
  6
CONTINUOUS
 10
0.042488
 20
-0.487752
  0
VERTEX
  8
PLAN_1
 62
     2
  6
CONTINUOUS
 10
0.044961
 20
-0.487260
  0
VERTEX
  8
PLAN_1
 62
     2
  6
CONTINUOUS
 10
0.047429
 20
-0.486764
  0
VERTEX
  8
PLAN_1
 62
     2
  6
CONTINUOUS
 10
0.047925
 20
-0.486764
  0
VERTEX
  8
PLAN_1
 62
     2
  6
CONTINUOUS
 10
0.048417
 20
-0.486764
  0
VERTEX
  8
PLAN_1
 62
     2
  6
CONTINUOUS
 10
0.048913
 20
-0.486764
  0
VERTEX
  8
PLAN_1
 62
     2
  6
CONTINUOUS
 10
0.049406
 20
-0.486764
  0
VERTEX
  8
PLAN_1
 62
     2
  6
CONTINUOUS
 10
0.049406
 20
-0.487260
  0
VERTEX
  8
PLAN_1
 62
     2
  6
CONTINUOUS
 10
0.049902
 20
-0.487260
  0
VERTEX
  8
PLAN_1
 62
     2
  6
CONTINUOUS
 10
0.049902
 20
-0.496646
  0
VERTEX
  8
PLAN_1
 62
     2
  6
CONTINUOUS
 10
0.046441
 20
-0.496646
  0
VERTEX
  8
PLAN_1
 62
     2
  6
CONTINUOUS
 10
0.043476
 20
-0.497142
  0
VERTEX
  8
PLAN_1
 62
     2
  6
CONTINUOUS
 10
0.040512
 20
-0.497634
  0
VERTEX
  8
PLAN_1
 62
     2
  6
CONTINUOUS
 10
0.038043
 20
-0.499118
  0
VERTEX
  8
PLAN_1
 62
     2
  6
CONTINUOUS
 10
0.036067
 20
-0.501094
  0
VERTEX
  8
PLAN_1
 62
     2
  6
CONTINUOUS
 10
0.034583
 20
-0.503071
  0
VERTEX
  8
PLAN_1
 62
     2
  6
CONTINUOUS
 10
0.033594
 20
-0.505539
  0
VERTEX
  8
PLAN_1
 62
     2
  6
CONTINUOUS
 10
0.032606
 20
-0.508504
  0
VERTEX
  8
PLAN_1
 62
     2
  6
CONTINUOUS
 10
0.032606
 20
-0.510976
  0
VERTEX
  8
PLAN_1
 62
     2
  6
CONTINUOUS
 10
0.032606
 20
-0.542602
  0
SEQEND
  8
0
  0
POLYLINE
  8
PLAN_1
 62
     2
  6
CONTINUOUS
 66
     1
 40
0.003000
 41
0.003000
  0
VERTEX
  8
PLAN_1
 62
     2
  6
CONTINUOUS
 10
-0.816307
 20
-0.620673
  0
VERTEX
  8
PLAN_1
 62
     2
  6
CONTINUOUS
 10
-0.816307
 20
-0.656252
  0
VERTEX
  8
PLAN_1
 62
     2
  6
CONTINUOUS
 10
-0.816307
 20
-0.657732
  0
VERTEX
  8
PLAN_1
 62
     2
  6
CONTINUOUS
 10
-0.815815
 20
-0.658720
  0
VERTEX
  8
PLAN_1
 62
     2
  6
CONTINUOUS
 10
-0.815319
 20
-0.659709
  0
VERTEX
  8
PLAN_1
 62
     2
  6
CONTINUOUS
 10
-0.814331
 20
-0.660205
  0
VERTEX
  8
PLAN_1
 62
     2
  6
CONTINUOUS
 10
-0.813343
 20
-0.660205
  0
VERTEX
  8
PLAN_1
 62
     2
  6
CONTINUOUS
 10
-0.812354
 20
-0.660697
  0
VERTEX
  8
PLAN_1
 62
     2
  6
CONTINUOUS
 10
-0.811862
 20
-0.660697
  0
VERTEX
  8
PLAN_1
 62
     2
  6
CONTINUOUS
 10
-0.810874
 20
-0.660697
  0
VERTEX
  8
PLAN_1
 62
     2
  6
CONTINUOUS
 10
-0.807906
 20
-0.660697
  0
VERTEX
  8
PLAN_1
 62
     2
  6
CONTINUOUS
 10
-0.807906
 20
-0.667614
  0
VERTEX
  8
PLAN_1
 62
     2
  6
CONTINUOUS
 10
-0.808894
 20
-0.667614
  0
VERTEX
  8
PLAN_1
 62
     2
  6
CONTINUOUS
 10
-0.809886
 20
-0.668110
  0
VERTEX
  8
PLAN_1
 62
     2
  6
CONTINUOUS
 10
-0.810874
 20
-0.668110
  0
VERTEX
  8
PLAN_1
 62
     2
  6
CONTINUOUS
 10
-0.811862
 20
-0.668110
  0
VERTEX
  8
PLAN_1
 62
     2
  6
CONTINUOUS
 10
-0.812850
 20
-0.668110
  0
VERTEX
  8
PLAN_1
 62
     2
  6
CONTINUOUS
 10
-0.813343
 20
-0.668602
  0
VERTEX
  8
PLAN_1
 62
     2
  6
CONTINUOUS
 10
-0.814331
 20
-0.668602
  0
VERTEX
  8
PLAN_1
 62
     2
  6
CONTINUOUS
 10
-0.817791
 20
-0.668110
  0
VERTEX
  8
PLAN_1
 62
     2
  6
CONTINUOUS
 10
-0.820260
 20
-0.667614
  0
VERTEX
  8
PLAN_1
 62
     2
  6
CONTINUOUS
 10
-0.822236
 20
-0.666626
  0
VERTEX
  8
PLAN_1
 62
     2
  6
CONTINUOUS
 10
-0.823720
 20
-0.665146
  0
VERTEX
  8
PLAN_1
 62
     2
  6
CONTINUOUS
 10
-0.824709
 20
-0.663169
  0
VERTEX
  8
PLAN_1
 62
     2
  6
CONTINUOUS
 10
-0.825201
 20
-0.661193
  0
VERTEX
  8
PLAN_1
 62
     2
  6
CONTINUOUS
 10
-0.825697
 20
-0.659217
  0
VERTEX
  8
PLAN_1
 62
     2
  6
CONTINUOUS
 10
-0.825697
 20
-0.656744
  0
VERTEX
  8
PLAN_1
 62
     2
  6
CONTINUOUS
 10
-0.825697
 20
-0.620673
  0
VERTEX
  8
PLAN_1
 62
     2
  6
CONTINUOUS
 10
-0.833106
 20
-0.620673
  0
VERTEX
  8
PLAN_1
 62
     2
  6
CONTINUOUS
 10
-0.833106
 20
-0.613260
  0
VERTEX
  8
PLAN_1
 62
     2
  6
CONTINUOUS
 10
-0.825697
 20
-0.613260
  0
VERTEX
  8
PLAN_1
 62
     2
  6
CONTINUOUS
 10
-0.825697
 20
-0.597945
  0
VERTEX
  8
PLAN_1
 62
     2
  6
CONTINUOUS
 10
-0.816307
 20
-0.597945
  0
VERTEX
  8
PLAN_1
 62
     2
  6
CONTINUOUS
 10
-0.816307
 20
-0.613260
  0
VERTEX
  8
PLAN_1
 62
     2
  6
CONTINUOUS
 10
-0.807906
 20
-0.613260
  0
VERTEX
  8
PLAN_1
 62
     2
  6
CONTINUOUS
 10
-0.807906
 20
-0.620673
  0
VERTEX
  8
PLAN_1
 62
     2
  6
CONTINUOUS
 10
-0.816307
 20
-0.620673
  0
SEQEND
  8
0
  0
POLYLINE
  8
PLAN_1
 62
     2
  6
CONTINUOUS
 66
     1
 40
0.003000
 41
0.003000
  0
VERTEX
  8
PLAN_1
 62
     2
  6
CONTINUOUS
 10
-0.763437
 20
-0.667614
  0
VERTEX
  8
PLAN_1
 62
     2
  6
CONTINUOUS
 10
-0.763437
 20
-0.659709
  0
VERTEX
  8
PLAN_1
 62
     2
  6
CONTINUOUS
 10
-0.764917
 20
-0.661685
  0
VERTEX
  8
PLAN_1
 62
     2
  6
CONTINUOUS
 10
-0.766402
 20
-0.663661
  0
VERTEX
  8
PLAN_1
 62
     2
  6
CONTINUOUS
 10
-0.768378
 20
-0.665638
  0
VERTEX
  8
PLAN_1
 62
     2
  6
CONTINUOUS
 10
-0.770354
 20
-0.666626
  0
VERTEX
  8
PLAN_1
 62
     2
  6
CONTINUOUS
 10
-0.772331
 20
-0.668110
  0
VERTEX
  8
PLAN_1
 62
     2
  6
CONTINUOUS
 10
-0.774799
 20
-0.668602
  0
VERTEX
  8
PLAN_1
 62
     2
  6
CONTINUOUS
 10
-0.777764
 20
-0.669098
  0
VERTEX
  8
PLAN_1
 62
     2
  6
CONTINUOUS
 10
-0.780728
 20
-0.669098
  0
VERTEX
  8
PLAN_1
 62
     2
  6
CONTINUOUS
 10
-0.783697
 20
-0.669098
  0
VERTEX
  8
PLAN_1
 62
     2
  6
CONTINUOUS
 10
-0.786661
 20
-0.668602
  0
VERTEX
  8
PLAN_1
 62
     2
  6
CONTINUOUS
 10
-0.790118
 20
-0.667614
  0
VERTEX
  8
PLAN_1
 62
     2
  6
CONTINUOUS
 10
-0.792591
 20
-0.665638
  0
VERTEX
  8
PLAN_1
 62
     2
  6
CONTINUOUS
 10
-0.795059
 20
-0.663661
  0
VERTEX
  8
PLAN_1
 62
     2
  6
CONTINUOUS
 10
-0.797035
 20
-0.660697
  0
VERTEX
  8
PLAN_1
 62
     2
  6
CONTINUOUS
 10
-0.798024
 20
-0.656744
  0
VERTEX
  8
PLAN_1
 62
     2
  6
CONTINUOUS
 10
-0.798520
 20
-0.652299
  0
VERTEX
  8
PLAN_1
 62
     2
  6
CONTINUOUS
 10
-0.798520
 20
-0.613260
  0
VERTEX
  8
PLAN_1
 62
     2
  6
CONTINUOUS
 10
-0.789130
 20
-0.613260
  0
VERTEX
  8
PLAN_1
 62
     2
  6
CONTINUOUS
 10
-0.789130
 20
-0.649335
  0
VERTEX
  8
PLAN_1
 62
     2
  6
CONTINUOUS
 10
-0.789130
 20
-0.652299
  0
VERTEX
  8
PLAN_1
 62
     2
  6
CONTINUOUS
 10
-0.788638
 20
-0.655264
  0
VERTEX
  8
PLAN_1
 62
     2
  6
CONTINUOUS
 10
-0.787650
 20
-0.657240
  0
VERTEX
  8
PLAN_1
 62
     2
  6
CONTINUOUS
 10
-0.786165
 20
-0.658720
  0
VERTEX
  8
PLAN_1
 62
     2
  6
CONTINUOUS
 10
-0.784685
 20
-0.660205
  0
VERTEX
  8
PLAN_1
 62
     2
  6
CONTINUOUS
 10
-0.782709
 20
-0.660697
  0
VERTEX
  8
PLAN_1
 62
     2
  6
CONTINUOUS
 10
-0.780728
 20
-0.661193
  0
VERTEX
  8
PLAN_1
 62
     2
  6
CONTINUOUS
 10
-0.778752
 20
-0.661193
  0
VERTEX
  8
PLAN_1
 62
     2
  6
CONTINUOUS
 10
-0.774799
 20
-0.660697
  0
VERTEX
  8
PLAN_1
 62
     2
  6
CONTINUOUS
 10
-0.771343
 20
-0.659709
  0
VERTEX
  8
PLAN_1
 62
     2
  6
CONTINUOUS
 10
-0.768870
 20
-0.657732
  0
VERTEX
  8
PLAN_1
 62
     2
  6
CONTINUOUS
 10
-0.766894
 20
-0.655264
  0
VERTEX
  8
PLAN_1
 62
     2
  6
CONTINUOUS
 10
-0.765413
 20
-0.652299
  0
VERTEX
  8
PLAN_1
 62
     2
  6
CONTINUOUS
 10
-0.764425
 20
-0.649335
  0
VERTEX
  8
PLAN_1
 62
     2
  6
CONTINUOUS
 10
-0.763929
 20
-0.646366
  0
VERTEX
  8
PLAN_1
 62
     2
  6
CONTINUOUS
 10
-0.763929
 20
-0.643402
  0
VERTEX
  8
PLAN_1
 62
     2
  6
CONTINUOUS
 10
-0.763929
 20
-0.613260
  0
VERTEX
  8
PLAN_1
 62
     2
  6
CONTINUOUS
 10
-0.754543
 20
-0.613260
  0
VERTEX
  8
PLAN_1
 62
     2
  6
CONTINUOUS
 10
-0.754543
 20
-0.667614
  0
VERTEX
  8
PLAN_1
 62
     2
  6
CONTINUOUS
 10
-0.763437
 20
-0.667614
  0
SEQEND
  8
0
  0
POLYLINE
  8
PLAN_1
 62
     2
  6
CONTINUOUS
 66
     1
 40
0.003000
 41
0.003000
  0
VERTEX
  8
PLAN_1
 62
     2
  6
CONTINUOUS
 10
-0.741693
 20
-0.667614
  0
VERTEX
  8
PLAN_1
 62
     2
  6
CONTINUOUS
 10
-0.741693
 20
-0.593004
  0
VERTEX
  8
PLAN_1
 62
     2
  6
CONTINUOUS
 10
-0.732307
 20
-0.593004
  0
VERTEX
  8
PLAN_1
 62
     2
  6
CONTINUOUS
 10
-0.732307
 20
-0.620177
  0
VERTEX
  8
PLAN_1
 62
     2
  6
CONTINUOUS
 10
-0.730823
 20
-0.618201
  0
VERTEX
  8
PLAN_1
 62
     2
  6
CONTINUOUS
 10
-0.728846
 20
-0.616720
  0
VERTEX
  8
PLAN_1
 62
     2
  6
CONTINUOUS
 10
-0.727366
 20
-0.615236
  0
VERTEX
  8
PLAN_1
 62
     2
  6
CONTINUOUS
 10
-0.725386
 20
-0.613756
  0
VERTEX
  8
PLAN_1
 62
     2
  6
CONTINUOUS
 10
-0.723409
 20
-0.612768
  0
VERTEX
  8
PLAN_1
 62
     2
  6
CONTINUOUS
 10
-0.720941
 20
-0.612272
  0
VERTEX
  8
PLAN_1
 62
     2
  6
CONTINUOUS
 10
-0.718965
 20
-0.611780
  0
VERTEX
  8
PLAN_1
 62
     2
  6
CONTINUOUS
 10
-0.716492
 20
-0.611780
  0
VERTEX
  8
PLAN_1
 62
     2
  6
CONTINUOUS
 10
-0.714024
 20
-0.611780
  0
VERTEX
  8
PLAN_1
 62
     2
  6
CONTINUOUS
 10
-0.711551
 20
-0.612272
  0
VERTEX
  8
PLAN_1
 62
     2
  6
CONTINUOUS
 10
-0.709083
 20
-0.612768
  0
VERTEX
  8
PLAN_1
 62
     2
  6
CONTINUOUS
 10
-0.707106
 20
-0.613756
  0
VERTEX
  8
PLAN_1
 62
     2
  6
CONTINUOUS
 10
-0.704634
 20
-0.615236
  0
VERTEX
  8
PLAN_1
 62
     2
  6
CONTINUOUS
 10
-0.703154
 20
-0.616224
  0
VERTEX
  8
PLAN_1
 62
     2
  6
CONTINUOUS
 10
-0.701177
 20
-0.617709
  0
VERTEX
  8
PLAN_1
 62
     2
  6
CONTINUOUS
 10
-0.699693
 20
-0.619685
  0
VERTEX
  8
PLAN_1
 62
     2
  6
CONTINUOUS
 10
-0.697220
 20
-0.623638
  0
VERTEX
  8
PLAN_1
 62
     2
  6
CONTINUOUS
 10
-0.695244
 20
-0.628087
  0
VERTEX
  8
PLAN_1
 62
     2
  6
CONTINUOUS
 10
-0.694256
 20
-0.633520
  0
VERTEX
  8
PLAN_1
 62
     2
  6
CONTINUOUS
 10
-0.693764
 20
-0.638957
  0
VERTEX
  8
PLAN_1
 62
     2
  6
CONTINUOUS
 10
-0.694256
 20
-0.643898
  0
VERTEX
  8
PLAN_1
 62
     2
  6
CONTINUOUS
 10
-0.694752
 20
-0.649335
  0
VERTEX
  8
PLAN_1
 62
     2
  6
CONTINUOUS
 10
-0.696728
 20
-0.654276
  0
VERTEX
  8
PLAN_1
 62
     2
  6
CONTINUOUS
 10
-0.698705
 20
-0.659217
  0
VERTEX
  8
PLAN_1
 62
     2
  6
CONTINUOUS
 10
-0.700189
 20
-0.661193
  0
VERTEX
  8
PLAN_1
 62
     2
  6
CONTINUOUS
 10
-0.702165
 20
-0.663169
  0
VERTEX
  8
PLAN_1
 62
     2
  6
CONTINUOUS
 10
-0.704142
 20
-0.664650
  0
VERTEX
  8
PLAN_1
 62
     2
  6
CONTINUOUS
 10
-0.706118
 20
-0.666134
  0
VERTEX
  8
PLAN_1
 62
     2
  6
CONTINUOUS
 10
-0.708587
 20
-0.667614
  0
VERTEX
  8
PLAN_1
 62
     2
  6
CONTINUOUS
 10
-0.711551
 20
-0.668602
  0
VERTEX
  8
PLAN_1
 62
     2
  6
CONTINUOUS
 10
-0.714516
 20
-0.669098
  0
VERTEX
  8
PLAN_1
 62
     2
  6
CONTINUOUS
 10
-0.717976
 20
-0.669098
  0
VERTEX
  8
PLAN_1
 62
     2
  6
CONTINUOUS
 10
-0.720941
 20
-0.669098
  0
VERTEX
  8
PLAN_1
 62
     2
  6
CONTINUOUS
 10
-0.723906
 20
-0.668602
  0
VERTEX
  8
PLAN_1
 62
     2
  6
CONTINUOUS
 10
-0.725882
 20
-0.667614
  0
VERTEX
  8
PLAN_1
 62
     2
  6
CONTINUOUS
 10
-0.727858
 20
-0.666134
  0
VERTEX
  8
PLAN_1
 62
     2
  6
CONTINUOUS
 10
-0.729835
 20
-0.665146
  0
VERTEX
  8
PLAN_1
 62
     2
  6
CONTINUOUS
 10
-0.730823
 20
-0.663661
  0
VERTEX
  8
PLAN_1
 62
     2
  6
CONTINUOUS
 10
-0.731811
 20
-0.662181
  0
VERTEX
  8
PLAN_1
 62
     2
  6
CONTINUOUS
 10
-0.732799
 20
-0.661193
  0
VERTEX
  8
PLAN_1
 62
     2
  6
CONTINUOUS
 10
-0.732799
 20
-0.667614
  0
VERTEX
  8
PLAN_1
 62
     2
  6
CONTINUOUS
 10
-0.741693
 20
-0.667614
  0
SEQEND
  8
0
  0
POLYLINE
  8
PLAN_1
 62
     2
  6
CONTINUOUS
 66
     1
 40
0.003000
 41
0.003000
  0
VERTEX
  8
PLAN_1
 62
     2
  6
CONTINUOUS
 10
-0.717976
 20
-0.620177
  0
VERTEX
  8
PLAN_1
 62
     2
  6
CONTINUOUS
 10
-0.720445
 20
-0.620177
  0
VERTEX
  8
PLAN_1
 62
     2
  6
CONTINUOUS
 10
-0.722421
 20
-0.620673
  0
VERTEX
  8
PLAN_1
 62
     2
  6
CONTINUOUS
 10
-0.724398
 20
-0.621169
  0
VERTEX
  8
PLAN_1
 62
     2
  6
CONTINUOUS
 10
-0.725882
 20
-0.622157
  0
VERTEX
  8
PLAN_1
 62
     2
  6
CONTINUOUS
 10
-0.728846
 20
-0.625122
  0
VERTEX
  8
PLAN_1
 62
     2
  6
CONTINUOUS
 10
-0.730331
 20
-0.628087
  0
VERTEX
  8
PLAN_1
 62
     2
  6
CONTINUOUS
 10
-0.731811
 20
-0.632039
  0
VERTEX
  8
PLAN_1
 62
     2
  6
CONTINUOUS
 10
-0.732307
 20
-0.635496
  0
VERTEX
  8
PLAN_1
 62
     2
  6
CONTINUOUS
 10
-0.732799
 20
-0.639449
  0
VERTEX
  8
PLAN_1
 62
     2
  6
CONTINUOUS
 10
-0.732799
 20
-0.642909
  0
VERTEX
  8
PLAN_1
 62
     2
  6
CONTINUOUS
 10
-0.732307
 20
-0.647850
  0
VERTEX
  8
PLAN_1
 62
     2
  6
CONTINUOUS
 10
-0.731319
 20
-0.651803
  0
VERTEX
  8
PLAN_1
 62
     2
  6
CONTINUOUS
 10
-0.729835
 20
-0.655264
  0
VERTEX
  8
PLAN_1
 62
     2
  6
CONTINUOUS
 10
-0.727366
 20
-0.657732
  0
VERTEX
  8
PLAN_1
 62
     2
  6
CONTINUOUS
 10
-0.725386
 20
-0.659217
  0
VERTEX
  8
PLAN_1
 62
     2
  6
CONTINUOUS
 10
-0.722917
 20
-0.660697
  0
VERTEX
  8
PLAN_1
 62
     2
  6
CONTINUOUS
 10
-0.720445
 20
-0.661193
  0
VERTEX
  8
PLAN_1
 62
     2
  6
CONTINUOUS
 10
-0.717976
 20
-0.661193
  0
VERTEX
  8
PLAN_1
 62
     2
  6
CONTINUOUS
 10
-0.714516
 20
-0.661193
  0
VERTEX
  8
PLAN_1
 62
     2
  6
CONTINUOUS
 10
-0.711551
 20
-0.659709
  0
VERTEX
  8
PLAN_1
 62
     2
  6
CONTINUOUS
 10
-0.709083
 20
-0.657732
  0
VERTEX
  8
PLAN_1
 62
     2
  6
CONTINUOUS
 10
-0.707106
 20
-0.655264
  0
VERTEX
  8
PLAN_1
 62
     2
  6
CONTINUOUS
 10
-0.705130
 20
-0.652299
  0
VERTEX
  8
PLAN_1
 62
     2
  6
CONTINUOUS
 10
-0.704142
 20
-0.648839
  0
VERTEX
  8
PLAN_1
 62
     2
  6
CONTINUOUS
 10
-0.703646
 20
-0.644886
  0
VERTEX
  8
PLAN_1
 62
     2
  6
CONTINUOUS
 10
-0.703154
 20
-0.640437
  0
VERTEX
  8
PLAN_1
 62
     2
  6
CONTINUOUS
 10
-0.703154
 20
-0.637472
  0
VERTEX
  8
PLAN_1
 62
     2
  6
CONTINUOUS
 10
-0.703646
 20
-0.634016
  0
VERTEX
  8
PLAN_1
 62
     2
  6
CONTINUOUS
 10
-0.704142
 20
-0.631051
  0
VERTEX
  8
PLAN_1
 62
     2
  6
CONTINUOUS
 10
-0.705622
 20
-0.627591
  0
VERTEX
  8
PLAN_1
 62
     2
  6
CONTINUOUS
 10
-0.707106
 20
-0.624626
  0
VERTEX
  8
PLAN_1
 62
     2
  6
CONTINUOUS
 10
-0.710071
 20
-0.622157
  0
VERTEX
  8
PLAN_1
 62
     2
  6
CONTINUOUS
 10
-0.711551
 20
-0.621169
  0
VERTEX
  8
PLAN_1
 62
     2
  6
CONTINUOUS
 10
-0.713528
 20
-0.620673
  0
VERTEX
  8
PLAN_1
 62
     2
  6
CONTINUOUS
 10
-0.715504
 20
-0.620177
  0
VERTEX
  8
PLAN_1
 62
     2
  6
CONTINUOUS
 10
-0.717976
 20
-0.620177
  0
SEQEND
  8
0
  0
POLYLINE
  8
PLAN_1
 62
     2
  6
CONTINUOUS
 66
     1
 40
0.003000
 41
0.003000
  0
VERTEX
  8
PLAN_1
 62
     2
  6
CONTINUOUS
 10
-0.636937
 20
-0.650815
  0
VERTEX
  8
PLAN_1
 62
     2
  6
CONTINUOUS
 10
-0.636937
 20
-0.651803
  0
VERTEX
  8
PLAN_1
 62
     2
  6
CONTINUOUS
 10
-0.637433
 20
-0.653287
  0
VERTEX
  8
PLAN_1
 62
     2
  6
CONTINUOUS
 10
-0.638421
 20
-0.655264
  0
VERTEX
  8
PLAN_1
 62
     2
  6
CONTINUOUS
 10
-0.639409
 20
-0.657240
  0
VERTEX
  8
PLAN_1
 62
     2
  6
CONTINUOUS
 10
-0.640398
 20
-0.659709
  0
VERTEX
  8
PLAN_1
 62
     2
  6
CONTINUOUS
 10
-0.641882
 20
-0.661685
  0
VERTEX
  8
PLAN_1
 62
     2
  6
CONTINUOUS
 10
-0.643858
 20
-0.663661
  0
VERTEX
  8
PLAN_1
 62
     2
  6
CONTINUOUS
 10
-0.646327
 20
-0.665638
  0
VERTEX
  8
PLAN_1
 62
     2
  6
CONTINUOUS
 10
-0.647315
 20
-0.666134
  0
VERTEX
  8
PLAN_1
 62
     2
  6
CONTINUOUS
 10
-0.648799
 20
-0.666626
  0
VERTEX
  8
PLAN_1
 62
     2
  6
CONTINUOUS
 10
-0.649787
 20
-0.667614
  0
VERTEX
  8
PLAN_1
 62
     2
  6
CONTINUOUS
 10
-0.651764
 20
-0.668110
  0
VERTEX
  8
PLAN_1
 62
     2
  6
CONTINUOUS
 10
-0.653244
 20
-0.668602
  0
VERTEX
  8
PLAN_1
 62
     2
  6
CONTINUOUS
 10
-0.655717
 20
-0.669098
  0
VERTEX
  8
PLAN_1
 62
     2
  6
CONTINUOUS
 10
-0.658185
 20
-0.669098
  0
VERTEX
  8
PLAN_1
 62
     2
  6
CONTINUOUS
 10
-0.661150
 20
-0.669098
  0
VERTEX
  8
PLAN_1
 62
     2
  6
CONTINUOUS
 10
-0.664114
 20
-0.669098
  0
VERTEX
  8
PLAN_1
 62
     2
  6
CONTINUOUS
 10
-0.666587
 20
-0.668602
  0
VERTEX
  8
PLAN_1
 62
     2
  6
CONTINUOUS
 10
-0.669055
 20
-0.668110
  0
VERTEX
  8
PLAN_1
 62
     2
  6
CONTINUOUS
 10
-0.671528
 20
-0.667122
  0
VERTEX
  8
PLAN_1
 62
     2
  6
CONTINUOUS
 10
-0.673504
 20
-0.666134
  0
VERTEX
  8
PLAN_1
 62
     2
  6
CONTINUOUS
 10
-0.675480
 20
-0.664650
  0
VERTEX
  8
PLAN_1
 62
     2
  6
CONTINUOUS
 10
-0.677457
 20
-0.663169
  0
VERTEX
  8
PLAN_1
 62
     2
  6
CONTINUOUS
 10
-0.678941
 20
-0.661685
  0
VERTEX
  8
PLAN_1
 62
     2
  6
CONTINUOUS
 10
-0.681906
 20
-0.657732
  0
VERTEX
  8
PLAN_1
 62
     2
  6
CONTINUOUS
 10
-0.683882
 20
-0.652791
  0
VERTEX
  8
PLAN_1
 62
     2
  6
CONTINUOUS
 10
-0.685362
 20
-0.647850
  0
VERTEX
  8
PLAN_1
 62
     2
  6
CONTINUOUS
 10
-0.685362
 20
-0.641921
  0
VERTEX
  8
PLAN_1
 62
     2
  6
CONTINUOUS
 10
-0.685362
 20
-0.635992
  0
VERTEX
  8
PLAN_1
 62
     2
  6
CONTINUOUS
 10
-0.683882
 20
-0.630063
  0
VERTEX
  8
PLAN_1
 62
     2
  6
CONTINUOUS
 10
-0.683386
 20
-0.627591
  0
VERTEX
  8
PLAN_1
 62
     2
  6
CONTINUOUS
 10
-0.681906
 20
-0.625122
  0
VERTEX
  8
PLAN_1
 62
     2
  6
CONTINUOUS
 10
-0.680917
 20
-0.622650
  0
VERTEX
  8
PLAN_1
 62
     2
  6
CONTINUOUS
 10
-0.679433
 20
-0.620673
  0
VERTEX
  8
PLAN_1
 62
     2
  6
CONTINUOUS
 10
-0.677457
 20
-0.618697
  0
VERTEX
  8
PLAN_1
 62
     2
  6
CONTINUOUS
 10
-0.675480
 20
-0.616720
  0
VERTEX
  8
PLAN_1
 62
     2
  6
CONTINUOUS
 10
-0.673504
 20
-0.615236
  0
VERTEX
  8
PLAN_1
 62
     2
  6
CONTINUOUS
 10
-0.671035
 20
-0.614248
  0
VERTEX
  8
PLAN_1
 62
     2
  6
CONTINUOUS
 10
-0.668563
 20
-0.613260
  0
VERTEX
  8
PLAN_1
 62
     2
  6
CONTINUOUS
 10
-0.665598
 20
-0.612272
  0
VERTEX
  8
PLAN_1
 62
     2
  6
CONTINUOUS
 10
-0.662634
 20
-0.611780
  0
VERTEX
  8
PLAN_1
 62
     2
  6
CONTINUOUS
 10
-0.659669
 20
-0.611780
  0
VERTEX
  8
PLAN_1
 62
     2
  6
CONTINUOUS
 10
-0.656705
 20
-0.611780
  0
VERTEX
  8
PLAN_1
 62
     2
  6
CONTINUOUS
 10
-0.653740
 20
-0.612272
  0
VERTEX
  8
PLAN_1
 62
     2
  6
CONTINUOUS
 10
-0.651268
 20
-0.613260
  0
VERTEX
  8
PLAN_1
 62
     2
  6
CONTINUOUS
 10
-0.649291
 20
-0.614248
  0
VERTEX
  8
PLAN_1
 62
     2
  6
CONTINUOUS
 10
-0.647315
 20
-0.615236
  0
VERTEX
  8
PLAN_1
 62
     2
  6
CONTINUOUS
 10
-0.645339
 20
-0.616720
  0
VERTEX
  8
PLAN_1
 62
     2
  6
CONTINUOUS
 10
-0.643362
 20
-0.618697
  0
VERTEX
  8
PLAN_1
 62
     2
  6
CONTINUOUS
 10
-0.641882
 20
-0.620177
  0
VERTEX
  8
PLAN_1
 62
     2
  6
CONTINUOUS
 10
-0.640398
 20
-0.622650
  0
VERTEX
  8
PLAN_1
 62
     2
  6
CONTINUOUS
 10
-0.639409
 20
-0.625122
  0
VERTEX
  8
PLAN_1
 62
     2
  6
CONTINUOUS
 10
-0.638421
 20
-0.627591
  0
VERTEX
  8
PLAN_1
 62
     2
  6
CONTINUOUS
 10
-0.637433
 20
-0.630555
  0
VERTEX
  8
PLAN_1
 62
     2
  6
CONTINUOUS
 10
-0.636445
 20
-0.636484
  0
VERTEX
  8
PLAN_1
 62
     2
  6
CONTINUOUS
 10
-0.635949
 20
-0.643402
  0
VERTEX
  8
PLAN_1
 62
     2
  6
CONTINUOUS
 10
-0.675976
 20
-0.643402
  0
VERTEX
  8
PLAN_1
 62
     2
  6
CONTINUOUS
 10
-0.675480
 20
-0.647354
  0
VERTEX
  8
PLAN_1
 62
     2
  6
CONTINUOUS
 10
-0.674988
 20
-0.651311
  0
VERTEX
  8
PLAN_1
 62
     2
  6
CONTINUOUS
 10
-0.673504
 20
-0.654276
  0
VERTEX
  8
PLAN_1
 62
     2
  6
CONTINUOUS
 10
-0.672024
 20
-0.656744
  0
VERTEX
  8
PLAN_1
 62
     2
  6
CONTINUOUS
 10
-0.669551
 20
-0.658720
  0
VERTEX
  8
PLAN_1
 62
     2
  6
CONTINUOUS
 10
-0.667079
 20
-0.660205
  0
VERTEX
  8
PLAN_1
 62
     2
  6
CONTINUOUS
 10
-0.663622
 20
-0.661193
  0
VERTEX
  8
PLAN_1
 62
     2
  6
CONTINUOUS
 10
-0.660161
 20
-0.661193
  0
VERTEX
  8
PLAN_1
 62
     2
  6
CONTINUOUS
 10
-0.656705
 20
-0.661193
  0
VERTEX
  8
PLAN_1
 62
     2
  6
CONTINUOUS
 10
-0.654232
 20
-0.660205
  0
VERTEX
  8
PLAN_1
 62
     2
  6
CONTINUOUS
 10
-0.651764
 20
-0.659217
  0
VERTEX
  8
PLAN_1
 62
     2
  6
CONTINUOUS
 10
-0.649787
 20
-0.657732
  0
VERTEX
  8
PLAN_1
 62
     2
  6
CONTINUOUS
 10
-0.648303
 20
-0.655756
  0
VERTEX
  8
PLAN_1
 62
     2
  6
CONTINUOUS
 10
-0.646823
 20
-0.654276
  0
VERTEX
  8
PLAN_1
 62
     2
  6
CONTINUOUS
 10
-0.646327
 20
-0.652299
  0
VERTEX
  8
PLAN_1
 62
     2
  6
CONTINUOUS
 10
-0.645835
 20
-0.650815
  0
VERTEX
  8
PLAN_1
 62
     2
  6
CONTINUOUS
 10
-0.636937
 20
-0.650815
  0
SEQEND
  8
0
  0
POLYLINE
  8
PLAN_1
 62
     2
  6
CONTINUOUS
 66
     1
 40
0.003000
 41
0.003000
  0
VERTEX
  8
PLAN_1
 62
     2
  6
CONTINUOUS
 10
-0.645339
 20
-0.635992
  0
VERTEX
  8
PLAN_1
 62
     2
  6
CONTINUOUS
 10
-0.645835
 20
-0.633028
  0
VERTEX
  8
PLAN_1
 62
     2
  6
CONTINUOUS
 10
-0.646327
 20
-0.630063
  0
VERTEX
  8
PLAN_1
 62
     2
  6
CONTINUOUS
 10
-0.647811
 20
-0.627591
  0
VERTEX
  8
PLAN_1
 62
     2
  6
CONTINUOUS
 10
-0.649291
 20
-0.625122
  0
VERTEX
  8
PLAN_1
 62
     2
  6
CONTINUOUS
 10
-0.651268
 20
-0.623146
  0
VERTEX
  8
PLAN_1
 62
     2
  6
CONTINUOUS
 10
-0.653740
 20
-0.621169
  0
VERTEX
  8
PLAN_1
 62
     2
  6
CONTINUOUS
 10
-0.656705
 20
-0.620177
  0
VERTEX
  8
PLAN_1
 62
     2
  6
CONTINUOUS
 10
-0.660657
 20
-0.620177
  0
VERTEX
  8
PLAN_1
 62
     2
  6
CONTINUOUS
 10
-0.663622
 20
-0.620177
  0
VERTEX
  8
PLAN_1
 62
     2
  6
CONTINUOUS
 10
-0.666587
 20
-0.621169
  0
VERTEX
  8
PLAN_1
 62
     2
  6
CONTINUOUS
 10
-0.669055
 20
-0.623146
  0
VERTEX
  8
PLAN_1
 62
     2
  6
CONTINUOUS
 10
-0.671528
 20
-0.625122
  0
VERTEX
  8
PLAN_1
 62
     2
  6
CONTINUOUS
 10
-0.673012
 20
-0.627591
  0
VERTEX
  8
PLAN_1
 62
     2
  6
CONTINUOUS
 10
-0.674492
 20
-0.630063
  0
VERTEX
  8
PLAN_1
 62
     2
  6
CONTINUOUS
 10
-0.675480
 20
-0.633028
  0
VERTEX
  8
PLAN_1
 62
     2
  6
CONTINUOUS
 10
-0.675976
 20
-0.635992
  0
VERTEX
  8
PLAN_1
 62
     2
  6
CONTINUOUS
 10
-0.645339
 20
-0.635992
  0
SEQEND
  8
0
  0
POLYLINE
  8
PLAN_1
 62
     2
  6
CONTINUOUS
 66
     1
 40
0.003000
 41
0.003000
  0
VERTEX
  8
PLAN_1
 62
     2
  6
CONTINUOUS
 10
-0.565783
 20
-0.667614
  0
VERTEX
  8
PLAN_1
 62
     2
  6
CONTINUOUS
 10
-0.575173
 20
-0.667614
  0
VERTEX
  8
PLAN_1
 62
     2
  6
CONTINUOUS
 10
-0.575173
 20
-0.615732
  0
VERTEX
  8
PLAN_1
 62
     2
  6
CONTINUOUS
 10
-0.592469
 20
-0.615732
  0
VERTEX
  8
PLAN_1
 62
     2
  6
CONTINUOUS
 10
-0.592469
 20
-0.608319
  0
VERTEX
  8
PLAN_1
 62
     2
  6
CONTINUOUS
 10
-0.588516
 20
-0.608319
  0
VERTEX
  8
PLAN_1
 62
     2
  6
CONTINUOUS
 10
-0.584559
 20
-0.607827
  0
VERTEX
  8
PLAN_1
 62
     2
  6
CONTINUOUS
 10
-0.581594
 20
-0.606839
  0
VERTEX
  8
PLAN_1
 62
     2
  6
CONTINUOUS
 10
-0.579126
 20
-0.605850
  0
VERTEX
  8
PLAN_1
 62
     2
  6
CONTINUOUS
 10
-0.577150
 20
-0.603874
  0
VERTEX
  8
PLAN_1
 62
     2
  6
CONTINUOUS
 10
-0.575173
 20
-0.601898
  0
VERTEX
  8
PLAN_1
 62
     2
  6
CONTINUOUS
 10
-0.574185
 20
-0.598437
  0
VERTEX
  8
PLAN_1
 62
     2
  6
CONTINUOUS
 10
-0.572701
 20
-0.594484
  0
VERTEX
  8
PLAN_1
 62
     2
  6
CONTINUOUS
 10
-0.565783
 20
-0.594484
  0
VERTEX
  8
PLAN_1
 62
     2
  6
CONTINUOUS
 10
-0.565783
 20
-0.667614
  0
SEQEND
  8
0
  0
SOLID
  8
PLAN_1
 62
     2
 10
-0.539594
 20
-0.669591
 11
-0.547008
 21
-0.669591
 12
-0.514394
 22
-0.591024
 13
-0.521311
 23
-0.591024
  0
POLYLINE
  8
PLAN_1
 62
     2
  6
CONTINUOUS
 66
     1
 40
0.003000
 41
0.003000
  0
VERTEX
  8
PLAN_1
 62
     2
  6
CONTINUOUS
 10
-0.539594
 20
-0.669591
  0
VERTEX
  8
PLAN_1
 62
     2
  6
CONTINUOUS
 10
-0.547008
 20
-0.669591
  0
VERTEX
  8
PLAN_1
 62
     2
  6
CONTINUOUS
 10
-0.521311
 20
-0.591024
  0
VERTEX
  8
PLAN_1
 62
     2
  6
CONTINUOUS
 10
-0.514394
 20
-0.591024
  0
VERTEX
  8
PLAN_1
 62
     2
  6
CONTINUOUS
 10
-0.539594
 20
-0.669591
  0
SEQEND
  8
0
  0
POLYLINE
  8
PLAN_1
 62
     2
  6
CONTINUOUS
 66
     1
 40
0.003000
 41
0.003000
  0
VERTEX
  8
PLAN_1
 62
     2
  6
CONTINUOUS
 10
-0.511429
 20
-0.620673
  0
VERTEX
  8
PLAN_1
 62
     2
  6
CONTINUOUS
 10
-0.511429
 20
-0.616720
  0
VERTEX
  8
PLAN_1
 62
     2
  6
CONTINUOUS
 10
-0.510937
 20
-0.612768
  0
VERTEX
  8
PLAN_1
 62
     2
  6
CONTINUOUS
 10
-0.509949
 20
-0.609803
  0
VERTEX
  8
PLAN_1
 62
     2
  6
CONTINUOUS
 10
-0.508465
 20
-0.606839
  0
VERTEX
  8
PLAN_1
 62
     2
  6
CONTINUOUS
 10
-0.507476
 20
-0.604366
  0
VERTEX
  8
PLAN_1
 62
     2
  6
CONTINUOUS
 10
-0.505500
 20
-0.601898
  0
VERTEX
  8
PLAN_1
 62
     2
  6
CONTINUOUS
 10
-0.504020
 20
-0.600413
  0
VERTEX
  8
PLAN_1
 62
     2
  6
CONTINUOUS
 10
-0.502039
 20
-0.598933
  0
VERTEX
  8
PLAN_1
 62
     2
  6
CONTINUOUS
 10
-0.497594
 20
-0.596461
  0
VERTEX
  8
PLAN_1
 62
     2
  6
CONTINUOUS
 10
-0.493642
 20
-0.595472
  0
VERTEX
  8
PLAN_1
 62
     2
  6
CONTINUOUS
 10
-0.489689
 20
-0.594980
  0
VERTEX
  8
PLAN_1
 62
     2
  6
CONTINUOUS
 10
-0.486228
 20
-0.594484
  0
VERTEX
  8
PLAN_1
 62
     2
  6
CONTINUOUS
 10
-0.481783
 20
-0.594980
  0
VERTEX
  8
PLAN_1
 62
     2
  6
CONTINUOUS
 10
-0.477335
 20
-0.595969
  0
VERTEX
  8
PLAN_1
 62
     2
  6
CONTINUOUS
 10
-0.473382
 20
-0.597945
  0
VERTEX
  8
PLAN_1
 62
     2
  6
CONTINUOUS
 10
-0.469921
 20
-0.600413
  0
VERTEX
  8
PLAN_1
 62
     2
  6
CONTINUOUS
 10
-0.467453
 20
-0.603378
  0
VERTEX
  8
PLAN_1
 62
     2
  6
CONTINUOUS
 10
-0.464980
 20
-0.607331
  0
VERTEX
  8
PLAN_1
 62
     2
  6
CONTINUOUS
 10
-0.463992
 20
-0.611780
  0
VERTEX
  8
PLAN_1
 62
     2
  6
CONTINUOUS
 10
-0.463500
 20
-0.616224
  0
VERTEX
  8
PLAN_1
 62
     2
  6
CONTINUOUS
 10
-0.463992
 20
-0.621169
  0
VERTEX
  8
PLAN_1
 62
     2
  6
CONTINUOUS
 10
-0.464980
 20
-0.625122
  0
VERTEX
  8
PLAN_1
 62
     2
  6
CONTINUOUS
 10
-0.466465
 20
-0.628579
  0
VERTEX
  8
PLAN_1
 62
     2
  6
CONTINUOUS
 10
-0.468933
 20
-0.631543
  0
VERTEX
  8
PLAN_1
 62
     2
  6
CONTINUOUS
 10
-0.471898
 20
-0.634016
  0
VERTEX
  8
PLAN_1
 62
     2
  6
CONTINUOUS
 10
-0.475358
 20
-0.636484
  0
VERTEX
  8
PLAN_1
 62
     2
  6
CONTINUOUS
 10
-0.478819
 20
-0.638957
  0
VERTEX
  8
PLAN_1
 62
     2
  6
CONTINUOUS
 10
-0.482772
 20
-0.640933
  0
VERTEX
  8
PLAN_1
 62
     2
  6
CONTINUOUS
 10
-0.490677
 20
-0.644886
  0
VERTEX
  8
PLAN_1
 62
     2
  6
CONTINUOUS
 10
-0.494134
 20
-0.647354
  0
VERTEX
  8
PLAN_1
 62
     2
  6
CONTINUOUS
 10
-0.496606
 20
-0.649335
  0
VERTEX
  8
PLAN_1
 62
     2
  6
CONTINUOUS
 10
-0.498583
 20
-0.651311
  0
VERTEX
  8
PLAN_1
 62
     2
  6
CONTINUOUS
 10
-0.500559
 20
-0.653287
  0
VERTEX
  8
PLAN_1
 62
     2
  6
CONTINUOUS
 10
-0.501547
 20
-0.654768
  0
VERTEX
  8
PLAN_1
 62
     2
  6
CONTINUOUS
 10
-0.502535
 20
-0.656252
  0
VERTEX
  8
PLAN_1
 62
     2
  6
CONTINUOUS
 10
-0.503031
 20
-0.657732
  0
VERTEX
  8
PLAN_1
 62
     2
  6
CONTINUOUS
 10
-0.503031
 20
-0.659217
  0
VERTEX
  8
PLAN_1
 62
     2
  6
CONTINUOUS
 10
-0.463500
 20
-0.659217
  0
VERTEX
  8
PLAN_1
 62
     2
  6
CONTINUOUS
 10
-0.463500
 20
-0.667614
  0
VERTEX
  8
PLAN_1
 62
     2
  6
CONTINUOUS
 10
-0.513406
 20
-0.667614
  0
VERTEX
  8
PLAN_1
 62
     2
  6
CONTINUOUS
 10
-0.512913
 20
-0.662181
  0
VERTEX
  8
PLAN_1
 62
     2
  6
CONTINUOUS
 10
-0.511925
 20
-0.657732
  0
VERTEX
  8
PLAN_1
 62
     2
  6
CONTINUOUS
 10
-0.510441
 20
-0.653287
  0
VERTEX
  8
PLAN_1
 62
     2
  6
CONTINUOUS
 10
-0.508465
 20
-0.649827
  0
VERTEX
  8
PLAN_1
 62
     2
  6
CONTINUOUS
 10
-0.505996
 20
-0.646366
  0
VERTEX
  8
PLAN_1
 62
     2
  6
CONTINUOUS
 10
-0.503031
 20
-0.643402
  0
VERTEX
  8
PLAN_1
 62
     2
  6
CONTINUOUS
 10
-0.499571
 20
-0.640933
  0
VERTEX
  8
PLAN_1
 62
     2
  6
CONTINUOUS
 10
-0.496110
 20
-0.638461
  0
VERTEX
  8
PLAN_1
 62
     2
  6
CONTINUOUS
 10
-0.486724
 20
-0.633028
  0
VERTEX
  8
PLAN_1
 62
     2
  6
CONTINUOUS
 10
-0.483760
 20
-0.631543
  0
VERTEX
  8
PLAN_1
 62
     2
  6
CONTINUOUS
 10
-0.481287
 20
-0.630063
  0
VERTEX
  8
PLAN_1
 62
     2
  6
CONTINUOUS
 10
-0.478819
 20
-0.628087
  0
VERTEX
  8
PLAN_1
 62
     2
  6
CONTINUOUS
 10
-0.476843
 20
-0.626602
  0
VERTEX
  8
PLAN_1
 62
     2
  6
CONTINUOUS
 10
-0.475358
 20
-0.624626
  0
VERTEX
  8
PLAN_1
 62
     2
  6
CONTINUOUS
 10
-0.474370
 20
-0.622157
  0
VERTEX
  8
PLAN_1
 62
     2
  6
CONTINUOUS
 10
-0.473382
 20
-0.619189
  0
VERTEX
  8
PLAN_1
 62
     2
  6
CONTINUOUS
 10
-0.473382
 20
-0.616224
  0
VERTEX
  8
PLAN_1
 62
     2
  6
CONTINUOUS
 10
-0.473382
 20
-0.613756
  0
VERTEX
  8
PLAN_1
 62
     2
  6
CONTINUOUS
 10
-0.473874
 20
-0.611283
  0
VERTEX
  8
PLAN_1
 62
     2
  6
CONTINUOUS
 10
-0.474866
 20
-0.609307
  0
VERTEX
  8
PLAN_1
 62
     2
  6
CONTINUOUS
 10
-0.476346
 20
-0.607331
  0
VERTEX
  8
PLAN_1
 62
     2
  6
CONTINUOUS
 10
-0.478323
 20
-0.605354
  0
VERTEX
  8
PLAN_1
 62
     2
  6
CONTINUOUS
 10
-0.480795
 20
-0.603874
  0
VERTEX
  8
PLAN_1
 62
     2
  6
CONTINUOUS
 10
-0.483760
 20
-0.603378
  0
VERTEX
  8
PLAN_1
 62
     2
  6
CONTINUOUS
 10
-0.487713
 20
-0.602886
  0
VERTEX
  8
PLAN_1
 62
     2
  6
CONTINUOUS
 10
-0.490181
 20
-0.602886
  0
VERTEX
  8
PLAN_1
 62
     2
  6
CONTINUOUS
 10
-0.492157
 20
-0.603378
  0
VERTEX
  8
PLAN_1
 62
     2
  6
CONTINUOUS
 10
-0.494134
 20
-0.603874
  0
VERTEX
  8
PLAN_1
 62
     2
  6
CONTINUOUS
 10
-0.495618
 20
-0.604862
  0
VERTEX
  8
PLAN_1
 62
     2
  6
CONTINUOUS
 10
-0.498087
 20
-0.607331
  0
VERTEX
  8
PLAN_1
 62
     2
  6
CONTINUOUS
 10
-0.500063
 20
-0.609803
  0
VERTEX
  8
PLAN_1
 62
     2
  6
CONTINUOUS
 10
-0.501051
 20
-0.612768
  0
VERTEX
  8
PLAN_1
 62
     2
  6
CONTINUOUS
 10
-0.502039
 20
-0.615732
  0
VERTEX
  8
PLAN_1
 62
     2
  6
CONTINUOUS
 10
-0.502039
 20
-0.618697
  0
VERTEX
  8
PLAN_1
 62
     2
  6
CONTINUOUS
 10
-0.502535
 20
-0.620673
  0
VERTEX
  8
PLAN_1
 62
     2
  6
CONTINUOUS
 10
-0.511429
 20
-0.620673
  0
SEQEND
  8
0
  0
SOLID
  8
PLAN_1
 62
     2
 10
-0.451146
 20
-0.593004
 11
-0.443240
 21
-0.593004
 12
-0.451146
 22
-0.619685
 13
-0.443240
 23
-0.619685
  0
POLYLINE
  8
PLAN_1
 62
     2
  6
CONTINUOUS
 66
     1
 40
0.003000
 41
0.003000
  0
VERTEX
  8
PLAN_1
 62
     2
  6
CONTINUOUS
 10
-0.451146
 20
-0.593004
  0
VERTEX
  8
PLAN_1
 62
     2
  6
CONTINUOUS
 10
-0.443240
 20
-0.593004
  0
VERTEX
  8
PLAN_1
 62
     2
  6
CONTINUOUS
 10
-0.443240
 20
-0.619685
  0
VERTEX
  8
PLAN_1
 62
     2
  6
CONTINUOUS
 10
-0.451146
 20
-0.619685
  0
VERTEX
  8
PLAN_1
 62
     2
  6
CONTINUOUS
 10
-0.451146
 20
-0.593004
  0
SEQEND
  8
0
  0
SOLID
  8
PLAN_1
 62
     2
 10
-0.436323
 20
-0.593004
 11
-0.428417
 21
-0.593004
 12
-0.436323
 22
-0.619685
 13
-0.428417
 23
-0.619685
  0
POLYLINE
  8
PLAN_1
 62
     2
  6
CONTINUOUS
 66
     1
 40
0.003000
 41
0.003000
  0
VERTEX
  8
PLAN_1
 62
     2
  6
CONTINUOUS
 10
-0.436323
 20
-0.593004
  0
VERTEX
  8
PLAN_1
 62
     2
  6
CONTINUOUS
 10
-0.428417
 20
-0.593004
  0
VERTEX
  8
PLAN_1
 62
     2
  6
CONTINUOUS
 10
-0.428417
 20
-0.619685
  0
VERTEX
  8
PLAN_1
 62
     2
  6
CONTINUOUS
 10
-0.436323
 20
-0.619685
  0
VERTEX
  8
PLAN_1
 62
     2
  6
CONTINUOUS
 10
-0.436323
 20
-0.593004
  0
SEQEND
  8
0
  0
POLYLINE
  8
PLAN_1
 62
     2
  6
CONTINUOUS
 66
     1
 40
0.003000
 41
0.003000
  0
VERTEX
  8
PLAN_1
 62
     2
  6
CONTINUOUS
 10
-0.335024
 20
-0.593004
  0
VERTEX
  8
PLAN_1
 62
     2
  6
CONTINUOUS
 10
-0.325142
 20
-0.593004
  0
VERTEX
  8
PLAN_1
 62
     2
  6
CONTINUOUS
 10
-0.325142
 20
-0.667614
  0
VERTEX
  8
PLAN_1
 62
     2
  6
CONTINUOUS
 10
-0.336508
 20
-0.667614
  0
VERTEX
  8
PLAN_1
 62
     2
  6
CONTINUOUS
 10
-0.374555
 20
-0.607331
  0
VERTEX
  8
PLAN_1
 62
     2
  6
CONTINUOUS
 10
-0.374555
 20
-0.667614
  0
VERTEX
  8
PLAN_1
 62
     2
  6
CONTINUOUS
 10
-0.384437
 20
-0.667614
  0
VERTEX
  8
PLAN_1
 62
     2
  6
CONTINUOUS
 10
-0.384437
 20
-0.593004
  0
VERTEX
  8
PLAN_1
 62
     2
  6
CONTINUOUS
 10
-0.372579
 20
-0.593004
  0
VERTEX
  8
PLAN_1
 62
     2
  6
CONTINUOUS
 10
-0.335024
 20
-0.653287
  0
VERTEX
  8
PLAN_1
 62
     2
  6
CONTINUOUS
 10
-0.335024
 20
-0.593004
  0
SEQEND
  8
0
  0
POLYLINE
  8
PLAN_1
 62
     2
  6
CONTINUOUS
 66
     1
 40
0.003000
 41
0.003000
  0
VERTEX
  8
PLAN_1
 62
     2
  6
CONTINUOUS
 10
-0.297965
 20
-0.667614
  0
VERTEX
  8
PLAN_1
 62
     2
  6
CONTINUOUS
 10
-0.308343
 20
-0.667614
  0
VERTEX
  8
PLAN_1
 62
     2
  6
CONTINUOUS
 10
-0.308343
 20
-0.593004
  0
VERTEX
  8
PLAN_1
 62
     2
  6
CONTINUOUS
 10
-0.274740
 20
-0.593004
  0
VERTEX
  8
PLAN_1
 62
     2
  6
CONTINUOUS
 10
-0.269799
 20
-0.593496
  0
VERTEX
  8
PLAN_1
 62
     2
  6
CONTINUOUS
 10
-0.265354
 20
-0.594484
  0
VERTEX
  8
PLAN_1
 62
     2
  6
CONTINUOUS
 10
-0.261402
 20
-0.596461
  0
VERTEX
  8
PLAN_1
 62
     2
  6
CONTINUOUS
 10
-0.258437
 20
-0.598933
  0
VERTEX
  8
PLAN_1
 62
     2
  6
CONTINUOUS
 10
-0.255965
 20
-0.601898
  0
VERTEX
  8
PLAN_1
 62
     2
  6
CONTINUOUS
 10
-0.253988
 20
-0.605850
  0
VERTEX
  8
PLAN_1
 62
     2
  6
CONTINUOUS
 10
-0.253000
 20
-0.609803
  0
VERTEX
  8
PLAN_1
 62
     2
  6
CONTINUOUS
 10
-0.252508
 20
-0.614248
  0
VERTEX
  8
PLAN_1
 62
     2
  6
CONTINUOUS
 10
-0.252508
 20
-0.618201
  0
VERTEX
  8
PLAN_1
 62
     2
  6
CONTINUOUS
 10
-0.253496
 20
-0.622157
  0
VERTEX
  8
PLAN_1
 62
     2
  6
CONTINUOUS
 10
-0.254976
 20
-0.625614
  0
VERTEX
  8
PLAN_1
 62
     2
  6
CONTINUOUS
 10
-0.257449
 20
-0.629075
  0
VERTEX
  8
PLAN_1
 62
     2
  6
CONTINUOUS
 10
-0.258929
 20
-0.630555
  0
VERTEX
  8
PLAN_1
 62
     2
  6
CONTINUOUS
 10
-0.260413
 20
-0.632039
  0
VERTEX
  8
PLAN_1
 62
     2
  6
CONTINUOUS
 10
-0.262390
 20
-0.633028
  0
VERTEX
  8
PLAN_1
 62
     2
  6
CONTINUOUS
 10
-0.264366
 20
-0.634016
  0
VERTEX
  8
PLAN_1
 62
     2
  6
CONTINUOUS
 10
-0.266343
 20
-0.635004
  0
VERTEX
  8
PLAN_1
 62
     2
  6
CONTINUOUS
 10
-0.268811
 20
-0.635496
  0
VERTEX
  8
PLAN_1
 62
     2
  6
CONTINUOUS
 10
-0.271776
 20
-0.635992
  0
VERTEX
  8
PLAN_1
 62
     2
  6
CONTINUOUS
 10
-0.274740
 20
-0.635992
  0
VERTEX
  8
PLAN_1
 62
     2
  6
CONTINUOUS
 10
-0.297965
 20
-0.635992
  0
VERTEX
  8
PLAN_1
 62
     2
  6
CONTINUOUS
 10
-0.297965
 20
-0.667614
  0
SEQEND
  8
0
  0
POLYLINE
  8
PLAN_1
 62
     2
  6
CONTINUOUS
 66
     1
 40
0.003000
 41
0.003000
  0
VERTEX
  8
PLAN_1
 62
     2
  6
CONTINUOUS
 10
-0.297965
 20
-0.627591
  0
VERTEX
  8
PLAN_1
 62
     2
  6
CONTINUOUS
 10
-0.278201
 20
-0.627591
  0
VERTEX
  8
PLAN_1
 62
     2
  6
CONTINUOUS
 10
-0.274740
 20
-0.627591
  0
VERTEX
  8
PLAN_1
 62
     2
  6
CONTINUOUS
 10
-0.271776
 20
-0.627098
  0
VERTEX
  8
PLAN_1
 62
     2
  6
CONTINUOUS
 10
-0.269307
 20
-0.626110
  0
VERTEX
  8
PLAN_1
 62
     2
  6
CONTINUOUS
 10
-0.266835
 20
-0.624626
  0
VERTEX
  8
PLAN_1
 62
     2
  6
CONTINUOUS
 10
-0.265354
 20
-0.622650
  0
VERTEX
  8
PLAN_1
 62
     2
  6
CONTINUOUS
 10
-0.263870
 20
-0.620673
  0
VERTEX
  8
PLAN_1
 62
     2
  6
CONTINUOUS
 10
-0.263378
 20
-0.617709
  0
VERTEX
  8
PLAN_1
 62
     2
  6
CONTINUOUS
 10
-0.262882
 20
-0.614248
  0
VERTEX
  8
PLAN_1
 62
     2
  6
CONTINUOUS
 10
-0.263378
 20
-0.610791
  0
VERTEX
  8
PLAN_1
 62
     2
  6
CONTINUOUS
 10
-0.263870
 20
-0.608319
  0
VERTEX
  8
PLAN_1
 62
     2
  6
CONTINUOUS
 10
-0.265354
 20
-0.605850
  0
VERTEX
  8
PLAN_1
 62
     2
  6
CONTINUOUS
 10
-0.267331
 20
-0.604366
  0
VERTEX
  8
PLAN_1
 62
     2
  6
CONTINUOUS
 10
-0.269307
 20
-0.603378
  0
VERTEX
  8
PLAN_1
 62
     2
  6
CONTINUOUS
 10
-0.271776
 20
-0.602390
  0
VERTEX
  8
PLAN_1
 62
     2
  6
CONTINUOUS
 10
-0.274740
 20
-0.601898
  0
VERTEX
  8
PLAN_1
 62
     2
  6
CONTINUOUS
 10
-0.277705
 20
-0.601898
  0
VERTEX
  8
PLAN_1
 62
     2
  6
CONTINUOUS
 10
-0.297965
 20
-0.601898
  0
VERTEX
  8
PLAN_1
 62
     2
  6
CONTINUOUS
 10
-0.297965
 20
-0.627591
  0
SEQEND
  8
0
  0
POLYLINE
  8
PLAN_1
 62
     2
  6
CONTINUOUS
 66
     1
 40
0.003000
 41
0.003000
  0
VERTEX
  8
PLAN_1
 62
     2
  6
CONTINUOUS
 10
-0.246083
 20
-0.593004
  0
VERTEX
  8
PLAN_1
 62
     2
  6
CONTINUOUS
 10
-0.185799
 20
-0.593004
  0
VERTEX
  8
PLAN_1
 62
     2
  6
CONTINUOUS
 10
-0.185799
 20
-0.601898
  0
VERTEX
  8
PLAN_1
 62
     2
  6
CONTINUOUS
 10
-0.211000
 20
-0.601898
  0
VERTEX
  8
PLAN_1
 62
     2
  6
CONTINUOUS
 10
-0.211000
 20
-0.667614
  0
VERTEX
  8
PLAN_1
 62
     2
  6
CONTINUOUS
 10
-0.220882
 20
-0.667614
  0
VERTEX
  8
PLAN_1
 62
     2
  6
CONTINUOUS
 10
-0.220882
 20
-0.601898
  0
VERTEX
  8
PLAN_1
 62
     2
  6
CONTINUOUS
 10
-0.246083
 20
-0.601898
  0
VERTEX
  8
PLAN_1
 62
     2
  6
CONTINUOUS
 10
-0.246083
 20
-0.593004
  0
SEQEND
  8
0
  0
SOLID
  8
PLAN_1
 62
     2
 10
-0.147752
 20
-0.593004
 11
-0.140339
 21
-0.593004
 12
-0.147752
 22
-0.619685
 13
-0.140339
 23
-0.619685
  0
POLYLINE
  8
PLAN_1
 62
     2
  6
CONTINUOUS
 66
     1
 40
0.003000
 41
0.003000
  0
VERTEX
  8
PLAN_1
 62
     2
  6
CONTINUOUS
 10
-0.147752
 20
-0.593004
  0
VERTEX
  8
PLAN_1
 62
     2
  6
CONTINUOUS
 10
-0.140339
 20
-0.593004
  0
VERTEX
  8
PLAN_1
 62
     2
  6
CONTINUOUS
 10
-0.140339
 20
-0.619685
  0
VERTEX
  8
PLAN_1
 62
     2
  6
CONTINUOUS
 10
-0.147752
 20
-0.619685
  0
VERTEX
  8
PLAN_1
 62
     2
  6
CONTINUOUS
 10
-0.147752
 20
-0.593004
  0
SEQEND
  8
0
  0
SOLID
  8
PLAN_1
 62
     2
 10
-0.132925
 20
-0.593004
 11
-0.125516
 21
-0.593004
 12
-0.132925
 22
-0.619685
 13
-0.125516
 23
-0.619685
  0
POLYLINE
  8
PLAN_1
 62
     2
  6
CONTINUOUS
 66
     1
 40
0.003000
 41
0.003000
  0
VERTEX
  8
PLAN_1
 62
     2
  6
CONTINUOUS
 10
-0.132925
 20
-0.593004
  0
VERTEX
  8
PLAN_1
 62
     2
  6
CONTINUOUS
 10
-0.125516
 20
-0.593004
  0
VERTEX
  8
PLAN_1
 62
     2
  6
CONTINUOUS
 10
-0.125516
 20
-0.619685
  0
VERTEX
  8
PLAN_1
 62
     2
  6
CONTINUOUS
 10
-0.132925
 20
-0.619685
  0
VERTEX
  8
PLAN_1
 62
     2
  6
CONTINUOUS
 10
-0.132925
 20
-0.593004
  0
SEQEND
  8
0
  0
ENDSEC
  0
EOF
