  0
SECTION
  2
HEADER
  9
$ACADVER
  1
AC1006
  9
$EXTMIN
 10
-2.177000
 20
-4.170594
  9
$EXTMAX
 10
2.182000
 20
4.168000
  9
$LTSCALE
 40
0.000394
  9
$PDMODE
 70
    35
  9
$PDSIZE
 40
0.000315
  0
ENDSEC
  0
SECTION
  2
TABLES
  0
TABLE
  2
LTYPE
 70
     9
  0
LTYPE
  2
CONTINUOUS
 70
    64
  3
Solid line
 72
    65
 73
     0
 40
0.000000
  0
LTYPE
  2
DASHED
 70
    64
  3
__ __ __ __ __ __ __ __ __ __ __ __ __ __ __
 72
    65
 73
     2
 40
0.000003
 49
0.000002
 49
-0.000001
  0
LTYPE
  2
HIDDEN
 70
    64
  3
 _ _ _ _ _ _ _ _ _ _ _ _ _ _ _ _ _ _ _ _ _ _
 72
    65
 73
     2
 40
0.000001
 49
0.000001
 49
-0.000000
  0
LTYPE
  2
CENTER
 70
    64
  3
____ _ ____ _ ____ _ ____ _ ____ _ ____ _ ____
 72
    65
 73
     4
 40
0.000008
 49
0.000005
 49
-0.000001
 49
0.000001
 49
-0.000001
  0
LTYPE
  2
PHANTOM
 70
    64
  3
_____ _ _ _____ _ _ _____ _ _ _____ _ _ ____
 72
    65
 73
     6
 40
0.000010
 49
0.000005
 49
-0.000001
 49
0.000001
 49
-0.000001
 49
0.000001
 49
-0.000001
  0
LTYPE
  2
DOT
 70
    64
  3
...............................................
 72
    65
 73
     2
 40
0.000001
 49
0.000000
 49
-0.000001
  0
LTYPE
  2
DASHDOT
 70
    64
  3
__ . __ . __ . __ . __ . __ . __ . __ . __ . __
 72
    65
 73
     4
 40
0.000004
 49
0.000002
 49
-0.000001
 49
0.000000
 49
-0.000001
  0
LTYPE
  2
BORDER
 70
    64
  3
__ __ . __ __ . __ __ . __ __ . __ __ . __ __
 72
    65
 73
     6
 40
0.000007
 49
0.000002
 49
-0.000001
 49
0.000002
 49
-0.000001
 49
0.000000
 49
-0.000001
  0
LTYPE
  2
DIVIDE
 70
    64
  3
__ . . __ . . __ . . __ . . __ . . __ . . __
 72
    65
 73
     6
 40
0.000005
 49
0.000002
 49
-0.000001
 49
0.000000
 49
-0.000001
 49
0.000000
 49
-0.000001
  0
LTYPE
  2
DOTDOT
 70
    64
  3
 . .  . .  . .  . .  . .  . . 
 72
    65
 73
     5
 40
0.000002
 49
-0.000001
 49
0.000000
 49
-0.000001
 49
0.000000
 49
-0.000001
  0
ENDTAB
  0
TABLE
  2
STYLE
 70
     0
  0
ENDTAB
  0
TABLE
  2
LAYER
 70
     3
  0
LAYER
  2
FOREGROUND
 70
    64
 62
     7
  6
CONTINUOUS
  0
LAYER
  2
BACKGROUND
 70
    65
 62
    -7
  6
CONTINUOUS
  0
LAYER
  2
PLAN_1
 70
    64
 62
     7
  6
CONTINUOUS
  0
ENDTAB
  0
ENDSEC
  0
SECTION
  2
ENTITIES
  0
POLYLINE
  8
PLAN_1
  6
CONTINUOUS
 66
     1
 40
0.003000
 41
0.003000
  0
VERTEX
  8
PLAN_1
  6
CONTINUOUS
 10
0.194807
 20
-4.165382
  0
VERTEX
  8
PLAN_1
  6
CONTINUOUS
 10
0.161453
 20
-4.165382
  0
VERTEX
  8
PLAN_1
  6
CONTINUOUS
 10
0.107776
 20
-4.083559
  0
VERTEX
  8
PLAN_1
  6
CONTINUOUS
 10
0.052531
 20
-4.165382
  0
VERTEX
  8
PLAN_1
  6
CONTINUOUS
 10
0.020220
 20
-4.165382
  0
VERTEX
  8
PLAN_1
  6
CONTINUOUS
 10
0.091618
 20
-4.063236
  0
VERTEX
  8
PLAN_1
  6
CONTINUOUS
 10
0.024909
 20
-3.965776
  0
VERTEX
  8
PLAN_1
  6
CONTINUOUS
 10
0.058787
 20
-3.965776
  0
VERTEX
  8
PLAN_1
  6
CONTINUOUS
 10
0.108819
 20
-4.042390
  0
VERTEX
  8
PLAN_1
  6
CONTINUOUS
 10
0.159370
 20
-3.965776
  0
VERTEX
  8
PLAN_1
  6
CONTINUOUS
 10
0.191681
 20
-3.965776
  0
VERTEX
  8
PLAN_1
  6
CONTINUOUS
 10
0.124972
 20
-4.063236
  0
VERTEX
  8
PLAN_1
  6
CONTINUOUS
 10
0.194807
 20
-4.165382
  0
SEQEND
  8
0
  0
POLYLINE
  8
PLAN_1
  6
CONTINUOUS
 66
     1
 40
0.003000
 41
0.003000
  0
VERTEX
  8
PLAN_1
  6
CONTINUOUS
 10
0.361059
 20
-4.026232
  0
VERTEX
  8
PLAN_1
  6
CONTINUOUS
 10
0.359496
 20
-4.019976
  0
VERTEX
  8
PLAN_1
  6
CONTINUOUS
 10
0.357409
 20
-4.014244
  0
VERTEX
  8
PLAN_1
  6
CONTINUOUS
 10
0.354807
 20
-4.009035
  0
VERTEX
  8
PLAN_1
  6
CONTINUOUS
 10
0.352201
 20
-4.004866
  0
VERTEX
  8
PLAN_1
  6
CONTINUOUS
 10
0.348551
 20
-4.000697
  0
VERTEX
  8
PLAN_1
  6
CONTINUOUS
 10
0.345425
 20
-3.997567
  0
VERTEX
  8
PLAN_1
  6
CONTINUOUS
 10
0.341776
 20
-3.994441
  0
VERTEX
  8
PLAN_1
  6
CONTINUOUS
 10
0.337606
 20
-3.992358
  0
VERTEX
  8
PLAN_1
  6
CONTINUOUS
 10
0.333437
 20
-3.990272
  0
VERTEX
  8
PLAN_1
  6
CONTINUOUS
 10
0.329268
 20
-3.988709
  0
VERTEX
  8
PLAN_1
  6
CONTINUOUS
 10
0.325098
 20
-3.987146
  0
VERTEX
  8
PLAN_1
  6
CONTINUOUS
 10
0.320929
 20
-3.986102
  0
VERTEX
  8
PLAN_1
  6
CONTINUOUS
 10
0.313114
 20
-3.985059
  0
VERTEX
  8
PLAN_1
  6
CONTINUOUS
 10
0.305295
 20
-3.984539
  0
VERTEX
  8
PLAN_1
  6
CONTINUOUS
 10
0.298520
 20
-3.985059
  0
VERTEX
  8
PLAN_1
  6
CONTINUOUS
 10
0.292268
 20
-3.986102
  0
VERTEX
  8
PLAN_1
  6
CONTINUOUS
 10
0.286012
 20
-3.987665
  0
VERTEX
  8
PLAN_1
  6
CONTINUOUS
 10
0.279760
 20
-3.989752
  0
VERTEX
  8
PLAN_1
  6
CONTINUOUS
 10
0.274024
 20
-3.992358
  0
VERTEX
  8
PLAN_1
  6
CONTINUOUS
 10
0.268815
 20
-3.996004
  0
VERTEX
  8
PLAN_1
  6
CONTINUOUS
 10
0.264122
 20
-3.999654
  0
VERTEX
  8
PLAN_1
  6
CONTINUOUS
 10
0.259433
 20
-4.004343
  0
VERTEX
  8
PLAN_1
  6
CONTINUOUS
 10
0.255264
 20
-4.009555
  0
VERTEX
  8
PLAN_1
  6
CONTINUOUS
 10
0.251094
 20
-4.015807
  0
VERTEX
  8
PLAN_1
  6
CONTINUOUS
 10
0.247969
 20
-4.022063
  0
VERTEX
  8
PLAN_1
  6
CONTINUOUS
 10
0.245362
 20
-4.029358
  0
VERTEX
  8
PLAN_1
  6
CONTINUOUS
 10
0.243276
 20
-4.037177
  0
VERTEX
  8
PLAN_1
  6
CONTINUOUS
 10
0.241713
 20
-4.045516
  0
VERTEX
  8
PLAN_1
  6
CONTINUOUS
 10
0.240669
 20
-4.054374
  0
VERTEX
  8
PLAN_1
  6
CONTINUOUS
 10
0.240150
 20
-4.063756
  0
VERTEX
  8
PLAN_1
  6
CONTINUOUS
 10
0.240150
 20
-4.072614
  0
VERTEX
  8
PLAN_1
  6
CONTINUOUS
 10
0.241193
 20
-4.080953
  0
VERTEX
  8
PLAN_1
  6
CONTINUOUS
 10
0.242236
 20
-4.088772
  0
VERTEX
  8
PLAN_1
  6
CONTINUOUS
 10
0.243799
 20
-4.096591
  0
VERTEX
  8
PLAN_1
  6
CONTINUOUS
 10
0.245362
 20
-4.103886
  0
VERTEX
  8
PLAN_1
  6
CONTINUOUS
 10
0.247969
 20
-4.110661
  0
VERTEX
  8
PLAN_1
  6
CONTINUOUS
 10
0.251094
 20
-4.116913
  0
VERTEX
  8
PLAN_1
  6
CONTINUOUS
 10
0.254744
 20
-4.122646
  0
VERTEX
  8
PLAN_1
  6
CONTINUOUS
 10
0.258913
 20
-4.128378
  0
VERTEX
  8
PLAN_1
  6
CONTINUOUS
 10
0.263602
 20
-4.133071
  0
VERTEX
  8
PLAN_1
  6
CONTINUOUS
 10
0.268815
 20
-4.136717
  0
VERTEX
  8
PLAN_1
  6
CONTINUOUS
 10
0.275067
 20
-4.140366
  0
VERTEX
  8
PLAN_1
  6
CONTINUOUS
 10
0.281843
 20
-4.142972
  0
VERTEX
  8
PLAN_1
  6
CONTINUOUS
 10
0.289138
 20
-4.145055
  0
VERTEX
  8
PLAN_1
  6
CONTINUOUS
 10
0.297476
 20
-4.146098
  0
VERTEX
  8
PLAN_1
  6
CONTINUOUS
 10
0.306339
 20
-4.146622
  0
VERTEX
  8
PLAN_1
  6
CONTINUOUS
 10
0.313114
 20
-4.146098
  0
VERTEX
  8
PLAN_1
  6
CONTINUOUS
 10
0.321453
 20
-4.144535
  0
VERTEX
  8
PLAN_1
  6
CONTINUOUS
 10
0.325098
 20
-4.143492
  0
VERTEX
  8
PLAN_1
  6
CONTINUOUS
 10
0.329268
 20
-4.141409
  0
VERTEX
  8
PLAN_1
  6
CONTINUOUS
 10
0.333437
 20
-4.139323
  0
VERTEX
  8
PLAN_1
  6
CONTINUOUS
 10
0.337606
 20
-4.136717
  0
VERTEX
  8
PLAN_1
  6
CONTINUOUS
 10
0.341776
 20
-4.133591
  0
VERTEX
  8
PLAN_1
  6
CONTINUOUS
 10
0.345945
 20
-4.129945
  0
VERTEX
  8
PLAN_1
  6
CONTINUOUS
 10
0.349594
 20
-4.125252
  0
VERTEX
  8
PLAN_1
  6
CONTINUOUS
 10
0.352720
 20
-4.120039
  0
VERTEX
  8
PLAN_1
  6
CONTINUOUS
 10
0.355846
 20
-4.114307
  0
VERTEX
  8
PLAN_1
  6
CONTINUOUS
 10
0.358976
 20
-4.107531
  0
VERTEX
  8
PLAN_1
  6
CONTINUOUS
 10
0.361059
 20
-4.100236
  0
VERTEX
  8
PLAN_1
  6
CONTINUOUS
 10
0.363146
 20
-4.091898
  0
VERTEX
  8
PLAN_1
  6
CONTINUOUS
 10
0.389201
 20
-4.091898
  0
VERTEX
  8
PLAN_1
  6
CONTINUOUS
 10
0.388161
 20
-4.098673
  0
VERTEX
  8
PLAN_1
  6
CONTINUOUS
 10
0.386598
 20
-4.105449
  0
VERTEX
  8
PLAN_1
  6
CONTINUOUS
 10
0.385031
 20
-4.111181
  0
VERTEX
  8
PLAN_1
  6
CONTINUOUS
 10
0.382949
 20
-4.116913
  0
VERTEX
  8
PLAN_1
  6
CONTINUOUS
 10
0.380862
 20
-4.122126
  0
VERTEX
  8
PLAN_1
  6
CONTINUOUS
 10
0.378260
 20
-4.127339
  0
VERTEX
  8
PLAN_1
  6
CONTINUOUS
 10
0.375654
 20
-4.132028
  0
VERTEX
  8
PLAN_1
  6
CONTINUOUS
 10
0.373047
 20
-4.136197
  0
VERTEX
  8
PLAN_1
  6
CONTINUOUS
 10
0.369921
 20
-4.139846
  0
VERTEX
  8
PLAN_1
  6
CONTINUOUS
 10
0.367315
 20
-4.143492
  0
VERTEX
  8
PLAN_1
  6
CONTINUOUS
 10
0.364185
 20
-4.147142
  0
VERTEX
  8
PLAN_1
  6
CONTINUOUS
 10
0.360539
 20
-4.149748
  0
VERTEX
  8
PLAN_1
  6
CONTINUOUS
 10
0.353764
 20
-4.155480
  0
VERTEX
  8
PLAN_1
  6
CONTINUOUS
 10
0.346988
 20
-4.159650
  0
VERTEX
  8
PLAN_1
  6
CONTINUOUS
 10
0.340213
 20
-4.162776
  0
VERTEX
  8
PLAN_1
  6
CONTINUOUS
 10
0.333437
 20
-4.165382
  0
VERTEX
  8
PLAN_1
  6
CONTINUOUS
 10
0.326661
 20
-4.167469
  0
VERTEX
  8
PLAN_1
  6
CONTINUOUS
 10
0.320409
 20
-4.169031
  0
VERTEX
  8
PLAN_1
  6
CONTINUOUS
 10
0.309465
 20
-4.170071
  0
VERTEX
  8
PLAN_1
  6
CONTINUOUS
 10
0.302169
 20
-4.170594
  0
VERTEX
  8
PLAN_1
  6
CONTINUOUS
 10
0.293831
 20
-4.170071
  0
VERTEX
  8
PLAN_1
  6
CONTINUOUS
 10
0.285492
 20
-4.169031
  0
VERTEX
  8
PLAN_1
  6
CONTINUOUS
 10
0.277154
 20
-4.167469
  0
VERTEX
  8
PLAN_1
  6
CONTINUOUS
 10
0.268815
 20
-4.164862
  0
VERTEX
  8
PLAN_1
  6
CONTINUOUS
 10
0.260996
 20
-4.161213
  0
VERTEX
  8
PLAN_1
  6
CONTINUOUS
 10
0.253701
 20
-4.157043
  0
VERTEX
  8
PLAN_1
  6
CONTINUOUS
 10
0.246925
 20
-4.152354
  0
VERTEX
  8
PLAN_1
  6
CONTINUOUS
 10
0.240150
 20
-4.146098
  0
VERTEX
  8
PLAN_1
  6
CONTINUOUS
 10
0.237024
 20
-4.142972
  0
VERTEX
  8
PLAN_1
  6
CONTINUOUS
 10
0.234417
 20
-4.139323
  0
VERTEX
  8
PLAN_1
  6
CONTINUOUS
 10
0.231291
 20
-4.135677
  0
VERTEX
  8
PLAN_1
  6
CONTINUOUS
 10
0.228685
 20
-4.132028
  0
VERTEX
  8
PLAN_1
  6
CONTINUOUS
 10
0.226598
 20
-4.127339
  0
VERTEX
  8
PLAN_1
  6
CONTINUOUS
 10
0.223992
 20
-4.123169
  0
VERTEX
  8
PLAN_1
  6
CONTINUOUS
 10
0.221909
 20
-4.118476
  0
VERTEX
  8
PLAN_1
  6
CONTINUOUS
 10
0.219823
 20
-4.113268
  0
VERTEX
  8
PLAN_1
  6
CONTINUOUS
 10
0.218260
 20
-4.108055
  0
VERTEX
  8
PLAN_1
  6
CONTINUOUS
 10
0.216697
 20
-4.102843
  0
VERTEX
  8
PLAN_1
  6
CONTINUOUS
 10
0.215654
 20
-4.097110
  0
VERTEX
  8
PLAN_1
  6
CONTINUOUS
 10
0.214614
 20
-4.091378
  0
VERTEX
  8
PLAN_1
  6
CONTINUOUS
 10
0.213571
 20
-4.085122
  0
VERTEX
  8
PLAN_1
  6
CONTINUOUS
 10
0.213051
 20
-4.078346
  0
VERTEX
  8
PLAN_1
  6
CONTINUOUS
 10
0.212528
 20
-4.071575
  0
VERTEX
  8
PLAN_1
  6
CONTINUOUS
 10
0.212528
 20
-4.064799
  0
VERTEX
  8
PLAN_1
  6
CONTINUOUS
 10
0.213051
 20
-4.053331
  0
VERTEX
  8
PLAN_1
  6
CONTINUOUS
 10
0.214091
 20
-4.042390
  0
VERTEX
  8
PLAN_1
  6
CONTINUOUS
 10
0.216177
 20
-4.031965
  0
VERTEX
  8
PLAN_1
  6
CONTINUOUS
 10
0.218783
 20
-4.022583
  0
VERTEX
  8
PLAN_1
  6
CONTINUOUS
 10
0.222429
 20
-4.013205
  0
VERTEX
  8
PLAN_1
  6
CONTINUOUS
 10
0.226598
 20
-4.004866
  0
VERTEX
  8
PLAN_1
  6
CONTINUOUS
 10
0.231291
 20
-3.997047
  0
VERTEX
  8
PLAN_1
  6
CONTINUOUS
 10
0.237024
 20
-3.989752
  0
VERTEX
  8
PLAN_1
  6
CONTINUOUS
 10
0.243276
 20
-3.982976
  0
VERTEX
  8
PLAN_1
  6
CONTINUOUS
 10
0.250575
 20
-3.977244
  0
VERTEX
  8
PLAN_1
  6
CONTINUOUS
 10
0.257870
 20
-3.972551
  0
VERTEX
  8
PLAN_1
  6
CONTINUOUS
 10
0.266209
 20
-3.968382
  0
VERTEX
  8
PLAN_1
  6
CONTINUOUS
 10
0.275067
 20
-3.965256
  0
VERTEX
  8
PLAN_1
  6
CONTINUOUS
 10
0.284969
 20
-3.962650
  0
VERTEX
  8
PLAN_1
  6
CONTINUOUS
 10
0.294870
 20
-3.961087
  0
VERTEX
  8
PLAN_1
  6
CONTINUOUS
 10
0.305295
 20
-3.960567
  0
VERTEX
  8
PLAN_1
  6
CONTINUOUS
 10
0.314677
 20
-3.961087
  0
VERTEX
  8
PLAN_1
  6
CONTINUOUS
 10
0.323535
 20
-3.962130
  0
VERTEX
  8
PLAN_1
  6
CONTINUOUS
 10
0.331874
 20
-3.963693
  0
VERTEX
  8
PLAN_1
  6
CONTINUOUS
 10
0.339169
 20
-3.966299
  0
VERTEX
  8
PLAN_1
  6
CONTINUOUS
 10
0.346469
 20
-3.969425
  0
VERTEX
  8
PLAN_1
  6
CONTINUOUS
 10
0.352720
 20
-3.972551
  0
VERTEX
  8
PLAN_1
  6
CONTINUOUS
 10
0.358976
 20
-3.976720
  0
VERTEX
  8
PLAN_1
  6
CONTINUOUS
 10
0.364185
 20
-3.980890
  0
VERTEX
  8
PLAN_1
  6
CONTINUOUS
 10
0.368878
 20
-3.985583
  0
VERTEX
  8
PLAN_1
  6
CONTINUOUS
 10
0.373047
 20
-3.990791
  0
VERTEX
  8
PLAN_1
  6
CONTINUOUS
 10
0.376693
 20
-3.996004
  0
VERTEX
  8
PLAN_1
  6
CONTINUOUS
 10
0.379823
 20
-4.001736
  0
VERTEX
  8
PLAN_1
  6
CONTINUOUS
 10
0.382429
 20
-4.007469
  0
VERTEX
  8
PLAN_1
  6
CONTINUOUS
 10
0.384512
 20
-4.013724
  0
VERTEX
  8
PLAN_1
  6
CONTINUOUS
 10
0.386075
 20
-4.019976
  0
VERTEX
  8
PLAN_1
  6
CONTINUOUS
 10
0.387118
 20
-4.026232
  0
VERTEX
  8
PLAN_1
  6
CONTINUOUS
 10
0.361059
 20
-4.026232
  0
SEQEND
  8
0
  0
POLYLINE
  8
PLAN_1
  6
CONTINUOUS
 66
     1
 40
0.003000
 41
0.003000
  0
VERTEX
  8
PLAN_1
  6
CONTINUOUS
 10
0.448614
 20
-4.165382
  0
VERTEX
  8
PLAN_1
  6
CONTINUOUS
 10
0.422035
 20
-4.165382
  0
VERTEX
  8
PLAN_1
  6
CONTINUOUS
 10
0.422035
 20
-3.965776
  0
VERTEX
  8
PLAN_1
  6
CONTINUOUS
 10
0.448614
 20
-3.965776
  0
VERTEX
  8
PLAN_1
  6
CONTINUOUS
 10
0.448614
 20
-4.062713
  0
VERTEX
  8
PLAN_1
  6
CONTINUOUS
 10
0.545551
 20
-3.965776
  0
VERTEX
  8
PLAN_1
  6
CONTINUOUS
 10
0.582555
 20
-3.965776
  0
VERTEX
  8
PLAN_1
  6
CONTINUOUS
 10
0.499689
 20
-4.046559
  0
VERTEX
  8
PLAN_1
  6
CONTINUOUS
 10
0.584638
 20
-4.165382
  0
VERTEX
  8
PLAN_1
  6
CONTINUOUS
 10
0.549720
 20
-4.165382
  0
VERTEX
  8
PLAN_1
  6
CONTINUOUS
 10
0.479886
 20
-4.065319
  0
VERTEX
  8
PLAN_1
  6
CONTINUOUS
 10
0.448614
 20
-4.095547
  0
VERTEX
  8
PLAN_1
  6
CONTINUOUS
 10
0.448614
 20
-4.165382
  0
SEQEND
  8
0
  0
POLYLINE
  8
PLAN_1
  6
CONTINUOUS
 66
     1
 40
0.003000
 41
0.003000
  0
VERTEX
  8
PLAN_1
  6
CONTINUOUS
 10
0.634150
 20
-4.141409
  0
VERTEX
  8
PLAN_1
  6
CONTINUOUS
 10
0.735256
 20
-4.141409
  0
VERTEX
  8
PLAN_1
  6
CONTINUOUS
 10
0.735256
 20
-4.165382
  0
VERTEX
  8
PLAN_1
  6
CONTINUOUS
 10
0.607047
 20
-4.165382
  0
VERTEX
  8
PLAN_1
  6
CONTINUOUS
 10
0.607047
 20
-3.965776
  0
VERTEX
  8
PLAN_1
  6
CONTINUOUS
 10
0.634150
 20
-3.965776
  0
VERTEX
  8
PLAN_1
  6
CONTINUOUS
 10
0.634150
 20
-4.141409
  0
SEQEND
  8
0
  0
POLYLINE
  8
PLAN_1
  6
CONTINUOUS
 66
     1
 40
0.003000
 41
0.003000
  0
VERTEX
  8
PLAN_1
  6
CONTINUOUS
 10
0.923913
 20
-4.011118
  0
VERTEX
  8
PLAN_1
  6
CONTINUOUS
 10
0.943197
 20
-4.011118
  0
VERTEX
  8
PLAN_1
  6
CONTINUOUS
 10
0.939028
 20
-4.025713
  0
VERTEX
  8
PLAN_1
  6
CONTINUOUS
 10
0.934339
 20
-4.040303
  0
VERTEX
  8
PLAN_1
  6
CONTINUOUS
 10
0.930169
 20
-4.054898
  0
VERTEX
  8
PLAN_1
  6
CONTINUOUS
 10
0.926520
 20
-4.067925
  0
VERTEX
  8
PLAN_1
  6
CONTINUOUS
 10
0.922874
 20
-4.079913
  0
VERTEX
  8
PLAN_1
  6
CONTINUOUS
 10
0.920268
 20
-4.089815
  0
VERTEX
  8
PLAN_1
  6
CONTINUOUS
 10
0.918705
 20
-4.097110
  0
VERTEX
  8
PLAN_1
  6
CONTINUOUS
 10
0.918181
 20
-4.101280
  0
VERTEX
  8
PLAN_1
  6
CONTINUOUS
 10
0.918181
 20
-4.103362
  0
VERTEX
  8
PLAN_1
  6
CONTINUOUS
 10
0.918181
 20
-4.104929
  0
VERTEX
  8
PLAN_1
  6
CONTINUOUS
 10
0.918705
 20
-4.106492
  0
VERTEX
  8
PLAN_1
  6
CONTINUOUS
 10
0.919224
 20
-4.107531
  0
VERTEX
  8
PLAN_1
  6
CONTINUOUS
 10
0.919744
 20
-4.108575
  0
VERTEX
  8
PLAN_1
  6
CONTINUOUS
 10
0.920787
 20
-4.109098
  0
VERTEX
  8
PLAN_1
  6
CONTINUOUS
 10
0.922350
 20
-4.109618
  0
VERTEX
  8
PLAN_1
  6
CONTINUOUS
 10
0.923913
 20
-4.109618
  0
VERTEX
  8
PLAN_1
  6
CONTINUOUS
 10
0.927563
 20
-4.109098
  0
VERTEX
  8
PLAN_1
  6
CONTINUOUS
 10
0.930689
 20
-4.108055
  0
VERTEX
  8
PLAN_1
  6
CONTINUOUS
 10
0.934339
 20
-4.106492
  0
VERTEX
  8
PLAN_1
  6
CONTINUOUS
 10
0.937984
 20
-4.104406
  0
VERTEX
  8
PLAN_1
  6
CONTINUOUS
 10
0.941114
 20
-4.101799
  0
VERTEX
  8
PLAN_1
  6
CONTINUOUS
 10
0.944760
 20
-4.098154
  0
VERTEX
  8
PLAN_1
  6
CONTINUOUS
 10
0.947890
 20
-4.094504
  0
VERTEX
  8
PLAN_1
  6
CONTINUOUS
 10
0.950492
 20
-4.090854
  0
VERTEX
  8
PLAN_1
  6
CONTINUOUS
 10
0.953098
 20
-4.086165
  0
VERTEX
  8
PLAN_1
  6
CONTINUOUS
 10
0.955705
 20
-4.081476
  0
VERTEX
  8
PLAN_1
  6
CONTINUOUS
 10
0.957791
 20
-4.076783
  0
VERTEX
  8
PLAN_1
  6
CONTINUOUS
 10
0.959874
 20
-4.071575
  0
VERTEX
  8
PLAN_1
  6
CONTINUOUS
 10
0.961437
 20
-4.066362
  0
VERTEX
  8
PLAN_1
  6
CONTINUOUS
 10
0.962480
 20
-4.060630
  0
VERTEX
  8
PLAN_1
  6
CONTINUOUS
 10
0.963000
 20
-4.054898
  0
VERTEX
  8
PLAN_1
  6
CONTINUOUS
 10
0.963000
 20
-4.049685
  0
VERTEX
  8
PLAN_1
  6
CONTINUOUS
 10
0.963000
 20
-4.041346
  0
VERTEX
  8
PLAN_1
  6
CONTINUOUS
 10
0.961437
 20
-4.033528
  0
VERTEX
  8
PLAN_1
  6
CONTINUOUS
 10
0.959874
 20
-4.026232
  0
VERTEX
  8
PLAN_1
  6
CONTINUOUS
 10
0.956748
 20
-4.019457
  0
VERTEX
  8
PLAN_1
  6
CONTINUOUS
 10
0.953622
 20
-4.013205
  0
VERTEX
  8
PLAN_1
  6
CONTINUOUS
 10
0.949972
 20
-4.007469
  0
VERTEX
  8
PLAN_1
  6
CONTINUOUS
 10
0.945283
 20
-4.002260
  0
VERTEX
  8
PLAN_1
  6
CONTINUOUS
 10
0.940071
 20
-3.997047
  0
VERTEX
  8
PLAN_1
  6
CONTINUOUS
 10
0.934858
 20
-3.992878
  0
VERTEX
  8
PLAN_1
  6
CONTINUOUS
 10
0.928606
 20
-3.988709
  0
VERTEX
  8
PLAN_1
  6
CONTINUOUS
 10
0.922350
 20
-3.985583
  0
VERTEX
  8
PLAN_1
  6
CONTINUOUS
 10
0.915575
 20
-3.982976
  0
VERTEX
  8
PLAN_1
  6
CONTINUOUS
 10
0.908280
 20
-3.980890
  0
VERTEX
  8
PLAN_1
  6
CONTINUOUS
 10
0.900984
 20
-3.979327
  0
VERTEX
  8
PLAN_1
  6
CONTINUOUS
 10
0.893689
 20
-3.978283
  0
VERTEX
  8
PLAN_1
  6
CONTINUOUS
 10
0.885870
 20
-3.977764
  0
VERTEX
  8
PLAN_1
  6
CONTINUOUS
 10
0.876488
 20
-3.978283
  0
VERTEX
  8
PLAN_1
  6
CONTINUOUS
 10
0.868150
 20
-3.979850
  0
VERTEX
  8
PLAN_1
  6
CONTINUOUS
 10
0.859811
 20
-3.981933
  0
VERTEX
  8
PLAN_1
  6
CONTINUOUS
 10
0.851472
 20
-3.985059
  0
VERTEX
  8
PLAN_1
  6
CONTINUOUS
 10
0.844177
 20
-3.988709
  0
VERTEX
  8
PLAN_1
  6
CONTINUOUS
 10
0.837402
 20
-3.992878
  0
VERTEX
  8
PLAN_1
  6
CONTINUOUS
 10
0.831150
 20
-3.998091
  0
VERTEX
  8
PLAN_1
  6
CONTINUOUS
 10
0.824894
 20
-4.003823
  0
VERTEX
  8
PLAN_1
  6
CONTINUOUS
 10
0.819681
 20
-4.010075
  0
VERTEX
  8
PLAN_1
  6
CONTINUOUS
 10
0.814992
 20
-4.016850
  0
VERTEX
  8
PLAN_1
  6
CONTINUOUS
 10
0.810823
 20
-4.024669
  0
VERTEX
  8
PLAN_1
  6
CONTINUOUS
 10
0.807697
 20
-4.031965
  0
VERTEX
  8
PLAN_1
  6
CONTINUOUS
 10
0.805091
 20
-4.040303
  0
VERTEX
  8
PLAN_1
  6
CONTINUOUS
 10
0.803004
 20
-4.048642
  0
VERTEX
  8
PLAN_1
  6
CONTINUOUS
 10
0.801965
 20
-4.057500
  0
VERTEX
  8
PLAN_1
  6
CONTINUOUS
 10
0.801441
 20
-4.066882
  0
VERTEX
  8
PLAN_1
  6
CONTINUOUS
 10
0.801965
 20
-4.075744
  0
VERTEX
  8
PLAN_1
  6
CONTINUOUS
 10
0.803004
 20
-4.084602
  0
VERTEX
  8
PLAN_1
  6
CONTINUOUS
 10
0.805091
 20
-4.092941
  0
VERTEX
  8
PLAN_1
  6
CONTINUOUS
 10
0.808217
 20
-4.101280
  0
VERTEX
  8
PLAN_1
  6
CONTINUOUS
 10
0.811866
 20
-4.108575
  0
VERTEX
  8
PLAN_1
  6
CONTINUOUS
 10
0.816035
 20
-4.115870
  0
VERTEX
  8
PLAN_1
  6
CONTINUOUS
 10
0.820724
 20
-4.122646
  0
VERTEX
  8
PLAN_1
  6
CONTINUOUS
 10
0.826457
 20
-4.128378
  0
VERTEX
  8
PLAN_1
  6
CONTINUOUS
 10
0.832189
 20
-4.134114
  0
VERTEX
  8
PLAN_1
  6
CONTINUOUS
 10
0.838965
 20
-4.138803
  0
VERTEX
  8
PLAN_1
  6
CONTINUOUS
 10
0.846260
 20
-4.142972
  0
VERTEX
  8
PLAN_1
  6
CONTINUOUS
 10
0.853559
 20
-4.146622
  0
VERTEX
  8
PLAN_1
  6
CONTINUOUS
 10
0.861898
 20
-4.149748
  0
VERTEX
  8
PLAN_1
  6
CONTINUOUS
 10
0.870236
 20
-4.151831
  0
VERTEX
  8
PLAN_1
  6
CONTINUOUS
 10
0.878575
 20
-4.152874
  0
VERTEX
  8
PLAN_1
  6
CONTINUOUS
 10
0.887953
 20
-4.153394
  0
VERTEX
  8
PLAN_1
  6
CONTINUOUS
 10
0.892646
 20
-4.153394
  0
VERTEX
  8
PLAN_1
  6
CONTINUOUS
 10
0.897335
 20
-4.152874
  0
VERTEX
  8
PLAN_1
  6
CONTINUOUS
 10
0.902028
 20
-4.152354
  0
VERTEX
  8
PLAN_1
  6
CONTINUOUS
 10
0.906717
 20
-4.151311
  0
VERTEX
  8
PLAN_1
  6
CONTINUOUS
 10
0.916098
 20
-4.148705
  0
VERTEX
  8
PLAN_1
  6
CONTINUOUS
 10
0.924957
 20
-4.145055
  0
VERTEX
  8
PLAN_1
  6
CONTINUOUS
 10
0.933815
 20
-4.140366
  0
VERTEX
  8
PLAN_1
  6
CONTINUOUS
 10
0.941634
 20
-4.134634
  0
VERTEX
  8
PLAN_1
  6
CONTINUOUS
 10
0.945283
 20
-4.132028
  0
VERTEX
  8
PLAN_1
  6
CONTINUOUS
 10
0.948929
 20
-4.128902
  0
VERTEX
  8
PLAN_1
  6
CONTINUOUS
 10
0.952059
 20
-4.125252
  0
VERTEX
  8
PLAN_1
  6
CONTINUOUS
 10
0.955185
 20
-4.121606
  0
VERTEX
  8
PLAN_1
  6
CONTINUOUS
 10
0.973945
 20
-4.121606
  0
VERTEX
  8
PLAN_1
  6
CONTINUOUS
 10
0.970299
 20
-4.127339
  0
VERTEX
  8
PLAN_1
  6
CONTINUOUS
 10
0.966130
 20
-4.132547
  0
VERTEX
  8
PLAN_1
  6
CONTINUOUS
 10
0.961961
 20
-4.137240
  0
VERTEX
  8
PLAN_1
  6
CONTINUOUS
 10
0.957791
 20
-4.141929
  0
VERTEX
  8
PLAN_1
  6
CONTINUOUS
 10
0.952579
 20
-4.146622
  0
VERTEX
  8
PLAN_1
  6
CONTINUOUS
 10
0.947890
 20
-4.150268
  0
VERTEX
  8
PLAN_1
  6
CONTINUOUS
 10
0.942677
 20
-4.154437
  0
VERTEX
  8
PLAN_1
  6
CONTINUOUS
 10
0.936945
 20
-4.157563
  0
VERTEX
  8
PLAN_1
  6
CONTINUOUS
 10
0.931213
 20
-4.160693
  0
VERTEX
  8
PLAN_1
  6
CONTINUOUS
 10
0.925476
 20
-4.163299
  0
VERTEX
  8
PLAN_1
  6
CONTINUOUS
 10
0.919224
 20
-4.165382
  0
VERTEX
  8
PLAN_1
  6
CONTINUOUS
 10
0.912969
 20
-4.167469
  0
VERTEX
  8
PLAN_1
  6
CONTINUOUS
 10
0.906717
 20
-4.168508
  0
VERTEX
  8
PLAN_1
  6
CONTINUOUS
 10
0.900461
 20
-4.169551
  0
VERTEX
  8
PLAN_1
  6
CONTINUOUS
 10
0.893689
 20
-4.170594
  0
VERTEX
  8
PLAN_1
  6
CONTINUOUS
 10
0.886913
 20
-4.170594
  0
VERTEX
  8
PLAN_1
  6
CONTINUOUS
 10
0.881701
 20
-4.170594
  0
VERTEX
  8
PLAN_1
  6
CONTINUOUS
 10
0.875969
 20
-4.170071
  0
VERTEX
  8
PLAN_1
  6
CONTINUOUS
 10
0.870756
 20
-4.169551
  0
VERTEX
  8
PLAN_1
  6
CONTINUOUS
 10
0.865543
 20
-4.168508
  0
VERTEX
  8
PLAN_1
  6
CONTINUOUS
 10
0.855122
 20
-4.165902
  0
VERTEX
  8
PLAN_1
  6
CONTINUOUS
 10
0.845740
 20
-4.162256
  0
VERTEX
  8
PLAN_1
  6
CONTINUOUS
 10
0.836358
 20
-4.158087
  0
VERTEX
  8
PLAN_1
  6
CONTINUOUS
 10
0.827500
 20
-4.152874
  0
VERTEX
  8
PLAN_1
  6
CONTINUOUS
 10
0.819161
 20
-4.146622
  0
VERTEX
  8
PLAN_1
  6
CONTINUOUS
 10
0.811866
 20
-4.139846
  0
VERTEX
  8
PLAN_1
  6
CONTINUOUS
 10
0.805091
 20
-4.132547
  0
VERTEX
  8
PLAN_1
  6
CONTINUOUS
 10
0.798835
 20
-4.124732
  0
VERTEX
  8
PLAN_1
  6
CONTINUOUS
 10
0.793626
 20
-4.115870
  0
VERTEX
  8
PLAN_1
  6
CONTINUOUS
 10
0.789457
 20
-4.106492
  0
VERTEX
  8
PLAN_1
  6
CONTINUOUS
 10
0.787370
 20
-4.101799
  0
VERTEX
  8
PLAN_1
  6
CONTINUOUS
 10
0.785807
 20
-4.096591
  0
VERTEX
  8
PLAN_1
  6
CONTINUOUS
 10
0.784244
 20
-4.091898
  0
VERTEX
  8
PLAN_1
  6
CONTINUOUS
 10
0.783201
 20
-4.086685
  0
VERTEX
  8
PLAN_1
  6
CONTINUOUS
 10
0.782157
 20
-4.081476
  0
VERTEX
  8
PLAN_1
  6
CONTINUOUS
 10
0.781638
 20
-4.076264
  0
VERTEX
  8
PLAN_1
  6
CONTINUOUS
 10
0.781118
 20
-4.070531
  0
VERTEX
  8
PLAN_1
  6
CONTINUOUS
 10
0.781118
 20
-4.065319
  0
VERTEX
  8
PLAN_1
  6
CONTINUOUS
 10
0.781118
 20
-4.059587
  0
VERTEX
  8
PLAN_1
  6
CONTINUOUS
 10
0.781638
 20
-4.054374
  0
VERTEX
  8
PLAN_1
  6
CONTINUOUS
 10
0.782157
 20
-4.049161
  0
VERTEX
  8
PLAN_1
  6
CONTINUOUS
 10
0.783201
 20
-4.043953
  0
VERTEX
  8
PLAN_1
  6
CONTINUOUS
 10
0.785807
 20
-4.034051
  0
VERTEX
  8
PLAN_1
  6
CONTINUOUS
 10
0.789457
 20
-4.024146
  0
VERTEX
  8
PLAN_1
  6
CONTINUOUS
 10
0.793626
 20
-4.015287
  0
VERTEX
  8
PLAN_1
  6
CONTINUOUS
 10
0.799358
 20
-4.006429
  0
VERTEX
  8
PLAN_1
  6
CONTINUOUS
 10
0.805091
 20
-3.998610
  0
VERTEX
  8
PLAN_1
  6
CONTINUOUS
 10
0.811866
 20
-3.991315
  0
VERTEX
  8
PLAN_1
  6
CONTINUOUS
 10
0.819681
 20
-3.984539
  0
VERTEX
  8
PLAN_1
  6
CONTINUOUS
 10
0.827500
 20
-3.978283
  0
VERTEX
  8
PLAN_1
  6
CONTINUOUS
 10
0.836358
 20
-3.973075
  0
VERTEX
  8
PLAN_1
  6
CONTINUOUS
 10
0.845220
 20
-3.968906
  0
VERTEX
  8
PLAN_1
  6
CONTINUOUS
 10
0.855122
 20
-3.965256
  0
VERTEX
  8
PLAN_1
  6
CONTINUOUS
 10
0.865024
 20
-3.962650
  0
VERTEX
  8
PLAN_1
  6
CONTINUOUS
 10
0.869713
 20
-3.962130
  0
VERTEX
  8
PLAN_1
  6
CONTINUOUS
 10
0.874925
 20
-3.961087
  0
VERTEX
  8
PLAN_1
  6
CONTINUOUS
 10
0.880657
 20
-3.961087
  0
VERTEX
  8
PLAN_1
  6
CONTINUOUS
 10
0.885870
 20
-3.960567
  0
VERTEX
  8
PLAN_1
  6
CONTINUOUS
 10
0.895252
 20
-3.961087
  0
VERTEX
  8
PLAN_1
  6
CONTINUOUS
 10
0.904630
 20
-3.962650
  0
VERTEX
  8
PLAN_1
  6
CONTINUOUS
 10
0.913492
 20
-3.964213
  0
VERTEX
  8
PLAN_1
  6
CONTINUOUS
 10
0.922350
 20
-3.967343
  0
VERTEX
  8
PLAN_1
  6
CONTINUOUS
 10
0.930689
 20
-3.970469
  0
VERTEX
  8
PLAN_1
  6
CONTINUOUS
 10
0.938508
 20
-3.974638
  0
VERTEX
  8
PLAN_1
  6
CONTINUOUS
 10
0.945803
 20
-3.979850
  0
VERTEX
  8
PLAN_1
  6
CONTINUOUS
 10
0.952579
 20
-3.985059
  0
VERTEX
  8
PLAN_1
  6
CONTINUOUS
 10
0.958831
 20
-3.991315
  0
VERTEX
  8
PLAN_1
  6
CONTINUOUS
 10
0.964567
 20
-3.997567
  0
VERTEX
  8
PLAN_1
  6
CONTINUOUS
 10
0.969256
 20
-4.004866
  0
VERTEX
  8
PLAN_1
  6
CONTINUOUS
 10
0.973425
 20
-4.012681
  0
VERTEX
  8
PLAN_1
  6
CONTINUOUS
 10
0.977075
 20
-4.020500
  0
VERTEX
  8
PLAN_1
  6
CONTINUOUS
 10
0.979157
 20
-4.029358
  0
VERTEX
  8
PLAN_1
  6
CONTINUOUS
 10
0.980720
 20
-4.038220
  0
VERTEX
  8
PLAN_1
  6
CONTINUOUS
 10
0.981244
 20
-4.047598
  0
VERTEX
  8
PLAN_1
  6
CONTINUOUS
 10
0.980720
 20
-4.056461
  0
VERTEX
  8
PLAN_1
  6
CONTINUOUS
 10
0.979157
 20
-4.065319
  0
VERTEX
  8
PLAN_1
  6
CONTINUOUS
 10
0.977075
 20
-4.073657
  0
VERTEX
  8
PLAN_1
  6
CONTINUOUS
 10
0.974469
 20
-4.080953
  0
VERTEX
  8
PLAN_1
  6
CONTINUOUS
 10
0.970819
 20
-4.088252
  0
VERTEX
  8
PLAN_1
  6
CONTINUOUS
 10
0.966650
 20
-4.095024
  0
VERTEX
  8
PLAN_1
  6
CONTINUOUS
 10
0.962480
 20
-4.100760
  0
VERTEX
  8
PLAN_1
  6
CONTINUOUS
 10
0.957268
 20
-4.106492
  0
VERTEX
  8
PLAN_1
  6
CONTINUOUS
 10
0.952059
 20
-4.111181
  0
VERTEX
  8
PLAN_1
  6
CONTINUOUS
 10
0.946846
 20
-4.115350
  0
VERTEX
  8
PLAN_1
  6
CONTINUOUS
 10
0.941114
 20
-4.119000
  0
VERTEX
  8
PLAN_1
  6
CONTINUOUS
 10
0.935902
 20
-4.122126
  0
VERTEX
  8
PLAN_1
  6
CONTINUOUS
 10
0.930169
 20
-4.124732
  0
VERTEX
  8
PLAN_1
  6
CONTINUOUS
 10
0.924957
 20
-4.126295
  0
VERTEX
  8
PLAN_1
  6
CONTINUOUS
 10
0.919744
 20
-4.127339
  0
VERTEX
  8
PLAN_1
  6
CONTINUOUS
 10
0.915055
 20
-4.127339
  0
VERTEX
  8
PLAN_1
  6
CONTINUOUS
 10
0.911406
 20
-4.127339
  0
VERTEX
  8
PLAN_1
  6
CONTINUOUS
 10
0.908280
 20
-4.126295
  0
VERTEX
  8
PLAN_1
  6
CONTINUOUS
 10
0.905154
 20
-4.125252
  0
VERTEX
  8
PLAN_1
  6
CONTINUOUS
 10
0.902547
 20
-4.123169
  0
VERTEX
  8
PLAN_1
  6
CONTINUOUS
 10
0.900461
 20
-4.121083
  0
VERTEX
  8
PLAN_1
  6
CONTINUOUS
 10
0.898898
 20
-4.117957
  0
VERTEX
  8
PLAN_1
  6
CONTINUOUS
 10
0.897858
 20
-4.114307
  0
VERTEX
  8
PLAN_1
  6
CONTINUOUS
 10
0.897335
 20
-4.110138
  0
VERTEX
  8
PLAN_1
  6
CONTINUOUS
 10
0.896815
 20
-4.110138
  0
VERTEX
  8
PLAN_1
  6
CONTINUOUS
 10
0.893165
 20
-4.113787
  0
VERTEX
  8
PLAN_1
  6
CONTINUOUS
 10
0.890039
 20
-4.116913
  0
VERTEX
  8
PLAN_1
  6
CONTINUOUS
 10
0.885870
 20
-4.119520
  0
VERTEX
  8
PLAN_1
  6
CONTINUOUS
 10
0.881701
 20
-4.122126
  0
VERTEX
  8
PLAN_1
  6
CONTINUOUS
 10
0.877531
 20
-4.124209
  0
VERTEX
  8
PLAN_1
  6
CONTINUOUS
 10
0.872843
 20
-4.126295
  0
VERTEX
  8
PLAN_1
  6
CONTINUOUS
 10
0.868150
 20
-4.127339
  0
VERTEX
  8
PLAN_1
  6
CONTINUOUS
 10
0.863461
 20
-4.127339
  0
VERTEX
  8
PLAN_1
  6
CONTINUOUS
 10
0.858768
 20
-4.127339
  0
VERTEX
  8
PLAN_1
  6
CONTINUOUS
 10
0.854598
 20
-4.126815
  0
VERTEX
  8
PLAN_1
  6
CONTINUOUS
 10
0.850429
 20
-4.125776
  0
VERTEX
  8
PLAN_1
  6
CONTINUOUS
 10
0.846783
 20
-4.124209
  0
VERTEX
  8
PLAN_1
  6
CONTINUOUS
 10
0.843134
 20
-4.122126
  0
VERTEX
  8
PLAN_1
  6
CONTINUOUS
 10
0.840008
 20
-4.120039
  0
VERTEX
  8
PLAN_1
  6
CONTINUOUS
 10
0.836882
 20
-4.117437
  0
VERTEX
  8
PLAN_1
  6
CONTINUOUS
 10
0.833752
 20
-4.114307
  0
VERTEX
  8
PLAN_1
  6
CONTINUOUS
 10
0.831150
 20
-4.111181
  0
VERTEX
  8
PLAN_1
  6
CONTINUOUS
 10
0.829063
 20
-4.108055
  0
VERTEX
  8
PLAN_1
  6
CONTINUOUS
 10
0.826980
 20
-4.104406
  0
VERTEX
  8
PLAN_1
  6
CONTINUOUS
 10
0.825413
 20
-4.100236
  0
VERTEX
  8
PLAN_1
  6
CONTINUOUS
 10
0.824374
 20
-4.096067
  0
VERTEX
  8
PLAN_1
  6
CONTINUOUS
 10
0.823331
 20
-4.091898
  0
VERTEX
  8
PLAN_1
  6
CONTINUOUS
 10
0.822811
 20
-4.087728
  0
VERTEX
  8
PLAN_1
  6
CONTINUOUS
 10
0.822287
 20
-4.083039
  0
VERTEX
  8
PLAN_1
  6
CONTINUOUS
 10
0.822811
 20
-4.076264
  0
VERTEX
  8
PLAN_1
  6
CONTINUOUS
 10
0.823850
 20
-4.068969
  0
VERTEX
  8
PLAN_1
  6
CONTINUOUS
 10
0.824894
 20
-4.062193
  0
VERTEX
  8
PLAN_1
  6
CONTINUOUS
 10
0.826980
 20
-4.055417
  0
VERTEX
  8
PLAN_1
  6
CONTINUOUS
 10
0.829583
 20
-4.048642
  0
VERTEX
  8
PLAN_1
  6
CONTINUOUS
 10
0.832713
 20
-4.042390
  0
VERTEX
  8
PLAN_1
  6
CONTINUOUS
 10
0.835839
 20
-4.036654
  0
VERTEX
  8
PLAN_1
  6
CONTINUOUS
 10
0.840008
 20
-4.030921
  0
VERTEX
  8
PLAN_1
  6
CONTINUOUS
 10
0.844697
 20
-4.025713
  0
VERTEX
  8
PLAN_1
  6
CONTINUOUS
 10
0.849390
 20
-4.021020
  0
VERTEX
  8
PLAN_1
  6
CONTINUOUS
 10
0.854598
 20
-4.016850
  0
VERTEX
  8
PLAN_1
  6
CONTINUOUS
 10
0.860335
 20
-4.013205
  0
VERTEX
  8
PLAN_1
  6
CONTINUOUS
 10
0.866587
 20
-4.010598
  0
VERTEX
  8
PLAN_1
  6
CONTINUOUS
 10
0.872843
 20
-4.008512
  0
VERTEX
  8
PLAN_1
  6
CONTINUOUS
 10
0.879614
 20
-4.006949
  0
VERTEX
  8
PLAN_1
  6
CONTINUOUS
 10
0.886390
 20
-4.006429
  0
VERTEX
  8
PLAN_1
  6
CONTINUOUS
 10
0.891602
 20
-4.006949
  0
VERTEX
  8
PLAN_1
  6
CONTINUOUS
 10
0.896291
 20
-4.007992
  0
VERTEX
  8
PLAN_1
  6
CONTINUOUS
 10
0.900461
 20
-4.009555
  0
VERTEX
  8
PLAN_1
  6
CONTINUOUS
 10
0.904630
 20
-4.011638
  0
VERTEX
  8
PLAN_1
  6
CONTINUOUS
 10
0.908799
 20
-4.014768
  0
VERTEX
  8
PLAN_1
  6
CONTINUOUS
 10
0.912449
 20
-4.018413
  0
VERTEX
  8
PLAN_1
  6
CONTINUOUS
 10
0.915575
 20
-4.022583
  0
VERTEX
  8
PLAN_1
  6
CONTINUOUS
 10
0.918705
 20
-4.028315
  0
VERTEX
  8
PLAN_1
  6
CONTINUOUS
 10
0.923913
 20
-4.011118
  0
SEQEND
  8
0
  0
POLYLINE
  8
PLAN_1
  6
CONTINUOUS
 66
     1
 40
0.003000
 41
0.003000
  0
VERTEX
  8
PLAN_1
  6
CONTINUOUS
 10
0.886913
 20
-4.026752
  0
VERTEX
  8
PLAN_1
  6
CONTINUOUS
 10
0.882744
 20
-4.026752
  0
VERTEX
  8
PLAN_1
  6
CONTINUOUS
 10
0.878051
 20
-4.027795
  0
VERTEX
  8
PLAN_1
  6
CONTINUOUS
 10
0.873882
 20
-4.029358
  0
VERTEX
  8
PLAN_1
  6
CONTINUOUS
 10
0.870236
 20
-4.031965
  0
VERTEX
  8
PLAN_1
  6
CONTINUOUS
 10
0.866587
 20
-4.034571
  0
VERTEX
  8
PLAN_1
  6
CONTINUOUS
 10
0.862937
 20
-4.037697
  0
VERTEX
  8
PLAN_1
  6
CONTINUOUS
 10
0.859811
 20
-4.041346
  0
VERTEX
  8
PLAN_1
  6
CONTINUOUS
 10
0.856685
 20
-4.044992
  0
VERTEX
  8
PLAN_1
  6
CONTINUOUS
 10
0.854079
 20
-4.049161
  0
VERTEX
  8
PLAN_1
  6
CONTINUOUS
 10
0.851996
 20
-4.053331
  0
VERTEX
  8
PLAN_1
  6
CONTINUOUS
 10
0.849909
 20
-4.058024
  0
VERTEX
  8
PLAN_1
  6
CONTINUOUS
 10
0.848346
 20
-4.062713
  0
VERTEX
  8
PLAN_1
  6
CONTINUOUS
 10
0.846783
 20
-4.066882
  0
VERTEX
  8
PLAN_1
  6
CONTINUOUS
 10
0.846260
 20
-4.071575
  0
VERTEX
  8
PLAN_1
  6
CONTINUOUS
 10
0.845220
 20
-4.076264
  0
VERTEX
  8
PLAN_1
  6
CONTINUOUS
 10
0.845220
 20
-4.080433
  0
VERTEX
  8
PLAN_1
  6
CONTINUOUS
 10
0.845740
 20
-4.086165
  0
VERTEX
  8
PLAN_1
  6
CONTINUOUS
 10
0.846783
 20
-4.091378
  0
VERTEX
  8
PLAN_1
  6
CONTINUOUS
 10
0.848866
 20
-4.096067
  0
VERTEX
  8
PLAN_1
  6
CONTINUOUS
 10
0.851472
 20
-4.100236
  0
VERTEX
  8
PLAN_1
  6
CONTINUOUS
 10
0.855122
 20
-4.103362
  0
VERTEX
  8
PLAN_1
  6
CONTINUOUS
 10
0.859291
 20
-4.105449
  0
VERTEX
  8
PLAN_1
  6
CONTINUOUS
 10
0.861374
 20
-4.106492
  0
VERTEX
  8
PLAN_1
  6
CONTINUOUS
 10
0.863461
 20
-4.107012
  0
VERTEX
  8
PLAN_1
  6
CONTINUOUS
 10
0.866067
 20
-4.107531
  0
VERTEX
  8
PLAN_1
  6
CONTINUOUS
 10
0.868673
 20
-4.107531
  0
VERTEX
  8
PLAN_1
  6
CONTINUOUS
 10
0.872843
 20
-4.107012
  0
VERTEX
  8
PLAN_1
  6
CONTINUOUS
 10
0.877012
 20
-4.105969
  0
VERTEX
  8
PLAN_1
  6
CONTINUOUS
 10
0.881181
 20
-4.104406
  0
VERTEX
  8
PLAN_1
  6
CONTINUOUS
 10
0.884827
 20
-4.101799
  0
VERTEX
  8
PLAN_1
  6
CONTINUOUS
 10
0.888476
 20
-4.099193
  0
VERTEX
  8
PLAN_1
  6
CONTINUOUS
 10
0.892122
 20
-4.096067
  0
VERTEX
  8
PLAN_1
  6
CONTINUOUS
 10
0.895252
 20
-4.092421
  0
VERTEX
  8
PLAN_1
  6
CONTINUOUS
 10
0.897858
 20
-4.088252
  0
VERTEX
  8
PLAN_1
  6
CONTINUOUS
 10
0.900461
 20
-4.084083
  0
VERTEX
  8
PLAN_1
  6
CONTINUOUS
 10
0.903067
 20
-4.079390
  0
VERTEX
  8
PLAN_1
  6
CONTINUOUS
 10
0.905154
 20
-4.074701
  0
VERTEX
  8
PLAN_1
  6
CONTINUOUS
 10
0.906717
 20
-4.070008
  0
VERTEX
  8
PLAN_1
  6
CONTINUOUS
 10
0.908280
 20
-4.065319
  0
VERTEX
  8
PLAN_1
  6
CONTINUOUS
 10
0.909323
 20
-4.060630
  0
VERTEX
  8
PLAN_1
  6
CONTINUOUS
 10
0.909843
 20
-4.056461
  0
VERTEX
  8
PLAN_1
  6
CONTINUOUS
 10
0.909843
 20
-4.052291
  0
VERTEX
  8
PLAN_1
  6
CONTINUOUS
 10
0.909323
 20
-4.047079
  0
VERTEX
  8
PLAN_1
  6
CONTINUOUS
 10
0.908280
 20
-4.042390
  0
VERTEX
  8
PLAN_1
  6
CONTINUOUS
 10
0.905673
 20
-4.038220
  0
VERTEX
  8
PLAN_1
  6
CONTINUOUS
 10
0.903067
 20
-4.034051
  0
VERTEX
  8
PLAN_1
  6
CONTINUOUS
 10
0.899941
 20
-4.030921
  0
VERTEX
  8
PLAN_1
  6
CONTINUOUS
 10
0.895772
 20
-4.028839
  0
VERTEX
  8
PLAN_1
  6
CONTINUOUS
 10
0.891602
 20
-4.027276
  0
VERTEX
  8
PLAN_1
  6
CONTINUOUS
 10
0.886913
 20
-4.026752
  0
SEQEND
  8
0
  0
POLYLINE
  8
PLAN_1
  6
CONTINUOUS
 66
     1
 40
0.003000
 41
0.003000
  0
VERTEX
  8
PLAN_1
  6
CONTINUOUS
 10
1.042740
 20
-3.965776
  0
VERTEX
  8
PLAN_1
  6
CONTINUOUS
 10
1.130295
 20
-3.965776
  0
VERTEX
  8
PLAN_1
  6
CONTINUOUS
 10
1.137071
 20
-3.966299
  0
VERTEX
  8
PLAN_1
  6
CONTINUOUS
 10
1.143323
 20
-3.967343
  0
VERTEX
  8
PLAN_1
  6
CONTINUOUS
 10
1.149579
 20
-3.968382
  0
VERTEX
  8
PLAN_1
  6
CONTINUOUS
 10
1.154791
 20
-3.969945
  0
VERTEX
  8
PLAN_1
  6
CONTINUOUS
 10
1.160000
 20
-3.972031
  0
VERTEX
  8
PLAN_1
  6
CONTINUOUS
 10
1.164693
 20
-3.974638
  0
VERTEX
  8
PLAN_1
  6
CONTINUOUS
 10
1.168862
 20
-3.977764
  0
VERTEX
  8
PLAN_1
  6
CONTINUOUS
 10
1.172508
 20
-3.980890
  0
VERTEX
  8
PLAN_1
  6
CONTINUOUS
 10
1.175638
 20
-3.984539
  0
VERTEX
  8
PLAN_1
  6
CONTINUOUS
 10
1.178764
 20
-3.988189
  0
VERTEX
  8
PLAN_1
  6
CONTINUOUS
 10
1.181370
 20
-3.992358
  0
VERTEX
  8
PLAN_1
  6
CONTINUOUS
 10
1.183453
 20
-3.997047
  0
VERTEX
  8
PLAN_1
  6
CONTINUOUS
 10
1.184496
 20
-4.001736
  0
VERTEX
  8
PLAN_1
  6
CONTINUOUS
 10
1.186059
 20
-4.006429
  0
VERTEX
  8
PLAN_1
  6
CONTINUOUS
 10
1.186579
 20
-4.011118
  0
VERTEX
  8
PLAN_1
  6
CONTINUOUS
 10
1.186579
 20
-4.016331
  0
VERTEX
  8
PLAN_1
  6
CONTINUOUS
 10
1.186579
 20
-4.021543
  0
VERTEX
  8
PLAN_1
  6
CONTINUOUS
 10
1.185539
 20
-4.026752
  0
VERTEX
  8
PLAN_1
  6
CONTINUOUS
 10
1.183976
 20
-4.032484
  0
VERTEX
  8
PLAN_1
  6
CONTINUOUS
 10
1.181890
 20
-4.038220
  0
VERTEX
  8
PLAN_1
  6
CONTINUOUS
 10
1.179807
 20
-4.040823
  0
VERTEX
  8
PLAN_1
  6
CONTINUOUS
 10
1.178240
 20
-4.043429
  0
VERTEX
  8
PLAN_1
  6
CONTINUOUS
 10
1.176157
 20
-4.046559
  0
VERTEX
  8
PLAN_1
  6
CONTINUOUS
 10
1.173551
 20
-4.049161
  0
VERTEX
  8
PLAN_1
  6
CONTINUOUS
 10
1.170945
 20
-4.051248
  0
VERTEX
  8
PLAN_1
  6
CONTINUOUS
 10
1.167819
 20
-4.053854
  0
VERTEX
  8
PLAN_1
  6
CONTINUOUS
 10
1.164169
 20
-4.055937
  0
VERTEX
  8
PLAN_1
  6
CONTINUOUS
 10
1.160000
 20
-4.058024
  0
VERTEX
  8
PLAN_1
  6
CONTINUOUS
 10
1.165213
 20
-4.060106
  0
VERTEX
  8
PLAN_1
  6
CONTINUOUS
 10
1.171469
 20
-4.062713
  0
VERTEX
  8
PLAN_1
  6
CONTINUOUS
 10
1.177201
 20
-4.066362
  0
VERTEX
  8
PLAN_1
  6
CONTINUOUS
 10
1.182933
 20
-4.071575
  0
VERTEX
  8
PLAN_1
  6
CONTINUOUS
 10
1.185539
 20
-4.074177
  0
VERTEX
  8
PLAN_1
  6
CONTINUOUS
 10
1.188146
 20
-4.077307
  0
VERTEX
  8
PLAN_1
  6
CONTINUOUS
 10
1.190228
 20
-4.080953
  0
VERTEX
  8
PLAN_1
  6
CONTINUOUS
 10
1.192315
 20
-4.085122
  0
VERTEX
  8
PLAN_1
  6
CONTINUOUS
 10
1.193878
 20
-4.089815
  0
VERTEX
  8
PLAN_1
  6
CONTINUOUS
 10
1.195441
 20
-4.095024
  0
VERTEX
  8
PLAN_1
  6
CONTINUOUS
 10
1.195961
 20
-4.100236
  0
VERTEX
  8
PLAN_1
  6
CONTINUOUS
 10
1.195961
 20
-4.106492
  0
VERTEX
  8
PLAN_1
  6
CONTINUOUS
 10
1.195961
 20
-4.112224
  0
VERTEX
  8
PLAN_1
  6
CONTINUOUS
 10
1.194917
 20
-4.117957
  0
VERTEX
  8
PLAN_1
  6
CONTINUOUS
 10
1.193878
 20
-4.123689
  0
VERTEX
  8
PLAN_1
  6
CONTINUOUS
 10
1.191791
 20
-4.128902
  0
VERTEX
  8
PLAN_1
  6
CONTINUOUS
 10
1.189185
 20
-4.134114
  0
VERTEX
  8
PLAN_1
  6
CONTINUOUS
 10
1.186579
 20
-4.139323
  0
VERTEX
  8
PLAN_1
  6
CONTINUOUS
 10
1.182933
 20
-4.143492
  0
VERTEX
  8
PLAN_1
  6
CONTINUOUS
 10
1.178764
 20
-4.147661
  0
VERTEX
  8
PLAN_1
  6
CONTINUOUS
 10
1.174594
 20
-4.151831
  0
VERTEX
  8
PLAN_1
  6
CONTINUOUS
 10
1.169382
 20
-4.154961
  0
VERTEX
  8
PLAN_1
  6
CONTINUOUS
 10
1.163650
 20
-4.158087
  0
VERTEX
  8
PLAN_1
  6
CONTINUOUS
 10
1.157917
 20
-4.160693
  0
VERTEX
  8
PLAN_1
  6
CONTINUOUS
 10
1.151142
 20
-4.162776
  0
VERTEX
  8
PLAN_1
  6
CONTINUOUS
 10
1.143846
 20
-4.164339
  0
VERTEX
  8
PLAN_1
  6
CONTINUOUS
 10
1.136547
 20
-4.164862
  0
VERTEX
  8
PLAN_1
  6
CONTINUOUS
 10
1.128732
 20
-4.165382
  0
VERTEX
  8
PLAN_1
  6
CONTINUOUS
 10
1.042740
 20
-4.165382
  0
VERTEX
  8
PLAN_1
  6
CONTINUOUS
 10
1.042740
 20
-3.965776
  0
SEQEND
  8
0
  0
POLYLINE
  8
PLAN_1
  6
CONTINUOUS
 66
     1
 40
0.003000
 41
0.003000
  0
VERTEX
  8
PLAN_1
  6
CONTINUOUS
 10
1.069839
 20
-4.050205
  0
VERTEX
  8
PLAN_1
  6
CONTINUOUS
 10
1.118307
 20
-4.050205
  0
VERTEX
  8
PLAN_1
  6
CONTINUOUS
 10
1.127169
 20
-4.050205
  0
VERTEX
  8
PLAN_1
  6
CONTINUOUS
 10
1.135508
 20
-4.048642
  0
VERTEX
  8
PLAN_1
  6
CONTINUOUS
 10
1.139154
 20
-4.048122
  0
VERTEX
  8
PLAN_1
  6
CONTINUOUS
 10
1.142803
 20
-4.046559
  0
VERTEX
  8
PLAN_1
  6
CONTINUOUS
 10
1.145929
 20
-4.044992
  0
VERTEX
  8
PLAN_1
  6
CONTINUOUS
 10
1.148535
 20
-4.043429
  0
VERTEX
  8
PLAN_1
  6
CONTINUOUS
 10
1.151142
 20
-4.041346
  0
VERTEX
  8
PLAN_1
  6
CONTINUOUS
 10
1.153224
 20
-4.039260
  0
VERTEX
  8
PLAN_1
  6
CONTINUOUS
 10
1.155311
 20
-4.036654
  0
VERTEX
  8
PLAN_1
  6
CONTINUOUS
 10
1.156874
 20
-4.033528
  0
VERTEX
  8
PLAN_1
  6
CONTINUOUS
 10
1.158437
 20
-4.030402
  0
VERTEX
  8
PLAN_1
  6
CONTINUOUS
 10
1.158961
 20
-4.026752
  0
VERTEX
  8
PLAN_1
  6
CONTINUOUS
 10
1.159480
 20
-4.022583
  0
VERTEX
  8
PLAN_1
  6
CONTINUOUS
 10
1.160000
 20
-4.018413
  0
VERTEX
  8
PLAN_1
  6
CONTINUOUS
 10
1.159480
 20
-4.014768
  0
VERTEX
  8
PLAN_1
  6
CONTINUOUS
 10
1.159480
 20
-4.011638
  0
VERTEX
  8
PLAN_1
  6
CONTINUOUS
 10
1.158437
 20
-4.008512
  0
VERTEX
  8
PLAN_1
  6
CONTINUOUS
 10
1.157394
 20
-4.005906
  0
VERTEX
  8
PLAN_1
  6
CONTINUOUS
 10
1.156354
 20
-4.003299
  0
VERTEX
  8
PLAN_1
  6
CONTINUOUS
 10
1.154791
 20
-4.000697
  0
VERTEX
  8
PLAN_1
  6
CONTINUOUS
 10
1.152705
 20
-3.998610
  0
VERTEX
  8
PLAN_1
  6
CONTINUOUS
 10
1.150622
 20
-3.996528
  0
VERTEX
  8
PLAN_1
  6
CONTINUOUS
 10
1.147492
 20
-3.994961
  0
VERTEX
  8
PLAN_1
  6
CONTINUOUS
 10
1.144886
 20
-3.993398
  0
VERTEX
  8
PLAN_1
  6
CONTINUOUS
 10
1.141240
 20
-3.991835
  0
VERTEX
  8
PLAN_1
  6
CONTINUOUS
 10
1.137591
 20
-3.990791
  0
VERTEX
  8
PLAN_1
  6
CONTINUOUS
 10
1.133421
 20
-3.990272
  0
VERTEX
  8
PLAN_1
  6
CONTINUOUS
 10
1.128732
 20
-3.989752
  0
VERTEX
  8
PLAN_1
  6
CONTINUOUS
 10
1.124039
 20
-3.989228
  0
VERTEX
  8
PLAN_1
  6
CONTINUOUS
 10
1.118307
 20
-3.989228
  0
VERTEX
  8
PLAN_1
  6
CONTINUOUS
 10
1.069839
 20
-3.989228
  0
VERTEX
  8
PLAN_1
  6
CONTINUOUS
 10
1.069839
 20
-4.050205
  0
SEQEND
  8
0
  0
POLYLINE
  8
PLAN_1
  6
CONTINUOUS
 66
     1
 40
0.003000
 41
0.003000
  0
VERTEX
  8
PLAN_1
  6
CONTINUOUS
 10
1.069839
 20
-4.142453
  0
VERTEX
  8
PLAN_1
  6
CONTINUOUS
 10
1.127169
 20
-4.142453
  0
VERTEX
  8
PLAN_1
  6
CONTINUOUS
 10
1.132378
 20
-4.141929
  0
VERTEX
  8
PLAN_1
  6
CONTINUOUS
 10
1.137071
 20
-4.141409
  0
VERTEX
  8
PLAN_1
  6
CONTINUOUS
 10
1.141240
 20
-4.140886
  0
VERTEX
  8
PLAN_1
  6
CONTINUOUS
 10
1.145409
 20
-4.139846
  0
VERTEX
  8
PLAN_1
  6
CONTINUOUS
 10
1.149055
 20
-4.138283
  0
VERTEX
  8
PLAN_1
  6
CONTINUOUS
 10
1.152705
 20
-4.136717
  0
VERTEX
  8
PLAN_1
  6
CONTINUOUS
 10
1.155831
 20
-4.134634
  0
VERTEX
  8
PLAN_1
  6
CONTINUOUS
 10
1.158961
 20
-4.132547
  0
VERTEX
  8
PLAN_1
  6
CONTINUOUS
 10
1.161043
 20
-4.129945
  0
VERTEX
  8
PLAN_1
  6
CONTINUOUS
 10
1.163130
 20
-4.127339
  0
VERTEX
  8
PLAN_1
  6
CONTINUOUS
 10
1.165213
 20
-4.124209
  0
VERTEX
  8
PLAN_1
  6
CONTINUOUS
 10
1.166776
 20
-4.121083
  0
VERTEX
  8
PLAN_1
  6
CONTINUOUS
 10
1.167819
 20
-4.117437
  0
VERTEX
  8
PLAN_1
  6
CONTINUOUS
 10
1.168862
 20
-4.113787
  0
VERTEX
  8
PLAN_1
  6
CONTINUOUS
 10
1.168862
 20
-4.110138
  0
VERTEX
  8
PLAN_1
  6
CONTINUOUS
 10
1.169382
 20
-4.105969
  0
VERTEX
  8
PLAN_1
  6
CONTINUOUS
 10
1.168862
 20
-4.100760
  0
VERTEX
  8
PLAN_1
  6
CONTINUOUS
 10
1.168339
 20
-4.096591
  0
VERTEX
  8
PLAN_1
  6
CONTINUOUS
 10
1.166776
 20
-4.092421
  0
VERTEX
  8
PLAN_1
  6
CONTINUOUS
 10
1.165213
 20
-4.088772
  0
VERTEX
  8
PLAN_1
  6
CONTINUOUS
 10
1.163130
 20
-4.085646
  0
VERTEX
  8
PLAN_1
  6
CONTINUOUS
 10
1.160524
 20
-4.083039
  0
VERTEX
  8
PLAN_1
  6
CONTINUOUS
 10
1.157394
 20
-4.080433
  0
VERTEX
  8
PLAN_1
  6
CONTINUOUS
 10
1.154268
 20
-4.078870
  0
VERTEX
  8
PLAN_1
  6
CONTINUOUS
 10
1.150622
 20
-4.076783
  0
VERTEX
  8
PLAN_1
  6
CONTINUOUS
 10
1.146972
 20
-4.075744
  0
VERTEX
  8
PLAN_1
  6
CONTINUOUS
 10
1.143323
 20
-4.074701
  0
VERTEX
  8
PLAN_1
  6
CONTINUOUS
 10
1.139154
 20
-4.073657
  0
VERTEX
  8
PLAN_1
  6
CONTINUOUS
 10
1.130815
 20
-4.072614
  0
VERTEX
  8
PLAN_1
  6
CONTINUOUS
 10
1.122476
 20
-4.072094
  0
VERTEX
  8
PLAN_1
  6
CONTINUOUS
 10
1.069839
 20
-4.072094
  0
VERTEX
  8
PLAN_1
  6
CONTINUOUS
 10
1.069839
 20
-4.142453
  0
SEQEND
  8
0
  0
POLYLINE
  8
PLAN_1
  6
CONTINUOUS
 66
     1
 40
0.003000
 41
0.003000
  0
VERTEX
  8
PLAN_1
  6
CONTINUOUS
 10
1.306969
 20
-4.165382
  0
VERTEX
  8
PLAN_1
  6
CONTINUOUS
 10
1.280909
 20
-4.165382
  0
VERTEX
  8
PLAN_1
  6
CONTINUOUS
 10
1.280909
 20
-4.026752
  0
VERTEX
  8
PLAN_1
  6
CONTINUOUS
 10
1.235571
 20
-4.026752
  0
VERTEX
  8
PLAN_1
  6
CONTINUOUS
 10
1.235571
 20
-4.007469
  0
VERTEX
  8
PLAN_1
  6
CONTINUOUS
 10
1.246516
 20
-4.006429
  0
VERTEX
  8
PLAN_1
  6
CONTINUOUS
 10
1.255894
 20
-4.005386
  0
VERTEX
  8
PLAN_1
  6
CONTINUOUS
 10
1.260063
 20
-4.004343
  0
VERTEX
  8
PLAN_1
  6
CONTINUOUS
 10
1.263713
 20
-4.003299
  0
VERTEX
  8
PLAN_1
  6
CONTINUOUS
 10
1.267362
 20
-4.001736
  0
VERTEX
  8
PLAN_1
  6
CONTINUOUS
 10
1.270488
 20
-4.000173
  0
VERTEX
  8
PLAN_1
  6
CONTINUOUS
 10
1.273614
 20
-3.998091
  0
VERTEX
  8
PLAN_1
  6
CONTINUOUS
 10
1.276220
 20
-3.995484
  0
VERTEX
  8
PLAN_1
  6
CONTINUOUS
 10
1.278827
 20
-3.992358
  0
VERTEX
  8
PLAN_1
  6
CONTINUOUS
 10
1.280909
 20
-3.989228
  0
VERTEX
  8
PLAN_1
  6
CONTINUOUS
 10
1.282996
 20
-3.985059
  0
VERTEX
  8
PLAN_1
  6
CONTINUOUS
 10
1.284559
 20
-3.980890
  0
VERTEX
  8
PLAN_1
  6
CONTINUOUS
 10
1.286122
 20
-3.975681
  0
VERTEX
  8
PLAN_1
  6
CONTINUOUS
 10
1.287685
 20
-3.969945
  0
VERTEX
  8
PLAN_1
  6
CONTINUOUS
 10
1.306969
 20
-3.969945
  0
VERTEX
  8
PLAN_1
  6
CONTINUOUS
 10
1.306969
 20
-4.165382
  0
SEQEND
  8
0
  0
POLYLINE
  8
PLAN_1
  6
CONTINUOUS
 66
     1
 40
0.003000
 41
0.003000
  0
VERTEX
  8
PLAN_1
  6
CONTINUOUS
 10
1.413287
 20
-4.165382
  0
VERTEX
  8
PLAN_1
  6
CONTINUOUS
 10
1.386185
 20
-4.165382
  0
VERTEX
  8
PLAN_1
  6
CONTINUOUS
 10
1.386185
 20
-3.965776
  0
VERTEX
  8
PLAN_1
  6
CONTINUOUS
 10
1.478433
 20
-3.965776
  0
VERTEX
  8
PLAN_1
  6
CONTINUOUS
 10
1.484685
 20
-3.966299
  0
VERTEX
  8
PLAN_1
  6
CONTINUOUS
 10
1.490417
 20
-3.966819
  0
VERTEX
  8
PLAN_1
  6
CONTINUOUS
 10
1.496673
 20
-3.967343
  0
VERTEX
  8
PLAN_1
  6
CONTINUOUS
 10
1.502406
 20
-3.968382
  0
VERTEX
  8
PLAN_1
  6
CONTINUOUS
 10
1.508138
 20
-3.969945
  0
VERTEX
  8
PLAN_1
  6
CONTINUOUS
 10
1.513350
 20
-3.972031
  0
VERTEX
  8
PLAN_1
  6
CONTINUOUS
 10
1.518559
 20
-3.974114
  0
VERTEX
  8
PLAN_1
  6
CONTINUOUS
 10
1.523252
 20
-3.977244
  0
VERTEX
  8
PLAN_1
  6
CONTINUOUS
 10
1.527941
 20
-3.980370
  0
VERTEX
  8
PLAN_1
  6
CONTINUOUS
 10
1.531591
 20
-3.984020
  0
VERTEX
  8
PLAN_1
  6
CONTINUOUS
 10
1.535236
 20
-3.988709
  0
VERTEX
  8
PLAN_1
  6
CONTINUOUS
 10
1.538366
 20
-3.993398
  0
VERTEX
  8
PLAN_1
  6
CONTINUOUS
 10
1.540449
 20
-3.999130
  0
VERTEX
  8
PLAN_1
  6
CONTINUOUS
 10
1.542535
 20
-4.005386
  0
VERTEX
  8
PLAN_1
  6
CONTINUOUS
 10
1.543575
 20
-4.012161
  0
VERTEX
  8
PLAN_1
  6
CONTINUOUS
 10
1.544098
 20
-4.019457
  0
VERTEX
  8
PLAN_1
  6
CONTINUOUS
 10
1.543575
 20
-4.024669
  0
VERTEX
  8
PLAN_1
  6
CONTINUOUS
 10
1.543055
 20
-4.029882
  0
VERTEX
  8
PLAN_1
  6
CONTINUOUS
 10
1.542535
 20
-4.034051
  0
VERTEX
  8
PLAN_1
  6
CONTINUOUS
 10
1.541492
 20
-4.038220
  0
VERTEX
  8
PLAN_1
  6
CONTINUOUS
 10
1.539929
 20
-4.042390
  0
VERTEX
  8
PLAN_1
  6
CONTINUOUS
 10
1.538366
 20
-4.045516
  0
VERTEX
  8
PLAN_1
  6
CONTINUOUS
 10
1.536803
 20
-4.048642
  0
VERTEX
  8
PLAN_1
  6
CONTINUOUS
 10
1.534717
 20
-4.051768
  0
VERTEX
  8
PLAN_1
  6
CONTINUOUS
 10
1.530547
 20
-4.056461
  0
VERTEX
  8
PLAN_1
  6
CONTINUOUS
 10
1.525858
 20
-4.060630
  0
VERTEX
  8
PLAN_1
  6
CONTINUOUS
 10
1.521165
 20
-4.064276
  0
VERTEX
  8
PLAN_1
  6
CONTINUOUS
 10
1.515957
 20
-4.067406
  0
VERTEX
  8
PLAN_1
  6
CONTINUOUS
 10
1.520126
 20
-4.068969
  0
VERTEX
  8
PLAN_1
  6
CONTINUOUS
 10
1.524295
 20
-4.071051
  0
VERTEX
  8
PLAN_1
  6
CONTINUOUS
 10
1.528465
 20
-4.074177
  0
VERTEX
  8
PLAN_1
  6
CONTINUOUS
 10
1.532110
 20
-4.077307
  0
VERTEX
  8
PLAN_1
  6
CONTINUOUS
 10
1.533673
 20
-4.079390
  0
VERTEX
  8
PLAN_1
  6
CONTINUOUS
 10
1.534717
 20
-4.081996
  0
VERTEX
  8
PLAN_1
  6
CONTINUOUS
 10
1.536280
 20
-4.084602
  0
VERTEX
  8
PLAN_1
  6
CONTINUOUS
 10
1.537323
 20
-4.087728
  0
VERTEX
  8
PLAN_1
  6
CONTINUOUS
 10
1.538366
 20
-4.091378
  0
VERTEX
  8
PLAN_1
  6
CONTINUOUS
 10
1.538886
 20
-4.095547
  0
VERTEX
  8
PLAN_1
  6
CONTINUOUS
 10
1.539406
 20
-4.099717
  0
VERTEX
  8
PLAN_1
  6
CONTINUOUS
 10
1.539929
 20
-4.104929
  0
VERTEX
  8
PLAN_1
  6
CONTINUOUS
 10
1.541492
 20
-4.140886
  0
VERTEX
  8
PLAN_1
  6
CONTINUOUS
 10
1.542012
 20
-4.144535
  0
VERTEX
  8
PLAN_1
  6
CONTINUOUS
 10
1.542012
 20
-4.148185
  0
VERTEX
  8
PLAN_1
  6
CONTINUOUS
 10
1.542535
 20
-4.150791
  0
VERTEX
  8
PLAN_1
  6
CONTINUOUS
 10
1.543575
 20
-4.153394
  0
VERTEX
  8
PLAN_1
  6
CONTINUOUS
 10
1.545142
 20
-4.155480
  0
VERTEX
  8
PLAN_1
  6
CONTINUOUS
 10
1.546705
 20
-4.157563
  0
VERTEX
  8
PLAN_1
  6
CONTINUOUS
 10
1.548787
 20
-4.159130
  0
VERTEX
  8
PLAN_1
  6
CONTINUOUS
 10
1.551394
 20
-4.160693
  0
VERTEX
  8
PLAN_1
  6
CONTINUOUS
 10
1.551394
 20
-4.165382
  0
VERTEX
  8
PLAN_1
  6
CONTINUOUS
 10
1.518559
 20
-4.165382
  0
VERTEX
  8
PLAN_1
  6
CONTINUOUS
 10
1.517520
 20
-4.160169
  0
VERTEX
  8
PLAN_1
  6
CONTINUOUS
 10
1.516476
 20
-4.153394
  0
VERTEX
  8
PLAN_1
  6
CONTINUOUS
 10
1.515433
 20
-4.146098
  0
VERTEX
  8
PLAN_1
  6
CONTINUOUS
 10
1.514913
 20
-4.138803
  0
VERTEX
  8
PLAN_1
  6
CONTINUOUS
 10
1.514390
 20
-4.131508
  0
VERTEX
  8
PLAN_1
  6
CONTINUOUS
 10
1.513870
 20
-4.124732
  0
VERTEX
  8
PLAN_1
  6
CONTINUOUS
 10
1.513870
 20
-4.119000
  0
VERTEX
  8
PLAN_1
  6
CONTINUOUS
 10
1.513870
 20
-4.115350
  0
VERTEX
  8
PLAN_1
  6
CONTINUOUS
 10
1.513870
 20
-4.109098
  0
VERTEX
  8
PLAN_1
  6
CONTINUOUS
 10
1.512827
 20
-4.102843
  0
VERTEX
  8
PLAN_1
  6
CONTINUOUS
 10
1.512307
 20
-4.099717
  0
VERTEX
  8
PLAN_1
  6
CONTINUOUS
 10
1.511264
 20
-4.097110
  0
VERTEX
  8
PLAN_1
  6
CONTINUOUS
 10
1.509701
 20
-4.093984
  0
VERTEX
  8
PLAN_1
  6
CONTINUOUS
 10
1.508138
 20
-4.091378
  0
VERTEX
  8
PLAN_1
  6
CONTINUOUS
 10
1.506051
 20
-4.088772
  0
VERTEX
  8
PLAN_1
  6
CONTINUOUS
 10
1.503969
 20
-4.086685
  0
VERTEX
  8
PLAN_1
  6
CONTINUOUS
 10
1.500843
 20
-4.084602
  0
VERTEX
  8
PLAN_1
  6
CONTINUOUS
 10
1.497713
 20
-4.083039
  0
VERTEX
  8
PLAN_1
  6
CONTINUOUS
 10
1.493543
 20
-4.081476
  0
VERTEX
  8
PLAN_1
  6
CONTINUOUS
 10
1.489374
 20
-4.080433
  0
VERTEX
  8
PLAN_1
  6
CONTINUOUS
 10
1.484165
 20
-4.079913
  0
VERTEX
  8
PLAN_1
  6
CONTINUOUS
 10
1.478433
 20
-4.079913
  0
VERTEX
  8
PLAN_1
  6
CONTINUOUS
 10
1.413287
 20
-4.079913
  0
VERTEX
  8
PLAN_1
  6
CONTINUOUS
 10
1.413287
 20
-4.165382
  0
SEQEND
  8
0
  0
POLYLINE
  8
PLAN_1
  6
CONTINUOUS
 66
     1
 40
0.003000
 41
0.003000
  0
VERTEX
  8
PLAN_1
  6
CONTINUOUS
 10
1.413287
 20
-4.056980
  0
VERTEX
  8
PLAN_1
  6
CONTINUOUS
 10
1.475827
 20
-4.056980
  0
VERTEX
  8
PLAN_1
  6
CONTINUOUS
 10
1.483122
 20
-4.056461
  0
VERTEX
  8
PLAN_1
  6
CONTINUOUS
 10
1.490417
 20
-4.055417
  0
VERTEX
  8
PLAN_1
  6
CONTINUOUS
 10
1.493543
 20
-4.054898
  0
VERTEX
  8
PLAN_1
  6
CONTINUOUS
 10
1.497193
 20
-4.053854
  0
VERTEX
  8
PLAN_1
  6
CONTINUOUS
 10
1.500319
 20
-4.052291
  0
VERTEX
  8
PLAN_1
  6
CONTINUOUS
 10
1.503449
 20
-4.050728
  0
VERTEX
  8
PLAN_1
  6
CONTINUOUS
 10
1.506051
 20
-4.048642
  0
VERTEX
  8
PLAN_1
  6
CONTINUOUS
 10
1.508657
 20
-4.046035
  0
VERTEX
  8
PLAN_1
  6
CONTINUOUS
 10
1.510744
 20
-4.043429
  0
VERTEX
  8
PLAN_1
  6
CONTINUOUS
 10
1.512307
 20
-4.040303
  0
VERTEX
  8
PLAN_1
  6
CONTINUOUS
 10
1.513870
 20
-4.036654
  0
VERTEX
  8
PLAN_1
  6
CONTINUOUS
 10
1.515433
 20
-4.032484
  0
VERTEX
  8
PLAN_1
  6
CONTINUOUS
 10
1.515957
 20
-4.027795
  0
VERTEX
  8
PLAN_1
  6
CONTINUOUS
 10
1.515957
 20
-4.022583
  0
VERTEX
  8
PLAN_1
  6
CONTINUOUS
 10
1.515957
 20
-4.016850
  0
VERTEX
  8
PLAN_1
  6
CONTINUOUS
 10
1.514913
 20
-4.012161
  0
VERTEX
  8
PLAN_1
  6
CONTINUOUS
 10
1.513870
 20
-4.007992
  0
VERTEX
  8
PLAN_1
  6
CONTINUOUS
 10
1.512307
 20
-4.004343
  0
VERTEX
  8
PLAN_1
  6
CONTINUOUS
 10
1.510744
 20
-4.001217
  0
VERTEX
  8
PLAN_1
  6
CONTINUOUS
 10
1.508138
 20
-3.998091
  0
VERTEX
  8
PLAN_1
  6
CONTINUOUS
 10
1.506051
 20
-3.996004
  0
VERTEX
  8
PLAN_1
  6
CONTINUOUS
 10
1.503449
 20
-3.993921
  0
VERTEX
  8
PLAN_1
  6
CONTINUOUS
 10
1.500319
 20
-3.992878
  0
VERTEX
  8
PLAN_1
  6
CONTINUOUS
 10
1.497713
 20
-3.991315
  0
VERTEX
  8
PLAN_1
  6
CONTINUOUS
 10
1.494587
 20
-3.990791
  0
VERTEX
  8
PLAN_1
  6
CONTINUOUS
 10
1.491461
 20
-3.989752
  0
VERTEX
  8
PLAN_1
  6
CONTINUOUS
 10
1.485728
 20
-3.989228
  0
VERTEX
  8
PLAN_1
  6
CONTINUOUS
 10
1.480516
 20
-3.989228
  0
VERTEX
  8
PLAN_1
  6
CONTINUOUS
 10
1.413287
 20
-3.989228
  0
VERTEX
  8
PLAN_1
  6
CONTINUOUS
 10
1.413287
 20
-4.056980
  0
SEQEND
  8
0
  0
SOLID
  8
PLAN_1
 10
1.615496
 20
-4.165382
 11
1.586311
 21
-4.165382
 12
1.615496
 22
-4.135677
 13
1.586311
 23
-4.135677
  0
POLYLINE
  8
PLAN_1
  6
CONTINUOUS
 66
     1
 40
0.003000
 41
0.003000
  0
VERTEX
  8
PLAN_1
  6
CONTINUOUS
 10
1.615496
 20
-4.165382
  0
VERTEX
  8
PLAN_1
  6
CONTINUOUS
 10
1.586311
 20
-4.165382
  0
VERTEX
  8
PLAN_1
  6
CONTINUOUS
 10
1.586311
 20
-4.135677
  0
VERTEX
  8
PLAN_1
  6
CONTINUOUS
 10
1.615496
 20
-4.135677
  0
VERTEX
  8
PLAN_1
  6
CONTINUOUS
 10
1.615496
 20
-4.165382
  0
SEQEND
  8
0
  0
POLYLINE
  8
PLAN_1
  6
CONTINUOUS
 66
     1
 40
0.003000
 41
0.003000
  0
VERTEX
  8
PLAN_1
  6
CONTINUOUS
 10
1.810409
 20
-4.165382
  0
VERTEX
  8
PLAN_1
  6
CONTINUOUS
 10
1.663445
 20
-4.165382
  0
VERTEX
  8
PLAN_1
  6
CONTINUOUS
 10
1.663445
 20
-3.965776
  0
VERTEX
  8
PLAN_1
  6
CONTINUOUS
 10
1.808327
 20
-3.965776
  0
VERTEX
  8
PLAN_1
  6
CONTINUOUS
 10
1.808327
 20
-3.989752
  0
VERTEX
  8
PLAN_1
  6
CONTINUOUS
 10
1.690024
 20
-3.989752
  0
VERTEX
  8
PLAN_1
  6
CONTINUOUS
 10
1.690024
 20
-4.050728
  0
VERTEX
  8
PLAN_1
  6
CONTINUOUS
 10
1.799469
 20
-4.050728
  0
VERTEX
  8
PLAN_1
  6
CONTINUOUS
 10
1.799469
 20
-4.074701
  0
VERTEX
  8
PLAN_1
  6
CONTINUOUS
 10
1.690024
 20
-4.074701
  0
VERTEX
  8
PLAN_1
  6
CONTINUOUS
 10
1.690024
 20
-4.141409
  0
VERTEX
  8
PLAN_1
  6
CONTINUOUS
 10
1.810409
 20
-4.141409
  0
VERTEX
  8
PLAN_1
  6
CONTINUOUS
 10
1.810409
 20
-4.165382
  0
SEQEND
  8
0
  0
POLYLINE
  8
PLAN_1
  6
CONTINUOUS
 66
     1
 40
0.003000
 41
0.003000
  0
VERTEX
  8
PLAN_1
  6
CONTINUOUS
 10
1.875555
 20
-4.165382
  0
VERTEX
  8
PLAN_1
  6
CONTINUOUS
 10
1.848457
 20
-4.165382
  0
VERTEX
  8
PLAN_1
  6
CONTINUOUS
 10
1.848457
 20
-3.965776
  0
VERTEX
  8
PLAN_1
  6
CONTINUOUS
 10
1.938094
 20
-3.965776
  0
VERTEX
  8
PLAN_1
  6
CONTINUOUS
 10
1.944870
 20
-3.966299
  0
VERTEX
  8
PLAN_1
  6
CONTINUOUS
 10
1.951126
 20
-3.967343
  0
VERTEX
  8
PLAN_1
  6
CONTINUOUS
 10
1.957378
 20
-3.968382
  0
VERTEX
  8
PLAN_1
  6
CONTINUOUS
 10
1.963110
 20
-3.970469
  0
VERTEX
  8
PLAN_1
  6
CONTINUOUS
 10
1.968323
 20
-3.972551
  0
VERTEX
  8
PLAN_1
  6
CONTINUOUS
 10
1.973016
 20
-3.975157
  0
VERTEX
  8
PLAN_1
  6
CONTINUOUS
 10
1.977705
 20
-3.978283
  0
VERTEX
  8
PLAN_1
  6
CONTINUOUS
 10
1.981354
 20
-3.981933
  0
VERTEX
  8
PLAN_1
  6
CONTINUOUS
 10
1.985000
 20
-3.986102
  0
VERTEX
  8
PLAN_1
  6
CONTINUOUS
 10
1.988126
 20
-3.990272
  0
VERTEX
  8
PLAN_1
  6
CONTINUOUS
 10
1.991256
 20
-3.994961
  0
VERTEX
  8
PLAN_1
  6
CONTINUOUS
 10
1.993339
 20
-3.999654
  0
VERTEX
  8
PLAN_1
  6
CONTINUOUS
 10
1.994902
 20
-4.004866
  0
VERTEX
  8
PLAN_1
  6
CONTINUOUS
 10
1.996465
 20
-4.010598
  0
VERTEX
  8
PLAN_1
  6
CONTINUOUS
 10
1.996988
 20
-4.016331
  0
VERTEX
  8
PLAN_1
  6
CONTINUOUS
 10
1.997508
 20
-4.022063
  0
VERTEX
  8
PLAN_1
  6
CONTINUOUS
 10
1.996988
 20
-4.027276
  0
VERTEX
  8
PLAN_1
  6
CONTINUOUS
 10
1.996465
 20
-4.032484
  0
VERTEX
  8
PLAN_1
  6
CONTINUOUS
 10
1.995425
 20
-4.037697
  0
VERTEX
  8
PLAN_1
  6
CONTINUOUS
 10
1.994382
 20
-4.042909
  0
VERTEX
  8
PLAN_1
  6
CONTINUOUS
 10
1.992295
 20
-4.048122
  0
VERTEX
  8
PLAN_1
  6
CONTINUOUS
 10
1.990213
 20
-4.052811
  0
VERTEX
  8
PLAN_1
  6
CONTINUOUS
 10
1.987087
 20
-4.057500
  0
VERTEX
  8
PLAN_1
  6
CONTINUOUS
 10
1.983957
 20
-4.062193
  0
VERTEX
  8
PLAN_1
  6
CONTINUOUS
 10
1.980311
 20
-4.066362
  0
VERTEX
  8
PLAN_1
  6
CONTINUOUS
 10
1.976142
 20
-4.070008
  0
VERTEX
  8
PLAN_1
  6
CONTINUOUS
 10
1.970929
 20
-4.073138
  0
VERTEX
  8
PLAN_1
  6
CONTINUOUS
 10
1.965717
 20
-4.075744
  0
VERTEX
  8
PLAN_1
  6
CONTINUOUS
 10
1.959984
 20
-4.078346
  0
VERTEX
  8
PLAN_1
  6
CONTINUOUS
 10
1.953209
 20
-4.079913
  0
VERTEX
  8
PLAN_1
  6
CONTINUOUS
 10
1.945913
 20
-4.080953
  0
VERTEX
  8
PLAN_1
  6
CONTINUOUS
 10
1.938094
 20
-4.081476
  0
VERTEX
  8
PLAN_1
  6
CONTINUOUS
 10
1.875555
 20
-4.081476
  0
VERTEX
  8
PLAN_1
  6
CONTINUOUS
 10
1.875555
 20
-4.165382
  0
SEQEND
  8
0
  0
POLYLINE
  8
PLAN_1
  6
CONTINUOUS
 66
     1
 40
0.003000
 41
0.003000
  0
VERTEX
  8
PLAN_1
  6
CONTINUOUS
 10
1.875555
 20
-4.058024
  0
VERTEX
  8
PLAN_1
  6
CONTINUOUS
 10
1.929236
 20
-4.058024
  0
VERTEX
  8
PLAN_1
  6
CONTINUOUS
 10
1.937575
 20
-4.057500
  0
VERTEX
  8
PLAN_1
  6
CONTINUOUS
 10
1.945394
 20
-4.056461
  0
VERTEX
  8
PLAN_1
  6
CONTINUOUS
 10
1.949039
 20
-4.055417
  0
VERTEX
  8
PLAN_1
  6
CONTINUOUS
 10
1.952689
 20
-4.053854
  0
VERTEX
  8
PLAN_1
  6
CONTINUOUS
 10
1.955295
 20
-4.052291
  0
VERTEX
  8
PLAN_1
  6
CONTINUOUS
 10
1.958421
 20
-4.050205
  0
VERTEX
  8
PLAN_1
  6
CONTINUOUS
 10
1.961028
 20
-4.048122
  0
VERTEX
  8
PLAN_1
  6
CONTINUOUS
 10
1.963110
 20
-4.045516
  0
VERTEX
  8
PLAN_1
  6
CONTINUOUS
 10
1.965197
 20
-4.042390
  0
VERTEX
  8
PLAN_1
  6
CONTINUOUS
 10
1.966760
 20
-4.039260
  0
VERTEX
  8
PLAN_1
  6
CONTINUOUS
 10
1.967803
 20
-4.035614
  0
VERTEX
  8
PLAN_1
  6
CONTINUOUS
 10
1.968846
 20
-4.031445
  0
VERTEX
  8
PLAN_1
  6
CONTINUOUS
 10
1.969366
 20
-4.027276
  0
VERTEX
  8
PLAN_1
  6
CONTINUOUS
 10
1.969366
 20
-4.022583
  0
VERTEX
  8
PLAN_1
  6
CONTINUOUS
 10
1.969366
 20
-4.017894
  0
VERTEX
  8
PLAN_1
  6
CONTINUOUS
 10
1.968846
 20
-4.013724
  0
VERTEX
  8
PLAN_1
  6
CONTINUOUS
 10
1.967803
 20
-4.010075
  0
VERTEX
  8
PLAN_1
  6
CONTINUOUS
 10
1.966760
 20
-4.006429
  0
VERTEX
  8
PLAN_1
  6
CONTINUOUS
 10
1.964677
 20
-4.003299
  0
VERTEX
  8
PLAN_1
  6
CONTINUOUS
 10
1.963110
 20
-4.000697
  0
VERTEX
  8
PLAN_1
  6
CONTINUOUS
 10
1.960508
 20
-3.998091
  0
VERTEX
  8
PLAN_1
  6
CONTINUOUS
 10
1.958421
 20
-3.996004
  0
VERTEX
  8
PLAN_1
  6
CONTINUOUS
 10
1.955295
 20
-3.994441
  0
VERTEX
  8
PLAN_1
  6
CONTINUOUS
 10
1.952169
 20
-3.992878
  0
VERTEX
  8
PLAN_1
  6
CONTINUOUS
 10
1.949039
 20
-3.991835
  0
VERTEX
  8
PLAN_1
  6
CONTINUOUS
 10
1.945913
 20
-3.990791
  0
VERTEX
  8
PLAN_1
  6
CONTINUOUS
 10
1.938094
 20
-3.989228
  0
VERTEX
  8
PLAN_1
  6
CONTINUOUS
 10
1.930280
 20
-3.989228
  0
VERTEX
  8
PLAN_1
  6
CONTINUOUS
 10
1.875555
 20
-3.989228
  0
VERTEX
  8
PLAN_1
  6
CONTINUOUS
 10
1.875555
 20
-4.058024
  0
SEQEND
  8
0
  0
POLYLINE
  8
PLAN_1
  6
CONTINUOUS
 66
     1
 40
0.003000
 41
0.003000
  0
VERTEX
  8
PLAN_1
  6
CONTINUOUS
 10
2.151252
 20
-4.024146
  0
VERTEX
  8
PLAN_1
  6
CONTINUOUS
 10
2.150728
 20
-4.018937
  0
VERTEX
  8
PLAN_1
  6
CONTINUOUS
 10
2.149689
 20
-4.013724
  0
VERTEX
  8
PLAN_1
  6
CONTINUOUS
 10
2.148126
 20
-4.009035
  0
VERTEX
  8
PLAN_1
  6
CONTINUOUS
 10
2.146039
 20
-4.004866
  0
VERTEX
  8
PLAN_1
  6
CONTINUOUS
 10
2.143433
 20
-4.001217
  0
VERTEX
  8
PLAN_1
  6
CONTINUOUS
 10
2.140827
 20
-3.998091
  0
VERTEX
  8
PLAN_1
  6
CONTINUOUS
 10
2.137701
 20
-3.994961
  0
VERTEX
  8
PLAN_1
  6
CONTINUOUS
 10
2.134575
 20
-3.992358
  0
VERTEX
  8
PLAN_1
  6
CONTINUOUS
 10
2.130925
 20
-3.990272
  0
VERTEX
  8
PLAN_1
  6
CONTINUOUS
 10
2.126756
 20
-3.988709
  0
VERTEX
  8
PLAN_1
  6
CONTINUOUS
 10
2.123110
 20
-3.987146
  0
VERTEX
  8
PLAN_1
  6
CONTINUOUS
 10
2.118941
 20
-3.985583
  0
VERTEX
  8
PLAN_1
  6
CONTINUOUS
 10
2.110079
 20
-3.984020
  0
VERTEX
  8
PLAN_1
  6
CONTINUOUS
 10
2.101740
 20
-3.984020
  0
VERTEX
  8
PLAN_1
  6
CONTINUOUS
 10
2.094965
 20
-3.984020
  0
VERTEX
  8
PLAN_1
  6
CONTINUOUS
 10
2.087669
 20
-3.985059
  0
VERTEX
  8
PLAN_1
  6
CONTINUOUS
 10
2.083500
 20
-3.985583
  0
VERTEX
  8
PLAN_1
  6
CONTINUOUS
 10
2.079850
 20
-3.987146
  0
VERTEX
  8
PLAN_1
  6
CONTINUOUS
 10
2.076205
 20
-3.988189
  0
VERTEX
  8
PLAN_1
  6
CONTINUOUS
 10
2.072555
 20
-3.989752
  0
VERTEX
  8
PLAN_1
  6
CONTINUOUS
 10
2.069429
 20
-3.991835
  0
VERTEX
  8
PLAN_1
  6
CONTINUOUS
 10
2.066303
 20
-3.994441
  0
VERTEX
  8
PLAN_1
  6
CONTINUOUS
 10
2.063173
 20
-3.997047
  0
VERTEX
  8
PLAN_1
  6
CONTINUOUS
 10
2.061091
 20
-4.000697
  0
VERTEX
  8
PLAN_1
  6
CONTINUOUS
 10
2.059004
 20
-4.004343
  0
VERTEX
  8
PLAN_1
  6
CONTINUOUS
 10
2.057441
 20
-4.008512
  0
VERTEX
  8
PLAN_1
  6
CONTINUOUS
 10
2.056402
 20
-4.013205
  0
VERTEX
  8
PLAN_1
  6
CONTINUOUS
 10
2.056402
 20
-4.018937
  0
VERTEX
  8
PLAN_1
  6
CONTINUOUS
 10
2.056402
 20
-4.022063
  0
VERTEX
  8
PLAN_1
  6
CONTINUOUS
 10
2.056921
 20
-4.024669
  0
VERTEX
  8
PLAN_1
  6
CONTINUOUS
 10
2.057441
 20
-4.027276
  0
VERTEX
  8
PLAN_1
  6
CONTINUOUS
 10
2.058484
 20
-4.029358
  0
VERTEX
  8
PLAN_1
  6
CONTINUOUS
 10
2.060571
 20
-4.033528
  0
VERTEX
  8
PLAN_1
  6
CONTINUOUS
 10
2.063697
 20
-4.036654
  0
VERTEX
  8
PLAN_1
  6
CONTINUOUS
 10
2.067343
 20
-4.039260
  0
VERTEX
  8
PLAN_1
  6
CONTINUOUS
 10
2.070992
 20
-4.041346
  0
VERTEX
  8
PLAN_1
  6
CONTINUOUS
 10
2.075681
 20
-4.042909
  0
VERTEX
  8
PLAN_1
  6
CONTINUOUS
 10
2.079850
 20
-4.043953
  0
VERTEX
  8
PLAN_1
  6
CONTINUOUS
 10
2.136657
 20
-4.056980
  0
VERTEX
  8
PLAN_1
  6
CONTINUOUS
 10
2.141350
 20
-4.058543
  0
VERTEX
  8
PLAN_1
  6
CONTINUOUS
 10
2.146039
 20
-4.059587
  0
VERTEX
  8
PLAN_1
  6
CONTINUOUS
 10
2.150728
 20
-4.061669
  0
VERTEX
  8
PLAN_1
  6
CONTINUOUS
 10
2.154898
 20
-4.063756
  0
VERTEX
  8
PLAN_1
  6
CONTINUOUS
 10
2.158547
 20
-4.065839
  0
VERTEX
  8
PLAN_1
  6
CONTINUOUS
 10
2.162197
 20
-4.068445
  0
VERTEX
  8
PLAN_1
  6
CONTINUOUS
 10
2.165843
 20
-4.071051
  0
VERTEX
  8
PLAN_1
  6
CONTINUOUS
 10
2.168972
 20
-4.074177
  0
VERTEX
  8
PLAN_1
  6
CONTINUOUS
 10
2.172098
 20
-4.077307
  0
VERTEX
  8
PLAN_1
  6
CONTINUOUS
 10
2.174705
 20
-4.080953
  0
VERTEX
  8
PLAN_1
  6
CONTINUOUS
 10
2.176787
 20
-4.085122
  0
VERTEX
  8
PLAN_1
  6
CONTINUOUS
 10
2.178350
 20
-4.089291
  0
VERTEX
  8
PLAN_1
  6
CONTINUOUS
 10
2.179913
 20
-4.093984
  0
VERTEX
  8
PLAN_1
  6
CONTINUOUS
 10
2.180957
 20
-4.099193
  0
VERTEX
  8
PLAN_1
  6
CONTINUOUS
 10
2.182000
 20
-4.104406
  0
VERTEX
  8
PLAN_1
  6
CONTINUOUS
 10
2.182000
 20
-4.110138
  0
VERTEX
  8
PLAN_1
  6
CONTINUOUS
 10
2.181480
 20
-4.119000
  0
VERTEX
  8
PLAN_1
  6
CONTINUOUS
 10
2.179913
 20
-4.126295
  0
VERTEX
  8
PLAN_1
  6
CONTINUOUS
 10
2.177831
 20
-4.133591
  0
VERTEX
  8
PLAN_1
  6
CONTINUOUS
 10
2.174705
 20
-4.139846
  0
VERTEX
  8
PLAN_1
  6
CONTINUOUS
 10
2.170535
 20
-4.145055
  0
VERTEX
  8
PLAN_1
  6
CONTINUOUS
 10
2.166366
 20
-4.150268
  0
VERTEX
  8
PLAN_1
  6
CONTINUOUS
 10
2.161154
 20
-4.154437
  0
VERTEX
  8
PLAN_1
  6
CONTINUOUS
 10
2.155941
 20
-4.158087
  0
VERTEX
  8
PLAN_1
  6
CONTINUOUS
 10
2.149689
 20
-4.161213
  0
VERTEX
  8
PLAN_1
  6
CONTINUOUS
 10
2.143433
 20
-4.163819
  0
VERTEX
  8
PLAN_1
  6
CONTINUOUS
 10
2.137181
 20
-4.165902
  0
VERTEX
  8
PLAN_1
  6
CONTINUOUS
 10
2.130406
 20
-4.167988
  0
VERTEX
  8
PLAN_1
  6
CONTINUOUS
 10
2.123630
 20
-4.169031
  0
VERTEX
  8
PLAN_1
  6
CONTINUOUS
 10
2.117374
 20
-4.170071
  0
VERTEX
  8
PLAN_1
  6
CONTINUOUS
 10
2.110602
 20
-4.170594
  0
VERTEX
  8
PLAN_1
  6
CONTINUOUS
 10
2.103827
 20
-4.170594
  0
VERTEX
  8
PLAN_1
  6
CONTINUOUS
 10
2.091319
 20
-4.170071
  0
VERTEX
  8
PLAN_1
  6
CONTINUOUS
 10
2.080374
 20
-4.168508
  0
VERTEX
  8
PLAN_1
  6
CONTINUOUS
 10
2.070992
 20
-4.166425
  0
VERTEX
  8
PLAN_1
  6
CONTINUOUS
 10
2.063173
 20
-4.163819
  0
VERTEX
  8
PLAN_1
  6
CONTINUOUS
 10
2.056921
 20
-4.161213
  0
VERTEX
  8
PLAN_1
  6
CONTINUOUS
 10
2.051709
 20
-4.158087
  0
VERTEX
  8
PLAN_1
  6
CONTINUOUS
 10
2.047539
 20
-4.154437
  0
VERTEX
  8
PLAN_1
  6
CONTINUOUS
 10
2.043894
 20
-4.151311
  0
VERTEX
  8
PLAN_1
  6
CONTINUOUS
 10
2.038157
 20
-4.145579
  0
VERTEX
  8
PLAN_1
  6
CONTINUOUS
 10
2.033469
 20
-4.139846
  0
VERTEX
  8
PLAN_1
  6
CONTINUOUS
 10
2.029819
 20
-4.133591
  0
VERTEX
  8
PLAN_1
  6
CONTINUOUS
 10
2.027217
 20
-4.127339
  0
VERTEX
  8
PLAN_1
  6
CONTINUOUS
 10
2.025650
 20
-4.121083
  0
VERTEX
  8
PLAN_1
  6
CONTINUOUS
 10
2.024087
 20
-4.114307
  0
VERTEX
  8
PLAN_1
  6
CONTINUOUS
 10
2.023567
 20
-4.108055
  0
VERTEX
  8
PLAN_1
  6
CONTINUOUS
 10
2.023567
 20
-4.100760
  0
VERTEX
  8
PLAN_1
  6
CONTINUOUS
 10
2.048583
 20
-4.100760
  0
VERTEX
  8
PLAN_1
  6
CONTINUOUS
 10
2.049102
 20
-4.107531
  0
VERTEX
  8
PLAN_1
  6
CONTINUOUS
 10
2.050146
 20
-4.113268
  0
VERTEX
  8
PLAN_1
  6
CONTINUOUS
 10
2.051709
 20
-4.118476
  0
VERTEX
  8
PLAN_1
  6
CONTINUOUS
 10
2.053795
 20
-4.123689
  0
VERTEX
  8
PLAN_1
  6
CONTINUOUS
 10
2.056402
 20
-4.127858
  0
VERTEX
  8
PLAN_1
  6
CONTINUOUS
 10
2.059528
 20
-4.131508
  0
VERTEX
  8
PLAN_1
  6
CONTINUOUS
 10
2.062654
 20
-4.134634
  0
VERTEX
  8
PLAN_1
  6
CONTINUOUS
 10
2.066823
 20
-4.137760
  0
VERTEX
  8
PLAN_1
  6
CONTINUOUS
 10
2.070992
 20
-4.140366
  0
VERTEX
  8
PLAN_1
  6
CONTINUOUS
 10
2.075161
 20
-4.142453
  0
VERTEX
  8
PLAN_1
  6
CONTINUOUS
 10
2.079850
 20
-4.144016
  0
VERTEX
  8
PLAN_1
  6
CONTINUOUS
 10
2.084543
 20
-4.145579
  0
VERTEX
  8
PLAN_1
  6
CONTINUOUS
 10
2.089232
 20
-4.146098
  0
VERTEX
  8
PLAN_1
  6
CONTINUOUS
 10
2.093925
 20
-4.147142
  0
VERTEX
  8
PLAN_1
  6
CONTINUOUS
 10
2.099134
 20
-4.147661
  0
VERTEX
  8
PLAN_1
  6
CONTINUOUS
 10
2.103827
 20
-4.147661
  0
VERTEX
  8
PLAN_1
  6
CONTINUOUS
 10
2.111642
 20
-4.147142
  0
VERTEX
  8
PLAN_1
  6
CONTINUOUS
 10
2.119980
 20
-4.146098
  0
VERTEX
  8
PLAN_1
  6
CONTINUOUS
 10
2.124673
 20
-4.145579
  0
VERTEX
  8
PLAN_1
  6
CONTINUOUS
 10
2.128843
 20
-4.144535
  0
VERTEX
  8
PLAN_1
  6
CONTINUOUS
 10
2.133012
 20
-4.142972
  0
VERTEX
  8
PLAN_1
  6
CONTINUOUS
 10
2.137181
 20
-4.141409
  0
VERTEX
  8
PLAN_1
  6
CONTINUOUS
 10
2.140827
 20
-4.139323
  0
VERTEX
  8
PLAN_1
  6
CONTINUOUS
 10
2.144476
 20
-4.137240
  0
VERTEX
  8
PLAN_1
  6
CONTINUOUS
 10
2.147602
 20
-4.134634
  0
VERTEX
  8
PLAN_1
  6
CONTINUOUS
 10
2.150728
 20
-4.131508
  0
VERTEX
  8
PLAN_1
  6
CONTINUOUS
 10
2.152815
 20
-4.127858
  0
VERTEX
  8
PLAN_1
  6
CONTINUOUS
 10
2.154378
 20
-4.123689
  0
VERTEX
  8
PLAN_1
  6
CONTINUOUS
 10
2.155421
 20
-4.119000
  0
VERTEX
  8
PLAN_1
  6
CONTINUOUS
 10
2.155941
 20
-4.113787
  0
VERTEX
  8
PLAN_1
  6
CONTINUOUS
 10
2.155941
 20
-4.110138
  0
VERTEX
  8
PLAN_1
  6
CONTINUOUS
 10
2.155421
 20
-4.107012
  0
VERTEX
  8
PLAN_1
  6
CONTINUOUS
 10
2.154898
 20
-4.103886
  0
VERTEX
  8
PLAN_1
  6
CONTINUOUS
 10
2.153858
 20
-4.100760
  0
VERTEX
  8
PLAN_1
  6
CONTINUOUS
 10
2.152815
 20
-4.098154
  0
VERTEX
  8
PLAN_1
  6
CONTINUOUS
 10
2.151252
 20
-4.095547
  0
VERTEX
  8
PLAN_1
  6
CONTINUOUS
 10
2.149165
 20
-4.093461
  0
VERTEX
  8
PLAN_1
  6
CONTINUOUS
 10
2.147083
 20
-4.091378
  0
VERTEX
  8
PLAN_1
  6
CONTINUOUS
 10
2.144476
 20
-4.089815
  0
VERTEX
  8
PLAN_1
  6
CONTINUOUS
 10
2.141350
 20
-4.087728
  0
VERTEX
  8
PLAN_1
  6
CONTINUOUS
 10
2.137701
 20
-4.086165
  0
VERTEX
  8
PLAN_1
  6
CONTINUOUS
 10
2.134051
 20
-4.084602
  0
VERTEX
  8
PLAN_1
  6
CONTINUOUS
 10
2.124673
 20
-4.081476
  0
VERTEX
  8
PLAN_1
  6
CONTINUOUS
 10
2.113205
 20
-4.078870
  0
VERTEX
  8
PLAN_1
  6
CONTINUOUS
 10
2.072555
 20
-4.069488
  0
VERTEX
  8
PLAN_1
  6
CONTINUOUS
 10
2.066823
 20
-4.067925
  0
VERTEX
  8
PLAN_1
  6
CONTINUOUS
 10
2.060571
 20
-4.065319
  0
VERTEX
  8
PLAN_1
  6
CONTINUOUS
 10
2.056921
 20
-4.064276
  0
VERTEX
  8
PLAN_1
  6
CONTINUOUS
 10
2.053272
 20
-4.062193
  0
VERTEX
  8
PLAN_1
  6
CONTINUOUS
 10
2.050146
 20
-4.060106
  0
VERTEX
  8
PLAN_1
  6
CONTINUOUS
 10
2.046496
 20
-4.057500
  0
VERTEX
  8
PLAN_1
  6
CONTINUOUS
 10
2.043370
 20
-4.054898
  0
VERTEX
  8
PLAN_1
  6
CONTINUOUS
 10
2.040244
 20
-4.051768
  0
VERTEX
  8
PLAN_1
  6
CONTINUOUS
 10
2.037638
 20
-4.048122
  0
VERTEX
  8
PLAN_1
  6
CONTINUOUS
 10
2.035031
 20
-4.043953
  0
VERTEX
  8
PLAN_1
  6
CONTINUOUS
 10
2.032949
 20
-4.039260
  0
VERTEX
  8
PLAN_1
  6
CONTINUOUS
 10
2.031386
 20
-4.034051
  0
VERTEX
  8
PLAN_1
  6
CONTINUOUS
 10
2.030343
 20
-4.028839
  0
VERTEX
  8
PLAN_1
  6
CONTINUOUS
 10
2.030343
 20
-4.022583
  0
VERTEX
  8
PLAN_1
  6
CONTINUOUS
 10
2.030343
 20
-4.016331
  0
VERTEX
  8
PLAN_1
  6
CONTINUOUS
 10
2.031386
 20
-4.010598
  0
VERTEX
  8
PLAN_1
  6
CONTINUOUS
 10
2.032425
 20
-4.005386
  0
VERTEX
  8
PLAN_1
  6
CONTINUOUS
 10
2.033988
 20
-3.999654
  0
VERTEX
  8
PLAN_1
  6
CONTINUOUS
 10
2.036594
 20
-3.994441
  0
VERTEX
  8
PLAN_1
  6
CONTINUOUS
 10
2.039201
 20
-3.989228
  0
VERTEX
  8
PLAN_1
  6
CONTINUOUS
 10
2.042327
 20
-3.984539
  0
VERTEX
  8
PLAN_1
  6
CONTINUOUS
 10
2.046496
 20
-3.979850
  0
VERTEX
  8
PLAN_1
  6
CONTINUOUS
 10
2.050665
 20
-3.975681
  0
VERTEX
  8
PLAN_1
  6
CONTINUOUS
 10
2.055878
 20
-3.972031
  0
VERTEX
  8
PLAN_1
  6
CONTINUOUS
 10
2.061610
 20
-3.968906
  0
VERTEX
  8
PLAN_1
  6
CONTINUOUS
 10
2.067866
 20
-3.965776
  0
VERTEX
  8
PLAN_1
  6
CONTINUOUS
 10
2.074642
 20
-3.963693
  0
VERTEX
  8
PLAN_1
  6
CONTINUOUS
 10
2.081937
 20
-3.962130
  0
VERTEX
  8
PLAN_1
  6
CONTINUOUS
 10
2.089756
 20
-3.961087
  0
VERTEX
  8
PLAN_1
  6
CONTINUOUS
 10
2.098614
 20
-3.960567
  0
VERTEX
  8
PLAN_1
  6
CONTINUOUS
 10
2.111122
 20
-3.961087
  0
VERTEX
  8
PLAN_1
  6
CONTINUOUS
 10
2.122067
 20
-3.962650
  0
VERTEX
  8
PLAN_1
  6
CONTINUOUS
 10
2.131449
 20
-3.964736
  0
VERTEX
  8
PLAN_1
  6
CONTINUOUS
 10
2.140307
 20
-3.967862
  0
VERTEX
  8
PLAN_1
  6
CONTINUOUS
 10
2.147602
 20
-3.970988
  0
VERTEX
  8
PLAN_1
  6
CONTINUOUS
 10
2.153858
 20
-3.975157
  0
VERTEX
  8
PLAN_1
  6
CONTINUOUS
 10
2.159067
 20
-3.979327
  0
VERTEX
  8
PLAN_1
  6
CONTINUOUS
 10
2.163236
 20
-3.984539
  0
VERTEX
  8
PLAN_1
  6
CONTINUOUS
 10
2.166886
 20
-3.989228
  0
VERTEX
  8
PLAN_1
  6
CONTINUOUS
 10
2.169492
 20
-3.994441
  0
VERTEX
  8
PLAN_1
  6
CONTINUOUS
 10
2.172098
 20
-3.999654
  0
VERTEX
  8
PLAN_1
  6
CONTINUOUS
 10
2.173661
 20
-4.005386
  0
VERTEX
  8
PLAN_1
  6
CONTINUOUS
 10
2.175744
 20
-4.015287
  0
VERTEX
  8
PLAN_1
  6
CONTINUOUS
 10
2.176268
 20
-4.024146
  0
VERTEX
  8
PLAN_1
  6
CONTINUOUS
 10
2.151252
 20
-4.024146
  0
SEQEND
  8
0
  0
POLYLINE
  8
PLAN_1
  6
CONTINUOUS
 66
     1
 40
0.008339
 41
0.008339
  0
VERTEX
  8
PLAN_1
  6
CONTINUOUS
 10
-1.048685
 20
2.433051
  0
VERTEX
  8
PLAN_1
  6
CONTINUOUS
 10
-1.987295
 20
2.433051
  0
SEQEND
  8
0
  0
POLYLINE
  8
PLAN_1
  6
CONTINUOUS
 66
     1
 40
0.008339
 41
0.008339
  0
VERTEX
  8
PLAN_1
  6
CONTINUOUS
 10
-1.987295
 20
2.492984
  0
VERTEX
  8
PLAN_1
  6
CONTINUOUS
 10
-1.987295
 20
2.648291
  0
VERTEX
  8
PLAN_1
  6
CONTINUOUS
 10
-1.909122
 20
2.960469
  0
VERTEX
  8
PLAN_1
  6
CONTINUOUS
 10
-1.128421
 20
2.960469
  0
VERTEX
  8
PLAN_1
  6
CONTINUOUS
 10
-1.048685
 20
2.648291
  0
VERTEX
  8
PLAN_1
  6
CONTINUOUS
 10
-1.048685
 20
2.491941
  0
SEQEND
  8
0
  0
POLYLINE
  8
PLAN_1
  6
CONTINUOUS
 66
     1
 40
0.008339
 41
0.008339
  0
VERTEX
  8
PLAN_1
  6
CONTINUOUS
 10
-1.440598
 20
3.409189
  0
VERTEX
  8
PLAN_1
  6
CONTINUOUS
 10
-1.206594
 20
3.409189
  0
VERTEX
  8
PLAN_1
  6
CONTINUOUS
 10
-1.206594
 20
2.960469
  0
VERTEX
  8
PLAN_1
  6
CONTINUOUS
 10
-1.830949
 20
2.960469
  0
VERTEX
  8
PLAN_1
  6
CONTINUOUS
 10
-1.830949
 20
3.409189
  0
VERTEX
  8
PLAN_1
  6
CONTINUOUS
 10
-1.596945
 20
3.409189
  0
VERTEX
  8
PLAN_1
  6
CONTINUOUS
 10
-1.596945
 20
3.018839
  0
VERTEX
  8
PLAN_1
  6
CONTINUOUS
 10
-1.440598
 20
3.018839
  0
VERTEX
  8
PLAN_1
  6
CONTINUOUS
 10
-1.440598
 20
3.409189
  0
SEQEND
  8
0
  0
POLYLINE
  8
PLAN_1
  6
CONTINUOUS
 66
     1
 40
0.008339
 41
0.008339
  0
VERTEX
  8
PLAN_1
  6
CONTINUOUS
 10
-1.754858
 20
2.492984
  0
VERTEX
  8
PLAN_1
  6
CONTINUOUS
 10
-1.754858
 20
2.509142
  0
VERTEX
  8
PLAN_1
  6
CONTINUOUS
 10
-1.755378
 20
2.525819
  0
VERTEX
  8
PLAN_1
  6
CONTINUOUS
 10
-1.756421
 20
2.542496
  0
VERTEX
  8
PLAN_1
  6
CONTINUOUS
 10
-1.757465
 20
2.559693
  0
VERTEX
  8
PLAN_1
  6
CONTINUOUS
 10
-1.761114
 20
2.593571
  0
VERTEX
  8
PLAN_1
  6
CONTINUOUS
 10
-1.765283
 20
2.627965
  0
VERTEX
  8
PLAN_1
  6
CONTINUOUS
 10
-1.770492
 20
2.661843
  0
VERTEX
  8
PLAN_1
  6
CONTINUOUS
 10
-1.776224
 20
2.694673
  0
VERTEX
  8
PLAN_1
  6
CONTINUOUS
 10
-1.782480
 20
2.726988
  0
VERTEX
  8
PLAN_1
  6
CONTINUOUS
 10
-1.789256
 20
2.757213
  0
VERTEX
  8
PLAN_1
  6
CONTINUOUS
 10
-1.795508
 20
2.785358
  0
VERTEX
  8
PLAN_1
  6
CONTINUOUS
 10
-1.801764
 20
2.811413
  0
VERTEX
  8
PLAN_1
  6
CONTINUOUS
 10
-1.807496
 20
2.834346
  0
VERTEX
  8
PLAN_1
  6
CONTINUOUS
 10
-1.812709
 20
2.854150
  0
VERTEX
  8
PLAN_1
  6
CONTINUOUS
 10
-1.820524
 20
2.882291
  0
VERTEX
  8
PLAN_1
  6
CONTINUOUS
 10
-1.823654
 20
2.892197
  0
VERTEX
  8
PLAN_1
  6
CONTINUOUS
 10
-1.827299
 20
2.897406
  0
VERTEX
  8
PLAN_1
  6
CONTINUOUS
 10
-1.831469
 20
2.901575
  0
VERTEX
  8
PLAN_1
  6
CONTINUOUS
 10
-1.835638
 20
2.904181
  0
VERTEX
  8
PLAN_1
  6
CONTINUOUS
 10
-1.839807
 20
2.906268
  0
VERTEX
  8
PLAN_1
  6
CONTINUOUS
 10
-1.843976
 20
2.907831
  0
VERTEX
  8
PLAN_1
  6
CONTINUOUS
 10
-1.848146
 20
2.908350
  0
VERTEX
  8
PLAN_1
  6
CONTINUOUS
 10
-1.852315
 20
2.908350
  0
VERTEX
  8
PLAN_1
  6
CONTINUOUS
 10
-1.855965
 20
2.907831
  0
VERTEX
  8
PLAN_1
  6
CONTINUOUS
 10
-1.862740
 20
2.906268
  0
VERTEX
  8
PLAN_1
  6
CONTINUOUS
 10
-1.868472
 20
2.903661
  0
VERTEX
  8
PLAN_1
  6
CONTINUOUS
 10
-1.872122
 20
2.902098
  0
VERTEX
  8
PLAN_1
  6
CONTINUOUS
 10
-1.873161
 20
2.901055
  0
VERTEX
  8
PLAN_1
  6
CONTINUOUS
 10
-1.878374
 20
2.891673
  0
VERTEX
  8
PLAN_1
  6
CONTINUOUS
 10
-1.883063
 20
2.882291
  0
VERTEX
  8
PLAN_1
  6
CONTINUOUS
 10
-1.887756
 20
2.872390
  0
VERTEX
  8
PLAN_1
  6
CONTINUOUS
 10
-1.892445
 20
2.862488
  0
VERTEX
  8
PLAN_1
  6
CONTINUOUS
 10
-1.900783
 20
2.841642
  0
VERTEX
  8
PLAN_1
  6
CONTINUOUS
 10
-1.908079
 20
2.820795
  0
VERTEX
  8
PLAN_1
  6
CONTINUOUS
 10
-1.914854
 20
2.799429
  0
VERTEX
  8
PLAN_1
  6
CONTINUOUS
 10
-1.921110
 20
2.778583
  0
VERTEX
  8
PLAN_1
  6
CONTINUOUS
 10
-1.926323
 20
2.758256
  0
VERTEX
  8
PLAN_1
  6
CONTINUOUS
 10
-1.931012
 20
2.738453
  0
VERTEX
  8
PLAN_1
  6
CONTINUOUS
 10
-1.938307
 20
2.702492
  0
VERTEX
  8
PLAN_1
  6
CONTINUOUS
 10
-1.943520
 20
2.673827
  0
VERTEX
  8
PLAN_1
  6
CONTINUOUS
 10
-1.946646
 20
2.654543
  0
VERTEX
  8
PLAN_1
  6
CONTINUOUS
 10
-1.947689
 20
2.647772
  0
SEQEND
  8
0
  0
POLYLINE
  8
PLAN_1
  6
CONTINUOUS
 66
     1
 40
0.008339
 41
0.008339
  0
VERTEX
  8
PLAN_1
  6
CONTINUOUS
 10
-1.947689
 20
2.647772
  0
VERTEX
  8
PLAN_1
  6
CONTINUOUS
 10
-1.947689
 20
2.465362
  0
SEQEND
  8
0
  0
POLYLINE
  8
PLAN_1
  6
CONTINUOUS
 66
     1
 40
0.008339
 41
0.008339
  0
VERTEX
  8
PLAN_1
  6
CONTINUOUS
 10
-1.279559
 20
2.492984
  0
VERTEX
  8
PLAN_1
  6
CONTINUOUS
 10
-1.279559
 20
2.509142
  0
VERTEX
  8
PLAN_1
  6
CONTINUOUS
 10
-1.279039
 20
2.525819
  0
VERTEX
  8
PLAN_1
  6
CONTINUOUS
 10
-1.277996
 20
2.542496
  0
VERTEX
  8
PLAN_1
  6
CONTINUOUS
 10
-1.276433
 20
2.559693
  0
VERTEX
  8
PLAN_1
  6
CONTINUOUS
 10
-1.273303
 20
2.593571
  0
VERTEX
  8
PLAN_1
  6
CONTINUOUS
 10
-1.268614
 20
2.627965
  0
VERTEX
  8
PLAN_1
  6
CONTINUOUS
 10
-1.263402
 20
2.661843
  0
VERTEX
  8
PLAN_1
  6
CONTINUOUS
 10
-1.257669
 20
2.694673
  0
VERTEX
  8
PLAN_1
  6
CONTINUOUS
 10
-1.251417
 20
2.726988
  0
VERTEX
  8
PLAN_1
  6
CONTINUOUS
 10
-1.245161
 20
2.757213
  0
VERTEX
  8
PLAN_1
  6
CONTINUOUS
 10
-1.238909
 20
2.785358
  0
VERTEX
  8
PLAN_1
  6
CONTINUOUS
 10
-1.232654
 20
2.811413
  0
VERTEX
  8
PLAN_1
  6
CONTINUOUS
 10
-1.226921
 20
2.834346
  0
VERTEX
  8
PLAN_1
  6
CONTINUOUS
 10
-1.221709
 20
2.854150
  0
VERTEX
  8
PLAN_1
  6
CONTINUOUS
 10
-1.213894
 20
2.882291
  0
VERTEX
  8
PLAN_1
  6
CONTINUOUS
 10
-1.210764
 20
2.892197
  0
VERTEX
  8
PLAN_1
  6
CONTINUOUS
 10
-1.207638
 20
2.897929
  0
VERTEX
  8
PLAN_1
  6
CONTINUOUS
 10
-1.204512
 20
2.902098
  0
VERTEX
  8
PLAN_1
  6
CONTINUOUS
 10
-1.201386
 20
2.905224
  0
VERTEX
  8
PLAN_1
  6
CONTINUOUS
 10
-1.197736
 20
2.907831
  0
VERTEX
  8
PLAN_1
  6
CONTINUOUS
 10
-1.194087
 20
2.908874
  0
VERTEX
  8
PLAN_1
  6
CONTINUOUS
 10
-1.190441
 20
2.909394
  0
VERTEX
  8
PLAN_1
  6
CONTINUOUS
 10
-1.186791
 20
2.909394
  0
VERTEX
  8
PLAN_1
  6
CONTINUOUS
 10
-1.183146
 20
2.908874
  0
VERTEX
  8
PLAN_1
  6
CONTINUOUS
 10
-1.176890
 20
2.906787
  0
VERTEX
  8
PLAN_1
  6
CONTINUOUS
 10
-1.171677
 20
2.904181
  0
VERTEX
  8
PLAN_1
  6
CONTINUOUS
 10
-1.168031
 20
2.902098
  0
VERTEX
  8
PLAN_1
  6
CONTINUOUS
 10
-1.166469
 20
2.901055
  0
VERTEX
  8
PLAN_1
  6
CONTINUOUS
 10
-1.161776
 20
2.891673
  0
VERTEX
  8
PLAN_1
  6
CONTINUOUS
 10
-1.156563
 20
2.882291
  0
VERTEX
  8
PLAN_1
  6
CONTINUOUS
 10
-1.151874
 20
2.872390
  0
VERTEX
  8
PLAN_1
  6
CONTINUOUS
 10
-1.147185
 20
2.862488
  0
VERTEX
  8
PLAN_1
  6
CONTINUOUS
 10
-1.138846
 20
2.841642
  0
VERTEX
  8
PLAN_1
  6
CONTINUOUS
 10
-1.131028
 20
2.820795
  0
VERTEX
  8
PLAN_1
  6
CONTINUOUS
 10
-1.123732
 20
2.799429
  0
VERTEX
  8
PLAN_1
  6
CONTINUOUS
 10
-1.116957
 20
2.778583
  0
VERTEX
  8
PLAN_1
  6
CONTINUOUS
 10
-1.111224
 20
2.758256
  0
VERTEX
  8
PLAN_1
  6
CONTINUOUS
 10
-1.106012
 20
2.738453
  0
VERTEX
  8
PLAN_1
  6
CONTINUOUS
 10
-1.097673
 20
2.702492
  0
VERTEX
  8
PLAN_1
  6
CONTINUOUS
 10
-1.091421
 20
2.673827
  0
VERTEX
  8
PLAN_1
  6
CONTINUOUS
 10
-1.087772
 20
2.654543
  0
VERTEX
  8
PLAN_1
  6
CONTINUOUS
 10
-1.086728
 20
2.647772
  0
SEQEND
  8
0
  0
POLYLINE
  8
PLAN_1
  6
CONTINUOUS
 66
     1
 40
0.008339
 41
0.008339
  0
VERTEX
  8
PLAN_1
  6
CONTINUOUS
 10
-1.086728
 20
2.647772
  0
VERTEX
  8
PLAN_1
  6
CONTINUOUS
 10
-1.086728
 20
2.465362
  0
SEQEND
  8
0
  0
POLYLINE
  8
PLAN_1
  6
CONTINUOUS
 66
     1
 40
0.008339
 41
0.008339
  0
VERTEX
  8
PLAN_1
  6
CONTINUOUS
 10
-2.006579
 20
2.121398
  0
VERTEX
  8
PLAN_1
  6
CONTINUOUS
 10
-2.006579
 20
2.199051
  0
VERTEX
  8
PLAN_1
  6
CONTINUOUS
 10
-2.045665
 20
2.199051
  0
SEQEND
  8
0
  0
POLYLINE
  8
PLAN_1
  6
CONTINUOUS
 66
     1
 40
0.008339
 41
0.008339
  0
VERTEX
  8
PLAN_1
  6
CONTINUOUS
 10
-1.032528
 20
2.121398
  0
VERTEX
  8
PLAN_1
  6
CONTINUOUS
 10
-1.032008
 20
2.199051
  0
VERTEX
  8
PLAN_1
  6
CONTINUOUS
 10
-0.993441
 20
2.199051
  0
SEQEND
  8
0
  0
POLYLINE
  8
PLAN_1
  6
CONTINUOUS
 66
     1
 40
0.008339
 41
0.008339
  0
VERTEX
  8
PLAN_1
  6
CONTINUOUS
 10
-2.045665
 20
2.433571
  0
VERTEX
  8
PLAN_1
  6
CONTINUOUS
 10
-2.045665
 20
2.121398
  0
VERTEX
  8
PLAN_1
  6
CONTINUOUS
 10
-0.991878
 20
2.121398
  0
VERTEX
  8
PLAN_1
  6
CONTINUOUS
 10
-0.991878
 20
2.433571
  0
VERTEX
  8
PLAN_1
  6
CONTINUOUS
 10
-1.284772
 20
2.433571
  0
VERTEX
  8
PLAN_1
  6
CONTINUOUS
 10
-1.284772
 20
2.491941
  0
VERTEX
  8
PLAN_1
  6
CONTINUOUS
 10
-1.753295
 20
2.491941
  0
VERTEX
  8
PLAN_1
  6
CONTINUOUS
 10
-1.753295
 20
2.433571
  0
VERTEX
  8
PLAN_1
  6
CONTINUOUS
 10
-2.045665
 20
2.433571
  0
SEQEND
  8
0
  0
POLYLINE
  8
PLAN_1
  6
CONTINUOUS
 66
     1
 40
0.008339
 41
0.008339
  0
VERTEX
  8
PLAN_1
  6
CONTINUOUS
 10
-1.917461
 20
2.491941
  0
VERTEX
  8
PLAN_1
  6
CONTINUOUS
 10
-1.830429
 20
2.491941
  0
VERTEX
  8
PLAN_1
  6
CONTINUOUS
 10
-1.830429
 20
2.433051
  0
VERTEX
  8
PLAN_1
  6
CONTINUOUS
 10
-2.045146
 20
2.433051
  0
VERTEX
  8
PLAN_1
  6
CONTINUOUS
 10
-2.045146
 20
2.491941
  0
VERTEX
  8
PLAN_1
  6
CONTINUOUS
 10
-1.958634
 20
2.491941
  0
VERTEX
  8
PLAN_1
  6
CONTINUOUS
 10
-1.958634
 20
2.461717
  0
VERTEX
  8
PLAN_1
  6
CONTINUOUS
 10
-1.917461
 20
2.461717
  0
VERTEX
  8
PLAN_1
  6
CONTINUOUS
 10
-1.917461
 20
2.491941
  0
SEQEND
  8
0
  0
POLYLINE
  8
PLAN_1
  6
CONTINUOUS
 66
     1
 40
0.008339
 41
0.008339
  0
VERTEX
  8
PLAN_1
  6
CONTINUOUS
 10
-1.078909
 20
2.491941
  0
VERTEX
  8
PLAN_1
  6
CONTINUOUS
 10
-0.992398
 20
2.491941
  0
VERTEX
  8
PLAN_1
  6
CONTINUOUS
 10
-0.992398
 20
2.433051
  0
VERTEX
  8
PLAN_1
  6
CONTINUOUS
 10
-1.207118
 20
2.433051
  0
VERTEX
  8
PLAN_1
  6
CONTINUOUS
 10
-1.207118
 20
2.491941
  0
VERTEX
  8
PLAN_1
  6
CONTINUOUS
 10
-1.120083
 20
2.491941
  0
VERTEX
  8
PLAN_1
  6
CONTINUOUS
 10
-1.120083
 20
2.461717
  0
VERTEX
  8
PLAN_1
  6
CONTINUOUS
 10
-1.079433
 20
2.461717
  0
VERTEX
  8
PLAN_1
  6
CONTINUOUS
 10
-1.078909
 20
2.491941
  0
SEQEND
  8
0
  0
POLYLINE
  8
PLAN_1
  6
CONTINUOUS
 66
     1
 40
0.008339
 41
0.008339
  0
VERTEX
  8
PLAN_1
  6
CONTINUOUS
 10
-1.450500
 20
3.289843
  0
VERTEX
  8
PLAN_1
  6
CONTINUOUS
 10
-1.450500
 20
3.758366
  0
VERTEX
  8
PLAN_1
  6
CONTINUOUS
 10
-1.587043
 20
3.758366
  0
VERTEX
  8
PLAN_1
  6
CONTINUOUS
 10
-1.587043
 20
3.289843
  0
VERTEX
  8
PLAN_1
  6
CONTINUOUS
 10
-1.450500
 20
3.289843
  0
SEQEND
  8
0
  0
POLYLINE
  8
PLAN_1
  6
CONTINUOUS
 66
     1
 40
0.008339
 41
0.008339
  0
VERTEX
  8
PLAN_1
  6
CONTINUOUS
 10
-1.590693
 20
3.676543
  0
VERTEX
  8
PLAN_1
  6
CONTINUOUS
 10
-1.602157
 20
3.671854
  0
VERTEX
  8
PLAN_1
  6
CONTINUOUS
 10
-1.613102
 20
3.666642
  0
VERTEX
  8
PLAN_1
  6
CONTINUOUS
 10
-1.622484
 20
3.661429
  0
VERTEX
  8
PLAN_1
  6
CONTINUOUS
 10
-1.631343
 20
3.655697
  0
VERTEX
  8
PLAN_1
  6
CONTINUOUS
 10
-1.639161
 20
3.649445
  0
VERTEX
  8
PLAN_1
  6
CONTINUOUS
 10
-1.645937
 20
3.643713
  0
VERTEX
  8
PLAN_1
  6
CONTINUOUS
 10
-1.652189
 20
3.637457
  0
VERTEX
  8
PLAN_1
  6
CONTINUOUS
 10
-1.657402
 20
3.631724
  0
VERTEX
  8
PLAN_1
  6
CONTINUOUS
 10
-1.661571
 20
3.626512
  0
VERTEX
  8
PLAN_1
  6
CONTINUOUS
 10
-1.665740
 20
3.621299
  0
VERTEX
  8
PLAN_1
  6
CONTINUOUS
 10
-1.668346
 20
3.616610
  0
VERTEX
  8
PLAN_1
  6
CONTINUOUS
 10
-1.670953
 20
3.612441
  0
VERTEX
  8
PLAN_1
  6
CONTINUOUS
 10
-1.674079
 20
3.606709
  0
VERTEX
  8
PLAN_1
  6
CONTINUOUS
 10
-1.675122
 20
3.604102
  0
SEQEND
  8
0
  0
POLYLINE
  8
PLAN_1
  6
CONTINUOUS
 66
     1
 40
0.008339
 41
0.008339
  0
VERTEX
  8
PLAN_1
  6
CONTINUOUS
 10
-1.675122
 20
3.604102
  0
VERTEX
  8
PLAN_1
  6
CONTINUOUS
 10
-1.674598
 20
3.604622
  0
SEQEND
  8
0
  0
POLYLINE
  8
PLAN_1
  6
CONTINUOUS
 66
     1
 40
0.008339
 41
0.008339
  0
VERTEX
  8
PLAN_1
  6
CONTINUOUS
 10
-1.674598
 20
3.604622
  0
VERTEX
  8
PLAN_1
  6
CONTINUOUS
 10
-1.669909
 20
3.583776
  0
VERTEX
  8
PLAN_1
  6
CONTINUOUS
 10
-1.666260
 20
3.563453
  0
VERTEX
  8
PLAN_1
  6
CONTINUOUS
 10
-1.663654
 20
3.544169
  0
VERTEX
  8
PLAN_1
  6
CONTINUOUS
 10
-1.662091
 20
3.525929
  0
VERTEX
  8
PLAN_1
  6
CONTINUOUS
 10
-1.661571
 20
3.508728
  0
VERTEX
  8
PLAN_1
  6
CONTINUOUS
 10
-1.661571
 20
3.493094
  0
VERTEX
  8
PLAN_1
  6
CONTINUOUS
 10
-1.662614
 20
3.477980
  0
VERTEX
  8
PLAN_1
  6
CONTINUOUS
 10
-1.663654
 20
3.464953
  0
VERTEX
  8
PLAN_1
  6
CONTINUOUS
 10
-1.665220
 20
3.452965
  0
VERTEX
  8
PLAN_1
  6
CONTINUOUS
 10
-1.666783
 20
3.442020
  0
VERTEX
  8
PLAN_1
  6
CONTINUOUS
 10
-1.668866
 20
3.432642
  0
VERTEX
  8
PLAN_1
  6
CONTINUOUS
 10
-1.670429
 20
3.425343
  0
VERTEX
  8
PLAN_1
  6
CONTINUOUS
 10
-1.673559
 20
3.414921
  0
VERTEX
  8
PLAN_1
  6
CONTINUOUS
 10
-1.674598
 20
3.411272
  0
SEQEND
  8
0
  0
POLYLINE
  8
PLAN_1
  6
CONTINUOUS
 66
     1
 40
0.008339
 41
0.008339
  0
VERTEX
  8
PLAN_1
  6
CONTINUOUS
 10
-1.674598
 20
3.411272
  0
VERTEX
  8
PLAN_1
  6
CONTINUOUS
 10
-1.589650
 20
3.411272
  0
SEQEND
  8
0
  0
POLYLINE
  8
PLAN_1
  6
CONTINUOUS
 66
     1
 40
0.008339
 41
0.008339
  0
VERTEX
  8
PLAN_1
  6
CONTINUOUS
 10
-1.451543
 20
3.411272
  0
VERTEX
  8
PLAN_1
  6
CONTINUOUS
 10
-1.362945
 20
3.411272
  0
SEQEND
  8
0
  0
POLYLINE
  8
PLAN_1
  6
CONTINUOUS
 66
     1
 40
0.008339
 41
0.008339
  0
VERTEX
  8
PLAN_1
  6
CONTINUOUS
 10
-1.362945
 20
3.411272
  0
VERTEX
  8
PLAN_1
  6
CONTINUOUS
 10
-1.364508
 20
3.414921
  0
VERTEX
  8
PLAN_1
  6
CONTINUOUS
 10
-1.367114
 20
3.425343
  0
VERTEX
  8
PLAN_1
  6
CONTINUOUS
 10
-1.369197
 20
3.432642
  0
VERTEX
  8
PLAN_1
  6
CONTINUOUS
 10
-1.370764
 20
3.442020
  0
VERTEX
  8
PLAN_1
  6
CONTINUOUS
 10
-1.372327
 20
3.452965
  0
VERTEX
  8
PLAN_1
  6
CONTINUOUS
 10
-1.373890
 20
3.464953
  0
VERTEX
  8
PLAN_1
  6
CONTINUOUS
 10
-1.375453
 20
3.477980
  0
VERTEX
  8
PLAN_1
  6
CONTINUOUS
 10
-1.375972
 20
3.493094
  0
VERTEX
  8
PLAN_1
  6
CONTINUOUS
 10
-1.375972
 20
3.508728
  0
VERTEX
  8
PLAN_1
  6
CONTINUOUS
 10
-1.375453
 20
3.525929
  0
VERTEX
  8
PLAN_1
  6
CONTINUOUS
 10
-1.373890
 20
3.544169
  0
VERTEX
  8
PLAN_1
  6
CONTINUOUS
 10
-1.371283
 20
3.563453
  0
VERTEX
  8
PLAN_1
  6
CONTINUOUS
 10
-1.368157
 20
3.583776
  0
VERTEX
  8
PLAN_1
  6
CONTINUOUS
 10
-1.362945
 20
3.604622
  0
VERTEX
  8
PLAN_1
  6
CONTINUOUS
 10
-1.363988
 20
3.607228
  0
VERTEX
  8
PLAN_1
  6
CONTINUOUS
 10
-1.367114
 20
3.612961
  0
VERTEX
  8
PLAN_1
  6
CONTINUOUS
 10
-1.369720
 20
3.617130
  0
VERTEX
  8
PLAN_1
  6
CONTINUOUS
 10
-1.372846
 20
3.621823
  0
VERTEX
  8
PLAN_1
  6
CONTINUOUS
 10
-1.376496
 20
3.627035
  0
VERTEX
  8
PLAN_1
  6
CONTINUOUS
 10
-1.381185
 20
3.632768
  0
VERTEX
  8
PLAN_1
  6
CONTINUOUS
 10
-1.386398
 20
3.638500
  0
VERTEX
  8
PLAN_1
  6
CONTINUOUS
 10
-1.392650
 20
3.644752
  0
VERTEX
  8
PLAN_1
  6
CONTINUOUS
 10
-1.399425
 20
3.650484
  0
VERTEX
  8
PLAN_1
  6
CONTINUOUS
 10
-1.407764
 20
3.656740
  0
VERTEX
  8
PLAN_1
  6
CONTINUOUS
 10
-1.416626
 20
3.662472
  0
VERTEX
  8
PLAN_1
  6
CONTINUOUS
 10
-1.426528
 20
3.667685
  0
VERTEX
  8
PLAN_1
  6
CONTINUOUS
 10
-1.437472
 20
3.672898
  0
VERTEX
  8
PLAN_1
  6
CONTINUOUS
 10
-1.449457
 20
3.677067
  0
SEQEND
  8
0
  0
POLYLINE
  8
PLAN_1
  6
CONTINUOUS
 66
     1
 40
0.008339
 41
0.008339
  0
VERTEX
  8
PLAN_1
  6
CONTINUOUS
 10
-1.362945
 20
3.602020
  0
VERTEX
  8
PLAN_1
  6
CONTINUOUS
 10
-1.450500
 20
3.602020
  0
SEQEND
  8
0
  0
POLYLINE
  8
PLAN_1
  6
CONTINUOUS
 66
     1
 40
0.008339
 41
0.008339
  0
VERTEX
  8
PLAN_1
  6
CONTINUOUS
 10
-1.589650
 20
3.602020
  0
VERTEX
  8
PLAN_1
  6
CONTINUOUS
 10
-1.674598
 20
3.602020
  0
SEQEND
  8
0
  0
POLYLINE
  8
PLAN_1
  6
CONTINUOUS
 66
     1
 40
0.008339
 41
0.008339
  0
VERTEX
  8
PLAN_1
  6
CONTINUOUS
 10
-1.048685
 20
2.648811
  0
VERTEX
  8
PLAN_1
  6
CONTINUOUS
 10
-1.086728
 20
2.648811
  0
SEQEND
  8
0
  0
POLYLINE
  8
PLAN_1
  6
CONTINUOUS
 66
     1
 40
0.008339
 41
0.008339
  0
VERTEX
  8
PLAN_1
  6
CONTINUOUS
 10
-1.265488
 20
2.648811
  0
VERTEX
  8
PLAN_1
  6
CONTINUOUS
 10
-1.768929
 20
2.648811
  0
SEQEND
  8
0
  0
POLYLINE
  8
PLAN_1
  6
CONTINUOUS
 66
     1
 40
0.008339
 41
0.008339
  0
VERTEX
  8
PLAN_1
  6
CONTINUOUS
 10
-1.947689
 20
2.648811
  0
VERTEX
  8
PLAN_1
  6
CONTINUOUS
 10
-1.984693
 20
2.648811
  0
SEQEND
  8
0
  0
POLYLINE
  8
PLAN_1
  6
CONTINUOUS
 66
     1
 40
0.008339
 41
0.008339
  0
VERTEX
  8
PLAN_1
  6
CONTINUOUS
 10
-0.988752
 20
-0.359335
  0
VERTEX
  8
PLAN_1
  6
CONTINUOUS
 10
-0.988752
 20
2.121398
  0
VERTEX
  8
PLAN_1
  6
CONTINUOUS
 10
-2.064949
 20
2.121398
  0
VERTEX
  8
PLAN_1
  6
CONTINUOUS
 10
-2.106122
 20
1.822248
  0
VERTEX
  8
PLAN_1
  6
CONTINUOUS
 10
-1.976354
 20
1.822248
  0
VERTEX
  8
PLAN_1
  6
CONTINUOUS
 10
-1.976354
 20
-0.359335
  0
VERTEX
  8
PLAN_1
  6
CONTINUOUS
 10
-0.988752
 20
-0.359335
  0
SEQEND
  8
0
  0
POLYLINE
  8
PLAN_1
  6
CONTINUOUS
 66
     1
 40
0.008339
 41
0.008339
  0
VERTEX
  8
PLAN_1
  6
CONTINUOUS
 10
-1.976354
 20
-0.359335
  0
VERTEX
  8
PLAN_1
  6
CONTINUOUS
 10
-1.976354
 20
1.821728
  0
VERTEX
  8
PLAN_1
  6
CONTINUOUS
 10
-2.106122
 20
1.821728
  0
VERTEX
  8
PLAN_1
  6
CONTINUOUS
 10
-2.106122
 20
-0.359335
  0
VERTEX
  8
PLAN_1
  6
CONTINUOUS
 10
-1.976354
 20
-0.359335
  0
SEQEND
  8
0
  0
POLYLINE
  8
PLAN_1
  6
CONTINUOUS
 66
     1
 40
0.008339
 41
0.008339
  0
VERTEX
  8
PLAN_1
  6
CONTINUOUS
 10
-1.974268
 20
1.613783
  0
VERTEX
  8
PLAN_1
  6
CONTINUOUS
 10
-1.236303
 20
1.613783
  0
SEQEND
  8
0
  0
POLYLINE
  8
PLAN_1
  6
CONTINUOUS
 66
     1
 40
0.008339
 41
0.008339
  0
VERTEX
  8
PLAN_1
  6
CONTINUOUS
 10
-1.236303
 20
1.418870
  0
VERTEX
  8
PLAN_1
  6
CONTINUOUS
 10
-1.236303
 20
2.121398
  0
SEQEND
  8
0
  0
POLYLINE
  8
PLAN_1
  6
CONTINUOUS
 66
     1
 40
0.008339
 41
0.008339
  0
VERTEX
  8
PLAN_1
  6
CONTINUOUS
 10
-2.106122
 20
1.319327
  0
VERTEX
  8
PLAN_1
  6
CONTINUOUS
 10
-2.106122
 20
1.503819
  0
VERTEX
  8
PLAN_1
  6
CONTINUOUS
 10
-2.172831
 20
1.503819
  0
VERTEX
  8
PLAN_1
  6
CONTINUOUS
 10
-2.172831
 20
1.319327
  0
VERTEX
  8
PLAN_1
  6
CONTINUOUS
 10
-2.106122
 20
1.319327
  0
SEQEND
  8
0
  0
POLYLINE
  8
PLAN_1
  6
CONTINUOUS
 66
     1
 40
0.008339
 41
0.008339
  0
VERTEX
  8
PLAN_1
  6
CONTINUOUS
 10
-1.091941
 20
-0.858610
  0
VERTEX
  8
PLAN_1
  6
CONTINUOUS
 10
-1.091941
 20
-0.774181
  0
VERTEX
  8
PLAN_1
  6
CONTINUOUS
 10
-1.887756
 20
-0.774181
  0
VERTEX
  8
PLAN_1
  6
CONTINUOUS
 10
-1.887756
 20
-0.858610
  0
VERTEX
  8
PLAN_1
  6
CONTINUOUS
 10
-1.091941
 20
-0.858610
  0
SEQEND
  8
0
  0
POLYLINE
  8
PLAN_1
  6
CONTINUOUS
 66
     1
 40
0.008339
 41
0.008339
  0
VERTEX
  8
PLAN_1
  6
CONTINUOUS
 10
-0.989791
 20
-0.774181
  0
VERTEX
  8
PLAN_1
  6
CONTINUOUS
 10
-0.989791
 20
-0.359335
  0
VERTEX
  8
PLAN_1
  6
CONTINUOUS
 10
-1.976354
 20
-0.359335
  0
VERTEX
  8
PLAN_1
  6
CONTINUOUS
 10
-1.976354
 20
-0.774181
  0
VERTEX
  8
PLAN_1
  6
CONTINUOUS
 10
-0.989791
 20
-0.774181
  0
SEQEND
  8
0
  0
POLYLINE
  8
PLAN_1
  6
CONTINUOUS
 66
     1
 40
0.008339
 41
0.008339
  0
VERTEX
  8
PLAN_1
  6
CONTINUOUS
 10
-1.044516
 20
-1.031634
  0
VERTEX
  8
PLAN_1
  6
CONTINUOUS
 10
-1.044516
 20
-0.858610
  0
VERTEX
  8
PLAN_1
  6
CONTINUOUS
 10
-1.922154
 20
-0.858610
  0
VERTEX
  8
PLAN_1
  6
CONTINUOUS
 10
-1.922154
 20
-1.031634
  0
VERTEX
  8
PLAN_1
  6
CONTINUOUS
 10
-1.044516
 20
-1.031634
  0
SEQEND
  8
0
  0
POLYLINE
  8
PLAN_1
  6
CONTINUOUS
 66
     1
 40
0.008339
 41
0.008339
  0
VERTEX
  8
PLAN_1
  6
CONTINUOUS
 10
-1.924756
 20
-0.951898
  0
VERTEX
  8
PLAN_1
  6
CONTINUOUS
 10
-1.913291
 20
-0.960756
  0
VERTEX
  8
PLAN_1
  6
CONTINUOUS
 10
-1.901307
 20
-0.969094
  0
VERTEX
  8
PLAN_1
  6
CONTINUOUS
 10
-1.889319
 20
-0.977433
  0
VERTEX
  8
PLAN_1
  6
CONTINUOUS
 10
-1.876811
 20
-0.984728
  0
VERTEX
  8
PLAN_1
  6
CONTINUOUS
 10
-1.864303
 20
-0.991504
  0
VERTEX
  8
PLAN_1
  6
CONTINUOUS
 10
-1.851276
 20
-0.998280
  0
VERTEX
  8
PLAN_1
  6
CONTINUOUS
 10
-1.837724
 20
-1.004012
  0
VERTEX
  8
PLAN_1
  6
CONTINUOUS
 10
-1.824173
 20
-1.009224
  0
VERTEX
  8
PLAN_1
  6
CONTINUOUS
 10
-1.810102
 20
-1.013913
  0
VERTEX
  8
PLAN_1
  6
CONTINUOUS
 10
-1.796031
 20
-1.018083
  0
VERTEX
  8
PLAN_1
  6
CONTINUOUS
 10
-1.781437
 20
-1.021732
  0
VERTEX
  8
PLAN_1
  6
CONTINUOUS
 10
-1.766846
 20
-1.024858
  0
VERTEX
  8
PLAN_1
  6
CONTINUOUS
 10
-1.751732
 20
-1.026945
  0
VERTEX
  8
PLAN_1
  6
CONTINUOUS
 10
-1.736618
 20
-1.028508
  0
VERTEX
  8
PLAN_1
  6
CONTINUOUS
 10
-1.721504
 20
-1.029551
  0
VERTEX
  8
PLAN_1
  6
CONTINUOUS
 10
-1.705870
 20
-1.030071
  0
VERTEX
  8
PLAN_1
  6
CONTINUOUS
 10
-1.690236
 20
-1.029551
  0
VERTEX
  8
PLAN_1
  6
CONTINUOUS
 10
-1.675122
 20
-1.029028
  0
VERTEX
  8
PLAN_1
  6
CONTINUOUS
 10
-1.661051
 20
-1.027465
  0
VERTEX
  8
PLAN_1
  6
CONTINUOUS
 10
-1.646976
 20
-1.025382
  0
VERTEX
  8
PLAN_1
  6
CONTINUOUS
 10
-1.633429
 20
-1.023295
  0
VERTEX
  8
PLAN_1
  6
CONTINUOUS
 10
-1.619878
 20
-1.020169
  0
VERTEX
  8
PLAN_1
  6
CONTINUOUS
 10
-1.606850
 20
-1.016000
  0
VERTEX
  8
PLAN_1
  6
CONTINUOUS
 10
-1.593819
 20
-1.011831
  0
VERTEX
  8
PLAN_1
  6
CONTINUOUS
 10
-1.580791
 20
-1.006618
  0
VERTEX
  8
PLAN_1
  6
CONTINUOUS
 10
-1.567760
 20
-1.000886
  0
VERTEX
  8
PLAN_1
  6
CONTINUOUS
 10
-1.554732
 20
-0.994634
  0
VERTEX
  8
PLAN_1
  6
CONTINUOUS
 10
-1.541705
 20
-0.987858
  0
VERTEX
  8
PLAN_1
  6
CONTINUOUS
 10
-1.528673
 20
-0.980039
  0
VERTEX
  8
PLAN_1
  6
CONTINUOUS
 10
-1.515126
 20
-0.971181
  0
VERTEX
  8
PLAN_1
  6
CONTINUOUS
 10
-1.501051
 20
-0.961799
  0
VERTEX
  8
PLAN_1
  6
CONTINUOUS
 10
-1.486980
 20
-0.951898
  0
VERTEX
  8
PLAN_1
  6
CONTINUOUS
 10
-1.476559
 20
-0.960236
  0
VERTEX
  8
PLAN_1
  6
CONTINUOUS
 10
-1.465614
 20
-0.967531
  0
VERTEX
  8
PLAN_1
  6
CONTINUOUS
 10
-1.454150
 20
-0.975350
  0
VERTEX
  8
PLAN_1
  6
CONTINUOUS
 10
-1.441642
 20
-0.982646
  0
VERTEX
  8
PLAN_1
  6
CONTINUOUS
 10
-1.429134
 20
-0.989421
  0
VERTEX
  8
PLAN_1
  6
CONTINUOUS
 10
-1.416102
 20
-0.995673
  0
VERTEX
  8
PLAN_1
  6
CONTINUOUS
 10
-1.402551
 20
-1.001929
  0
VERTEX
  8
PLAN_1
  6
CONTINUOUS
 10
-1.388480
 20
-1.007142
  0
VERTEX
  8
PLAN_1
  6
CONTINUOUS
 10
-1.374409
 20
-1.012350
  0
VERTEX
  8
PLAN_1
  6
CONTINUOUS
 10
-1.359819
 20
-1.016520
  0
VERTEX
  8
PLAN_1
  6
CONTINUOUS
 10
-1.344705
 20
-1.020689
  0
VERTEX
  8
PLAN_1
  6
CONTINUOUS
 10
-1.329591
 20
-1.023819
  0
VERTEX
  8
PLAN_1
  6
CONTINUOUS
 10
-1.314476
 20
-1.026421
  0
VERTEX
  8
PLAN_1
  6
CONTINUOUS
 10
-1.298843
 20
-1.028508
  0
VERTEX
  8
PLAN_1
  6
CONTINUOUS
 10
-1.283728
 20
-1.029551
  0
VERTEX
  8
PLAN_1
  6
CONTINUOUS
 10
-1.268094
 20
-1.030071
  0
VERTEX
  8
PLAN_1
  6
CONTINUOUS
 10
-1.252457
 20
-1.029551
  0
VERTEX
  8
PLAN_1
  6
CONTINUOUS
 10
-1.236823
 20
-1.028508
  0
VERTEX
  8
PLAN_1
  6
CONTINUOUS
 10
-1.221189
 20
-1.026945
  0
VERTEX
  8
PLAN_1
  6
CONTINUOUS
 10
-1.206075
 20
-1.024339
  0
VERTEX
  8
PLAN_1
  6
CONTINUOUS
 10
-1.191484
 20
-1.021213
  0
VERTEX
  8
PLAN_1
  6
CONTINUOUS
 10
-1.176370
 20
-1.017563
  0
VERTEX
  8
PLAN_1
  6
CONTINUOUS
 10
-1.162299
 20
-1.013394
  0
VERTEX
  8
PLAN_1
  6
CONTINUOUS
 10
-1.147705
 20
-1.008705
  0
VERTEX
  8
PLAN_1
  6
CONTINUOUS
 10
-1.134154
 20
-1.002972
  0
VERTEX
  8
PLAN_1
  6
CONTINUOUS
 10
-1.120606
 20
-0.997236
  0
VERTEX
  8
PLAN_1
  6
CONTINUOUS
 10
-1.107055
 20
-0.990465
  0
VERTEX
  8
PLAN_1
  6
CONTINUOUS
 10
-1.094547
 20
-0.983165
  0
VERTEX
  8
PLAN_1
  6
CONTINUOUS
 10
-1.081516
 20
-0.975350
  0
VERTEX
  8
PLAN_1
  6
CONTINUOUS
 10
-1.069531
 20
-0.967531
  0
VERTEX
  8
PLAN_1
  6
CONTINUOUS
 10
-1.057543
 20
-0.958673
  0
VERTEX
  8
PLAN_1
  6
CONTINUOUS
 10
-1.046079
 20
-0.949291
  0
SEQEND
  8
0
  0
POLYLINE
  8
PLAN_1
  6
CONTINUOUS
 66
     1
 40
0.008339
 41
0.008339
  0
VERTEX
  8
PLAN_1
  6
CONTINUOUS
 10
-1.486980
 20
-0.858610
  0
VERTEX
  8
PLAN_1
  6
CONTINUOUS
 10
-1.486980
 20
-0.952941
  0
SEQEND
  8
0
  0
POLYLINE
  8
PLAN_1
  6
CONTINUOUS
 66
     1
 40
0.008339
 41
0.008339
  0
VERTEX
  8
PLAN_1
  6
CONTINUOUS
 10
-2.106122
 20
-0.325980
  0
VERTEX
  8
PLAN_1
  6
CONTINUOUS
 10
-2.106122
 20
-0.140969
  0
VERTEX
  8
PLAN_1
  6
CONTINUOUS
 10
-2.172831
 20
-0.140969
  0
VERTEX
  8
PLAN_1
  6
CONTINUOUS
 10
-2.172831
 20
-0.325980
  0
VERTEX
  8
PLAN_1
  6
CONTINUOUS
 10
-2.106122
 20
-0.325980
  0
SEQEND
  8
0
  0
POLYLINE
  8
PLAN_1
  6
CONTINUOUS
 66
     1
 40
0.008339
 41
0.008339
  0
VERTEX
  8
PLAN_1
  6
CONTINUOUS
 10
-2.037850
 20
1.821209
  0
VERTEX
  8
PLAN_1
  6
CONTINUOUS
 10
-2.037850
 20
-0.358291
  0
SEQEND
  8
0
  0
POLYLINE
  8
PLAN_1
 62
     2
  6
CONTINUOUS
 66
     1
 40
0.004169
 41
0.004169
  0
VERTEX
  8
PLAN_1
 62
     2
  6
CONTINUOUS
 10
-1.492193
 20
4.071063
  0
VERTEX
  8
PLAN_1
 62
     2
  6
CONTINUOUS
 10
-1.018976
 20
4.071063
  0
SEQEND
  8
0
  0
SOLID
  8
PLAN_1
 62
     2
 10
-0.989272
 20
4.071063
 11
-1.048161
 21
4.087220
 12
-0.989272
 22
4.071063
 13
-1.048161
 23
4.055429
  0
POLYLINE
  8
PLAN_1
 62
     2
  6
CONTINUOUS
 66
     1
 40
0.003000
 41
0.003000
  0
VERTEX
  8
PLAN_1
 62
     2
  6
CONTINUOUS
 10
-0.989272
 20
4.071063
  0
VERTEX
  8
PLAN_1
 62
     2
  6
CONTINUOUS
 10
-1.048161
 20
4.087220
  0
VERTEX
  8
PLAN_1
 62
     2
  6
CONTINUOUS
 10
-1.048161
 20
4.055429
  0
VERTEX
  8
PLAN_1
 62
     2
  6
CONTINUOUS
 10
-0.989272
 20
4.071063
  0
SEQEND
  8
0
  0
SOLID
  8
PLAN_1
 62
     2
 10
-1.521898
 20
4.071063
 11
-1.462488
 21
4.087220
 12
-1.521898
 22
4.071063
 13
-1.462488
 23
4.055429
  0
POLYLINE
  8
PLAN_1
 62
     2
  6
CONTINUOUS
 66
     1
 40
0.003000
 41
0.003000
  0
VERTEX
  8
PLAN_1
 62
     2
  6
CONTINUOUS
 10
-1.521898
 20
4.071063
  0
VERTEX
  8
PLAN_1
 62
     2
  6
CONTINUOUS
 10
-1.462488
 20
4.087220
  0
VERTEX
  8
PLAN_1
 62
     2
  6
CONTINUOUS
 10
-1.462488
 20
4.055429
  0
VERTEX
  8
PLAN_1
 62
     2
  6
CONTINUOUS
 10
-1.521898
 20
4.071063
  0
SEQEND
  8
0
  0
POLYLINE
  8
PLAN_1
 62
     2
  6
CONTINUOUS
 66
     1
 40
0.003000
 41
0.003000
  0
VERTEX
  8
PLAN_1
 62
     2
  6
CONTINUOUS
 10
-1.280079
 20
4.095035
  0
VERTEX
  8
PLAN_1
 62
     2
  6
CONTINUOUS
 10
-1.289980
 20
4.095035
  0
VERTEX
  8
PLAN_1
 62
     2
  6
CONTINUOUS
 10
-1.289980
 20
4.146634
  0
VERTEX
  8
PLAN_1
 62
     2
  6
CONTINUOUS
 10
-1.306657
 20
4.146634
  0
VERTEX
  8
PLAN_1
 62
     2
  6
CONTINUOUS
 10
-1.306657
 20
4.153929
  0
VERTEX
  8
PLAN_1
 62
     2
  6
CONTINUOUS
 10
-1.302488
 20
4.154449
  0
VERTEX
  8
PLAN_1
 62
     2
  6
CONTINUOUS
 10
-1.299362
 20
4.154972
  0
VERTEX
  8
PLAN_1
 62
     2
  6
CONTINUOUS
 10
-1.296236
 20
4.155492
  0
VERTEX
  8
PLAN_1
 62
     2
  6
CONTINUOUS
 10
-1.293630
 20
4.157055
  0
VERTEX
  8
PLAN_1
 62
     2
  6
CONTINUOUS
 10
-1.291547
 20
4.158618
  0
VERTEX
  8
PLAN_1
 62
     2
  6
CONTINUOUS
 10
-1.289980
 20
4.160705
  0
VERTEX
  8
PLAN_1
 62
     2
  6
CONTINUOUS
 10
-1.288417
 20
4.163831
  0
VERTEX
  8
PLAN_1
 62
     2
  6
CONTINUOUS
 10
-1.287378
 20
4.168000
  0
VERTEX
  8
PLAN_1
 62
     2
  6
CONTINUOUS
 10
-1.280079
 20
4.168000
  0
VERTEX
  8
PLAN_1
 62
     2
  6
CONTINUOUS
 10
-1.280079
 20
4.095035
  0
SEQEND
  8
0
  0
POLYLINE
  8
PLAN_1
 62
     2
  6
CONTINUOUS
 66
     1
 40
0.003000
 41
0.003000
  0
VERTEX
  8
PLAN_1
 62
     2
  6
CONTINUOUS
 10
-1.215457
 20
4.112756
  0
VERTEX
  8
PLAN_1
 62
     2
  6
CONTINUOUS
 10
-1.215457
 20
4.095035
  0
VERTEX
  8
PLAN_1
 62
     2
  6
CONTINUOUS
 10
-1.224839
 20
4.095035
  0
VERTEX
  8
PLAN_1
 62
     2
  6
CONTINUOUS
 10
-1.224839
 20
4.112756
  0
VERTEX
  8
PLAN_1
 62
     2
  6
CONTINUOUS
 10
-1.256626
 20
4.112756
  0
VERTEX
  8
PLAN_1
 62
     2
  6
CONTINUOUS
 10
-1.256626
 20
4.121618
  0
VERTEX
  8
PLAN_1
 62
     2
  6
CONTINUOUS
 10
-1.223272
 20
4.168000
  0
VERTEX
  8
PLAN_1
 62
     2
  6
CONTINUOUS
 10
-1.215457
 20
4.168000
  0
VERTEX
  8
PLAN_1
 62
     2
  6
CONTINUOUS
 10
-1.215457
 20
4.120575
  0
VERTEX
  8
PLAN_1
 62
     2
  6
CONTINUOUS
 10
-1.205031
 20
4.120575
  0
VERTEX
  8
PLAN_1
 62
     2
  6
CONTINUOUS
 10
-1.205031
 20
4.112756
  0
VERTEX
  8
PLAN_1
 62
     2
  6
CONTINUOUS
 10
-1.215457
 20
4.112756
  0
SEQEND
  8
0
  0
SOLID
  8
PLAN_1
 62
     2
 10
-1.248287
 20
4.120575
 11
-1.224839
 21
4.120575
 12
-1.248287
 22
4.120575
 13
-1.224839
 23
4.153929
  0
POLYLINE
  8
PLAN_1
 62
     2
  6
CONTINUOUS
 66
     1
 40
0.003000
 41
0.003000
  0
VERTEX
  8
PLAN_1
 62
     2
  6
CONTINUOUS
 10
-1.248287
 20
4.120575
  0
VERTEX
  8
PLAN_1
 62
     2
  6
CONTINUOUS
 10
-1.224839
 20
4.120575
  0
VERTEX
  8
PLAN_1
 62
     2
  6
CONTINUOUS
 10
-1.224839
 20
4.153929
  0
VERTEX
  8
PLAN_1
 62
     2
  6
CONTINUOUS
 10
-1.248287
 20
4.120575
  0
SEQEND
  8
0
  0
POLYLINE
  8
PLAN_1
 62
     2
  6
CONTINUOUS
 66
     1
 40
0.004169
 41
0.004169
  0
VERTEX
  8
PLAN_1
 62
     2
  6
CONTINUOUS
 10
-2.138957
 20
-1.327134
  0
VERTEX
  8
PLAN_1
 62
     2
  6
CONTINUOUS
 10
-1.019500
 20
-1.327134
  0
SEQEND
  8
0
  0
SOLID
  8
PLAN_1
 62
     2
 10
-0.989791
 20
-1.327134
 11
-1.049205
 21
-1.311500
 12
-0.989791
 22
-1.327134
 13
-1.049205
 23
-1.342768
  0
POLYLINE
  8
PLAN_1
 62
     2
  6
CONTINUOUS
 66
     1
 40
0.003000
 41
0.003000
  0
VERTEX
  8
PLAN_1
 62
     2
  6
CONTINUOUS
 10
-0.989791
 20
-1.327134
  0
VERTEX
  8
PLAN_1
 62
     2
  6
CONTINUOUS
 10
-1.049205
 20
-1.311500
  0
VERTEX
  8
PLAN_1
 62
     2
  6
CONTINUOUS
 10
-1.049205
 20
-1.342768
  0
VERTEX
  8
PLAN_1
 62
     2
  6
CONTINUOUS
 10
-0.989791
 20
-1.327134
  0
SEQEND
  8
0
  0
SOLID
  8
PLAN_1
 62
     2
 10
-2.168142
 20
-1.327134
 11
-2.109248
 21
-1.311500
 12
-2.168142
 22
-1.327134
 13
-2.109248
 23
-1.342768
  0
POLYLINE
  8
PLAN_1
 62
     2
  6
CONTINUOUS
 66
     1
 40
0.003000
 41
0.003000
  0
VERTEX
  8
PLAN_1
 62
     2
  6
CONTINUOUS
 10
-2.168142
 20
-1.327134
  0
VERTEX
  8
PLAN_1
 62
     2
  6
CONTINUOUS
 10
-2.109248
 20
-1.311500
  0
VERTEX
  8
PLAN_1
 62
     2
  6
CONTINUOUS
 10
-2.109248
 20
-1.342768
  0
VERTEX
  8
PLAN_1
 62
     2
  6
CONTINUOUS
 10
-2.168142
 20
-1.327134
  0
SEQEND
  8
0
  0
POLYLINE
  8
PLAN_1
 62
     2
  6
CONTINUOUS
 66
     1
 40
0.003000
 41
0.003000
  0
VERTEX
  8
PLAN_1
 62
     2
  6
CONTINUOUS
 10
-1.613622
 20
-1.261988
  0
VERTEX
  8
PLAN_1
 62
     2
  6
CONTINUOUS
 10
-1.613102
 20
-1.261988
  0
VERTEX
  8
PLAN_1
 62
     2
  6
CONTINUOUS
 10
-1.612583
 20
-1.261988
  0
VERTEX
  8
PLAN_1
 62
     2
  6
CONTINUOUS
 10
-1.612059
 20
-1.261988
  0
VERTEX
  8
PLAN_1
 62
     2
  6
CONTINUOUS
 10
-1.611539
 20
-1.261988
  0
VERTEX
  8
PLAN_1
 62
     2
  6
CONTINUOUS
 10
-1.610496
 20
-1.261988
  0
VERTEX
  8
PLAN_1
 62
     2
  6
CONTINUOUS
 10
-1.609976
 20
-1.261988
  0
VERTEX
  8
PLAN_1
 62
     2
  6
CONTINUOUS
 10
-1.609453
 20
-1.262508
  0
VERTEX
  8
PLAN_1
 62
     2
  6
CONTINUOUS
 10
-1.608933
 20
-1.262508
  0
VERTEX
  8
PLAN_1
 62
     2
  6
CONTINUOUS
 10
-1.606327
 20
-1.261988
  0
VERTEX
  8
PLAN_1
 62
     2
  6
CONTINUOUS
 10
-1.603720
 20
-1.261469
  0
VERTEX
  8
PLAN_1
 62
     2
  6
CONTINUOUS
 10
-1.601638
 20
-1.260945
  0
VERTEX
  8
PLAN_1
 62
     2
  6
CONTINUOUS
 10
-1.599551
 20
-1.259902
  0
VERTEX
  8
PLAN_1
 62
     2
  6
CONTINUOUS
 10
-1.597469
 20
-1.258339
  0
VERTEX
  8
PLAN_1
 62
     2
  6
CONTINUOUS
 10
-1.596425
 20
-1.256256
  0
VERTEX
  8
PLAN_1
 62
     2
  6
CONTINUOUS
 10
-1.595382
 20
-1.253650
  0
VERTEX
  8
PLAN_1
 62
     2
  6
CONTINUOUS
 10
-1.594862
 20
-1.250524
  0
VERTEX
  8
PLAN_1
 62
     2
  6
CONTINUOUS
 10
-1.594862
 20
-1.248437
  0
VERTEX
  8
PLAN_1
 62
     2
  6
CONTINUOUS
 10
-1.595382
 20
-1.246874
  0
VERTEX
  8
PLAN_1
 62
     2
  6
CONTINUOUS
 10
-1.596425
 20
-1.244791
  0
VERTEX
  8
PLAN_1
 62
     2
  6
CONTINUOUS
 10
-1.597469
 20
-1.242705
  0
VERTEX
  8
PLAN_1
 62
     2
  6
CONTINUOUS
 10
-1.599551
 20
-1.241142
  0
VERTEX
  8
PLAN_1
 62
     2
  6
CONTINUOUS
 10
-1.601638
 20
-1.240098
  0
VERTEX
  8
PLAN_1
 62
     2
  6
CONTINUOUS
 10
-1.604764
 20
-1.239055
  0
VERTEX
  8
PLAN_1
 62
     2
  6
CONTINUOUS
 10
-1.608413
 20
-1.238535
  0
VERTEX
  8
PLAN_1
 62
     2
  6
CONTINUOUS
 10
-1.612583
 20
-1.239055
  0
VERTEX
  8
PLAN_1
 62
     2
  6
CONTINUOUS
 10
-1.616228
 20
-1.240622
  0
VERTEX
  8
PLAN_1
 62
     2
  6
CONTINUOUS
 10
-1.618835
 20
-1.242185
  0
VERTEX
  8
PLAN_1
 62
     2
  6
CONTINUOUS
 10
-1.620398
 20
-1.244791
  0
VERTEX
  8
PLAN_1
 62
     2
  6
CONTINUOUS
 10
-1.621441
 20
-1.247394
  0
VERTEX
  8
PLAN_1
 62
     2
  6
CONTINUOUS
 10
-1.621961
 20
-1.250000
  0
VERTEX
  8
PLAN_1
 62
     2
  6
CONTINUOUS
 10
-1.622484
 20
-1.252087
  0
VERTEX
  8
PLAN_1
 62
     2
  6
CONTINUOUS
 10
-1.623004
 20
-1.254693
  0
VERTEX
  8
PLAN_1
 62
     2
  6
CONTINUOUS
 10
-1.631866
 20
-1.254693
  0
VERTEX
  8
PLAN_1
 62
     2
  6
CONTINUOUS
 10
-1.631343
 20
-1.250524
  0
VERTEX
  8
PLAN_1
 62
     2
  6
CONTINUOUS
 10
-1.630823
 20
-1.246354
  0
VERTEX
  8
PLAN_1
 62
     2
  6
CONTINUOUS
 10
-1.629260
 20
-1.242185
  0
VERTEX
  8
PLAN_1
 62
     2
  6
CONTINUOUS
 10
-1.627173
 20
-1.238535
  0
VERTEX
  8
PLAN_1
 62
     2
  6
CONTINUOUS
 10
-1.625610
 20
-1.236972
  0
VERTEX
  8
PLAN_1
 62
     2
  6
CONTINUOUS
 10
-1.624047
 20
-1.235409
  0
VERTEX
  8
PLAN_1
 62
     2
  6
CONTINUOUS
 10
-1.621961
 20
-1.233846
  0
VERTEX
  8
PLAN_1
 62
     2
  6
CONTINUOUS
 10
-1.619878
 20
-1.232803
  0
VERTEX
  8
PLAN_1
 62
     2
  6
CONTINUOUS
 10
-1.617272
 20
-1.231760
  0
VERTEX
  8
PLAN_1
 62
     2
  6
CONTINUOUS
 10
-1.614665
 20
-1.231240
  0
VERTEX
  8
PLAN_1
 62
     2
  6
CONTINUOUS
 10
-1.611539
 20
-1.230717
  0
VERTEX
  8
PLAN_1
 62
     2
  6
CONTINUOUS
 10
-1.607890
 20
-1.230717
  0
VERTEX
  8
PLAN_1
 62
     2
  6
CONTINUOUS
 10
-1.603201
 20
-1.230717
  0
VERTEX
  8
PLAN_1
 62
     2
  6
CONTINUOUS
 10
-1.598512
 20
-1.231760
  0
VERTEX
  8
PLAN_1
 62
     2
  6
CONTINUOUS
 10
-1.594862
 20
-1.233846
  0
VERTEX
  8
PLAN_1
 62
     2
  6
CONTINUOUS
 10
-1.591736
 20
-1.235929
  0
VERTEX
  8
PLAN_1
 62
     2
  6
CONTINUOUS
 10
-1.589130
 20
-1.239055
  0
VERTEX
  8
PLAN_1
 62
     2
  6
CONTINUOUS
 10
-1.587043
 20
-1.242185
  0
VERTEX
  8
PLAN_1
 62
     2
  6
CONTINUOUS
 10
-1.586004
 20
-1.245831
  0
VERTEX
  8
PLAN_1
 62
     2
  6
CONTINUOUS
 10
-1.585480
 20
-1.250000
  0
VERTEX
  8
PLAN_1
 62
     2
  6
CONTINUOUS
 10
-1.586004
 20
-1.253130
  0
VERTEX
  8
PLAN_1
 62
     2
  6
CONTINUOUS
 10
-1.586524
 20
-1.255732
  0
VERTEX
  8
PLAN_1
 62
     2
  6
CONTINUOUS
 10
-1.587567
 20
-1.258339
  0
VERTEX
  8
PLAN_1
 62
     2
  6
CONTINUOUS
 10
-1.588606
 20
-1.260425
  0
VERTEX
  8
PLAN_1
 62
     2
  6
CONTINUOUS
 10
-1.590173
 20
-1.261988
  0
VERTEX
  8
PLAN_1
 62
     2
  6
CONTINUOUS
 10
-1.591736
 20
-1.263031
  0
VERTEX
  8
PLAN_1
 62
     2
  6
CONTINUOUS
 10
-1.593299
 20
-1.264071
  0
VERTEX
  8
PLAN_1
 62
     2
  6
CONTINUOUS
 10
-1.594862
 20
-1.264594
  0
VERTEX
  8
PLAN_1
 62
     2
  6
CONTINUOUS
 10
-1.594862
 20
-1.265114
  0
VERTEX
  8
PLAN_1
 62
     2
  6
CONTINUOUS
 10
-1.592256
 20
-1.266157
  0
VERTEX
  8
PLAN_1
 62
     2
  6
CONTINUOUS
 10
-1.590173
 20
-1.267201
  0
VERTEX
  8
PLAN_1
 62
     2
  6
CONTINUOUS
 10
-1.588087
 20
-1.268764
  0
VERTEX
  8
PLAN_1
 62
     2
  6
CONTINUOUS
 10
-1.586004
 20
-1.270846
  0
VERTEX
  8
PLAN_1
 62
     2
  6
CONTINUOUS
 10
-1.584961
 20
-1.272933
  0
VERTEX
  8
PLAN_1
 62
     2
  6
CONTINUOUS
 10
-1.583398
 20
-1.275539
  0
VERTEX
  8
PLAN_1
 62
     2
  6
CONTINUOUS
 10
-1.582874
 20
-1.278665
  0
VERTEX
  8
PLAN_1
 62
     2
  6
CONTINUOUS
 10
-1.582874
 20
-1.282315
  0
VERTEX
  8
PLAN_1
 62
     2
  6
CONTINUOUS
 10
-1.582874
 20
-1.286484
  0
VERTEX
  8
PLAN_1
 62
     2
  6
CONTINUOUS
 10
-1.584437
 20
-1.290654
  0
VERTEX
  8
PLAN_1
 62
     2
  6
CONTINUOUS
 10
-1.586004
 20
-1.294823
  0
VERTEX
  8
PLAN_1
 62
     2
  6
CONTINUOUS
 10
-1.589130
 20
-1.298469
  0
VERTEX
  8
PLAN_1
 62
     2
  6
CONTINUOUS
 10
-1.590693
 20
-1.300031
  0
VERTEX
  8
PLAN_1
 62
     2
  6
CONTINUOUS
 10
-1.592776
 20
-1.301598
  0
VERTEX
  8
PLAN_1
 62
     2
  6
CONTINUOUS
 10
-1.594862
 20
-1.302638
  0
VERTEX
  8
PLAN_1
 62
     2
  6
CONTINUOUS
 10
-1.596945
 20
-1.303681
  0
VERTEX
  8
PLAN_1
 62
     2
  6
CONTINUOUS
 10
-1.599551
 20
-1.304724
  0
VERTEX
  8
PLAN_1
 62
     2
  6
CONTINUOUS
 10
-1.602681
 20
-1.305244
  0
VERTEX
  8
PLAN_1
 62
     2
  6
CONTINUOUS
 10
-1.605807
 20
-1.305768
  0
VERTEX
  8
PLAN_1
 62
     2
  6
CONTINUOUS
 10
-1.608933
 20
-1.305768
  0
VERTEX
  8
PLAN_1
 62
     2
  6
CONTINUOUS
 10
-1.611020
 20
-1.305768
  0
VERTEX
  8
PLAN_1
 62
     2
  6
CONTINUOUS
 10
-1.613102
 20
-1.305244
  0
VERTEX
  8
PLAN_1
 62
     2
  6
CONTINUOUS
 10
-1.614665
 20
-1.305244
  0
VERTEX
  8
PLAN_1
 62
     2
  6
CONTINUOUS
 10
-1.616752
 20
-1.304724
  0
VERTEX
  8
PLAN_1
 62
     2
  6
CONTINUOUS
 10
-1.618315
 20
-1.304201
  0
VERTEX
  8
PLAN_1
 62
     2
  6
CONTINUOUS
 10
-1.619878
 20
-1.303681
  0
VERTEX
  8
PLAN_1
 62
     2
  6
CONTINUOUS
 10
-1.620921
 20
-1.303161
  0
VERTEX
  8
PLAN_1
 62
     2
  6
CONTINUOUS
 10
-1.622484
 20
-1.302638
  0
VERTEX
  8
PLAN_1
 62
     2
  6
CONTINUOUS
 10
-1.625091
 20
-1.300555
  0
VERTEX
  8
PLAN_1
 62
     2
  6
CONTINUOUS
 10
-1.627697
 20
-1.298469
  0
VERTEX
  8
PLAN_1
 62
     2
  6
CONTINUOUS
 10
-1.629260
 20
-1.295862
  0
VERTEX
  8
PLAN_1
 62
     2
  6
CONTINUOUS
 10
-1.630823
 20
-1.293260
  0
VERTEX
  8
PLAN_1
 62
     2
  6
CONTINUOUS
 10
-1.631866
 20
-1.290654
  0
VERTEX
  8
PLAN_1
 62
     2
  6
CONTINUOUS
 10
-1.632906
 20
-1.287524
  0
VERTEX
  8
PLAN_1
 62
     2
  6
CONTINUOUS
 10
-1.632906
 20
-1.284398
  0
VERTEX
  8
PLAN_1
 62
     2
  6
CONTINUOUS
 10
-1.633429
 20
-1.281272
  0
VERTEX
  8
PLAN_1
 62
     2
  6
CONTINUOUS
 10
-1.624047
 20
-1.281272
  0
VERTEX
  8
PLAN_1
 62
     2
  6
CONTINUOUS
 10
-1.624047
 20
-1.283878
  0
VERTEX
  8
PLAN_1
 62
     2
  6
CONTINUOUS
 10
-1.623528
 20
-1.286484
  0
VERTEX
  8
PLAN_1
 62
     2
  6
CONTINUOUS
 10
-1.622484
 20
-1.289610
  0
VERTEX
  8
PLAN_1
 62
     2
  6
CONTINUOUS
 10
-1.621441
 20
-1.291693
  0
VERTEX
  8
PLAN_1
 62
     2
  6
CONTINUOUS
 10
-1.619358
 20
-1.294299
  0
VERTEX
  8
PLAN_1
 62
     2
  6
CONTINUOUS
 10
-1.616752
 20
-1.295862
  0
VERTEX
  8
PLAN_1
 62
     2
  6
CONTINUOUS
 10
-1.613102
 20
-1.296906
  0
VERTEX
  8
PLAN_1
 62
     2
  6
CONTINUOUS
 10
-1.608413
 20
-1.297429
  0
VERTEX
  8
PLAN_1
 62
     2
  6
CONTINUOUS
 10
-1.605283
 20
-1.296906
  0
VERTEX
  8
PLAN_1
 62
     2
  6
CONTINUOUS
 10
-1.602157
 20
-1.296386
  0
VERTEX
  8
PLAN_1
 62
     2
  6
CONTINUOUS
 10
-1.599031
 20
-1.295343
  0
VERTEX
  8
PLAN_1
 62
     2
  6
CONTINUOUS
 10
-1.596945
 20
-1.293260
  0
VERTEX
  8
PLAN_1
 62
     2
  6
CONTINUOUS
 10
-1.594862
 20
-1.291693
  0
VERTEX
  8
PLAN_1
 62
     2
  6
CONTINUOUS
 10
-1.593819
 20
-1.289091
  0
VERTEX
  8
PLAN_1
 62
     2
  6
CONTINUOUS
 10
-1.592776
 20
-1.286484
  0
VERTEX
  8
PLAN_1
 62
     2
  6
CONTINUOUS
 10
-1.592256
 20
-1.283354
  0
VERTEX
  8
PLAN_1
 62
     2
  6
CONTINUOUS
 10
-1.592776
 20
-1.279185
  0
VERTEX
  8
PLAN_1
 62
     2
  6
CONTINUOUS
 10
-1.594343
 20
-1.276059
  0
VERTEX
  8
PLAN_1
 62
     2
  6
CONTINUOUS
 10
-1.596425
 20
-1.273453
  0
VERTEX
  8
PLAN_1
 62
     2
  6
CONTINUOUS
 10
-1.598512
 20
-1.271890
  0
VERTEX
  8
PLAN_1
 62
     2
  6
CONTINUOUS
 10
-1.601638
 20
-1.270846
  0
VERTEX
  8
PLAN_1
 62
     2
  6
CONTINUOUS
 10
-1.604244
 20
-1.270327
  0
VERTEX
  8
PLAN_1
 62
     2
  6
CONTINUOUS
 10
-1.606850
 20
-1.269807
  0
VERTEX
  8
PLAN_1
 62
     2
  6
CONTINUOUS
 10
-1.609453
 20
-1.269807
  0
VERTEX
  8
PLAN_1
 62
     2
  6
CONTINUOUS
 10
-1.609976
 20
-1.269807
  0
VERTEX
  8
PLAN_1
 62
     2
  6
CONTINUOUS
 10
-1.610496
 20
-1.269807
  0
VERTEX
  8
PLAN_1
 62
     2
  6
CONTINUOUS
 10
-1.611020
 20
-1.269807
  0
VERTEX
  8
PLAN_1
 62
     2
  6
CONTINUOUS
 10
-1.611539
 20
-1.269807
  0
VERTEX
  8
PLAN_1
 62
     2
  6
CONTINUOUS
 10
-1.612059
 20
-1.269807
  0
VERTEX
  8
PLAN_1
 62
     2
  6
CONTINUOUS
 10
-1.612583
 20
-1.269807
  0
VERTEX
  8
PLAN_1
 62
     2
  6
CONTINUOUS
 10
-1.613102
 20
-1.269807
  0
VERTEX
  8
PLAN_1
 62
     2
  6
CONTINUOUS
 10
-1.613622
 20
-1.269807
  0
VERTEX
  8
PLAN_1
 62
     2
  6
CONTINUOUS
 10
-1.613622
 20
-1.261988
  0
SEQEND
  8
0
  0
POLYLINE
  8
PLAN_1
 62
     2
  6
CONTINUOUS
 66
     1
 40
0.003000
 41
0.003000
  0
VERTEX
  8
PLAN_1
 62
     2
  6
CONTINUOUS
 10
-1.550043
 20
-1.305768
  0
VERTEX
  8
PLAN_1
 62
     2
  6
CONTINUOUS
 10
-1.553689
 20
-1.305244
  0
VERTEX
  8
PLAN_1
 62
     2
  6
CONTINUOUS
 10
-1.557339
 20
-1.304724
  0
VERTEX
  8
PLAN_1
 62
     2
  6
CONTINUOUS
 10
-1.560465
 20
-1.303681
  0
VERTEX
  8
PLAN_1
 62
     2
  6
CONTINUOUS
 10
-1.563071
 20
-1.302118
  0
VERTEX
  8
PLAN_1
 62
     2
  6
CONTINUOUS
 10
-1.565157
 20
-1.300031
  0
VERTEX
  8
PLAN_1
 62
     2
  6
CONTINUOUS
 10
-1.567240
 20
-1.297949
  0
VERTEX
  8
PLAN_1
 62
     2
  6
CONTINUOUS
 10
-1.569327
 20
-1.295343
  0
VERTEX
  8
PLAN_1
 62
     2
  6
CONTINUOUS
 10
-1.570366
 20
-1.292736
  0
VERTEX
  8
PLAN_1
 62
     2
  6
CONTINUOUS
 10
-1.572972
 20
-1.286484
  0
VERTEX
  8
PLAN_1
 62
     2
  6
CONTINUOUS
 10
-1.574535
 20
-1.280228
  0
VERTEX
  8
PLAN_1
 62
     2
  6
CONTINUOUS
 10
-1.575059
 20
-1.273976
  0
VERTEX
  8
PLAN_1
 62
     2
  6
CONTINUOUS
 10
-1.575059
 20
-1.268240
  0
VERTEX
  8
PLAN_1
 62
     2
  6
CONTINUOUS
 10
-1.575059
 20
-1.261988
  0
VERTEX
  8
PLAN_1
 62
     2
  6
CONTINUOUS
 10
-1.574535
 20
-1.255732
  0
VERTEX
  8
PLAN_1
 62
     2
  6
CONTINUOUS
 10
-1.572972
 20
-1.249480
  0
VERTEX
  8
PLAN_1
 62
     2
  6
CONTINUOUS
 10
-1.570366
 20
-1.243748
  0
VERTEX
  8
PLAN_1
 62
     2
  6
CONTINUOUS
 10
-1.569327
 20
-1.241142
  0
VERTEX
  8
PLAN_1
 62
     2
  6
CONTINUOUS
 10
-1.567240
 20
-1.238535
  0
VERTEX
  8
PLAN_1
 62
     2
  6
CONTINUOUS
 10
-1.565157
 20
-1.235929
  0
VERTEX
  8
PLAN_1
 62
     2
  6
CONTINUOUS
 10
-1.563071
 20
-1.234366
  0
VERTEX
  8
PLAN_1
 62
     2
  6
CONTINUOUS
 10
-1.560465
 20
-1.232803
  0
VERTEX
  8
PLAN_1
 62
     2
  6
CONTINUOUS
 10
-1.557339
 20
-1.231760
  0
VERTEX
  8
PLAN_1
 62
     2
  6
CONTINUOUS
 10
-1.553689
 20
-1.230717
  0
VERTEX
  8
PLAN_1
 62
     2
  6
CONTINUOUS
 10
-1.550043
 20
-1.230717
  0
VERTEX
  8
PLAN_1
 62
     2
  6
CONTINUOUS
 10
-1.546394
 20
-1.230717
  0
VERTEX
  8
PLAN_1
 62
     2
  6
CONTINUOUS
 10
-1.543268
 20
-1.231760
  0
VERTEX
  8
PLAN_1
 62
     2
  6
CONTINUOUS
 10
-1.540142
 20
-1.232803
  0
VERTEX
  8
PLAN_1
 62
     2
  6
CONTINUOUS
 10
-1.537535
 20
-1.234366
  0
VERTEX
  8
PLAN_1
 62
     2
  6
CONTINUOUS
 10
-1.534929
 20
-1.235929
  0
VERTEX
  8
PLAN_1
 62
     2
  6
CONTINUOUS
 10
-1.532843
 20
-1.238535
  0
VERTEX
  8
PLAN_1
 62
     2
  6
CONTINUOUS
 10
-1.531280
 20
-1.241142
  0
VERTEX
  8
PLAN_1
 62
     2
  6
CONTINUOUS
 10
-1.529717
 20
-1.243748
  0
VERTEX
  8
PLAN_1
 62
     2
  6
CONTINUOUS
 10
-1.527634
 20
-1.249480
  0
VERTEX
  8
PLAN_1
 62
     2
  6
CONTINUOUS
 10
-1.526067
 20
-1.255732
  0
VERTEX
  8
PLAN_1
 62
     2
  6
CONTINUOUS
 10
-1.525547
 20
-1.261988
  0
VERTEX
  8
PLAN_1
 62
     2
  6
CONTINUOUS
 10
-1.525028
 20
-1.268240
  0
VERTEX
  8
PLAN_1
 62
     2
  6
CONTINUOUS
 10
-1.525547
 20
-1.273976
  0
VERTEX
  8
PLAN_1
 62
     2
  6
CONTINUOUS
 10
-1.526067
 20
-1.280228
  0
VERTEX
  8
PLAN_1
 62
     2
  6
CONTINUOUS
 10
-1.527634
 20
-1.286484
  0
VERTEX
  8
PLAN_1
 62
     2
  6
CONTINUOUS
 10
-1.529717
 20
-1.292736
  0
VERTEX
  8
PLAN_1
 62
     2
  6
CONTINUOUS
 10
-1.531280
 20
-1.295343
  0
VERTEX
  8
PLAN_1
 62
     2
  6
CONTINUOUS
 10
-1.532843
 20
-1.297949
  0
VERTEX
  8
PLAN_1
 62
     2
  6
CONTINUOUS
 10
-1.534929
 20
-1.300031
  0
VERTEX
  8
PLAN_1
 62
     2
  6
CONTINUOUS
 10
-1.537535
 20
-1.302118
  0
VERTEX
  8
PLAN_1
 62
     2
  6
CONTINUOUS
 10
-1.540142
 20
-1.303681
  0
VERTEX
  8
PLAN_1
 62
     2
  6
CONTINUOUS
 10
-1.543268
 20
-1.304724
  0
VERTEX
  8
PLAN_1
 62
     2
  6
CONTINUOUS
 10
-1.546394
 20
-1.305244
  0
VERTEX
  8
PLAN_1
 62
     2
  6
CONTINUOUS
 10
-1.550043
 20
-1.305768
  0
SEQEND
  8
0
  0
POLYLINE
  8
PLAN_1
 62
     2
  6
CONTINUOUS
 66
     1
 40
0.003000
 41
0.003000
  0
VERTEX
  8
PLAN_1
 62
     2
  6
CONTINUOUS
 10
-1.550043
 20
-1.238535
  0
VERTEX
  8
PLAN_1
 62
     2
  6
CONTINUOUS
 10
-1.552126
 20
-1.239055
  0
VERTEX
  8
PLAN_1
 62
     2
  6
CONTINUOUS
 10
-1.553689
 20
-1.239055
  0
VERTEX
  8
PLAN_1
 62
     2
  6
CONTINUOUS
 10
-1.555776
 20
-1.240098
  0
VERTEX
  8
PLAN_1
 62
     2
  6
CONTINUOUS
 10
-1.556819
 20
-1.240622
  0
VERTEX
  8
PLAN_1
 62
     2
  6
CONTINUOUS
 10
-1.559421
 20
-1.243224
  0
VERTEX
  8
PLAN_1
 62
     2
  6
CONTINUOUS
 10
-1.562028
 20
-1.246354
  0
VERTEX
  8
PLAN_1
 62
     2
  6
CONTINUOUS
 10
-1.563591
 20
-1.250524
  0
VERTEX
  8
PLAN_1
 62
     2
  6
CONTINUOUS
 10
-1.564634
 20
-1.255732
  0
VERTEX
  8
PLAN_1
 62
     2
  6
CONTINUOUS
 10
-1.565157
 20
-1.261469
  0
VERTEX
  8
PLAN_1
 62
     2
  6
CONTINUOUS
 10
-1.565677
 20
-1.268240
  0
VERTEX
  8
PLAN_1
 62
     2
  6
CONTINUOUS
 10
-1.565157
 20
-1.274496
  0
VERTEX
  8
PLAN_1
 62
     2
  6
CONTINUOUS
 10
-1.564634
 20
-1.280228
  0
VERTEX
  8
PLAN_1
 62
     2
  6
CONTINUOUS
 10
-1.563591
 20
-1.285441
  0
VERTEX
  8
PLAN_1
 62
     2
  6
CONTINUOUS
 10
-1.562028
 20
-1.289610
  0
VERTEX
  8
PLAN_1
 62
     2
  6
CONTINUOUS
 10
-1.559421
 20
-1.292736
  0
VERTEX
  8
PLAN_1
 62
     2
  6
CONTINUOUS
 10
-1.556819
 20
-1.295343
  0
VERTEX
  8
PLAN_1
 62
     2
  6
CONTINUOUS
 10
-1.555776
 20
-1.296386
  0
VERTEX
  8
PLAN_1
 62
     2
  6
CONTINUOUS
 10
-1.553689
 20
-1.296906
  0
VERTEX
  8
PLAN_1
 62
     2
  6
CONTINUOUS
 10
-1.552126
 20
-1.297429
  0
VERTEX
  8
PLAN_1
 62
     2
  6
CONTINUOUS
 10
-1.550043
 20
-1.297429
  0
VERTEX
  8
PLAN_1
 62
     2
  6
CONTINUOUS
 10
-1.548480
 20
-1.297429
  0
VERTEX
  8
PLAN_1
 62
     2
  6
CONTINUOUS
 10
-1.546394
 20
-1.296906
  0
VERTEX
  8
PLAN_1
 62
     2
  6
CONTINUOUS
 10
-1.544831
 20
-1.296386
  0
VERTEX
  8
PLAN_1
 62
     2
  6
CONTINUOUS
 10
-1.543268
 20
-1.295343
  0
VERTEX
  8
PLAN_1
 62
     2
  6
CONTINUOUS
 10
-1.540661
 20
-1.292736
  0
VERTEX
  8
PLAN_1
 62
     2
  6
CONTINUOUS
 10
-1.538575
 20
-1.289610
  0
VERTEX
  8
PLAN_1
 62
     2
  6
CONTINUOUS
 10
-1.537012
 20
-1.285441
  0
VERTEX
  8
PLAN_1
 62
     2
  6
CONTINUOUS
 10
-1.535972
 20
-1.280228
  0
VERTEX
  8
PLAN_1
 62
     2
  6
CONTINUOUS
 10
-1.534929
 20
-1.274496
  0
VERTEX
  8
PLAN_1
 62
     2
  6
CONTINUOUS
 10
-1.534929
 20
-1.268240
  0
VERTEX
  8
PLAN_1
 62
     2
  6
CONTINUOUS
 10
-1.534929
 20
-1.261469
  0
VERTEX
  8
PLAN_1
 62
     2
  6
CONTINUOUS
 10
-1.535972
 20
-1.255732
  0
VERTEX
  8
PLAN_1
 62
     2
  6
CONTINUOUS
 10
-1.537012
 20
-1.250524
  0
VERTEX
  8
PLAN_1
 62
     2
  6
CONTINUOUS
 10
-1.538575
 20
-1.246354
  0
VERTEX
  8
PLAN_1
 62
     2
  6
CONTINUOUS
 10
-1.540661
 20
-1.243224
  0
VERTEX
  8
PLAN_1
 62
     2
  6
CONTINUOUS
 10
-1.543268
 20
-1.240622
  0
VERTEX
  8
PLAN_1
 62
     2
  6
CONTINUOUS
 10
-1.544831
 20
-1.240098
  0
VERTEX
  8
PLAN_1
 62
     2
  6
CONTINUOUS
 10
-1.546394
 20
-1.239055
  0
VERTEX
  8
PLAN_1
 62
     2
  6
CONTINUOUS
 10
-1.548480
 20
-1.239055
  0
VERTEX
  8
PLAN_1
 62
     2
  6
CONTINUOUS
 10
-1.550043
 20
-1.238535
  0
SEQEND
  8
0
  0
SOLID
  8
PLAN_1
 62
     2
 10
-1.491673
 20
-1.042059
 11
-1.437992
 21
-1.071244
 12
-1.491673
 22
-1.042059
 13
-1.430697
 23
-1.040496
  0
POLYLINE
  8
PLAN_1
 62
     2
  6
CONTINUOUS
 66
     1
 40
0.003000
 41
0.003000
  0
VERTEX
  8
PLAN_1
 62
     2
  6
CONTINUOUS
 10
-1.491673
 20
-1.042059
  0
VERTEX
  8
PLAN_1
 62
     2
  6
CONTINUOUS
 10
-1.437992
 20
-1.071244
  0
VERTEX
  8
PLAN_1
 62
     2
  6
CONTINUOUS
 10
-1.430697
 20
-1.040496
  0
VERTEX
  8
PLAN_1
 62
     2
  6
CONTINUOUS
 10
-1.491673
 20
-1.042059
  0
SEQEND
  8
0
  0
POLYLINE
  8
PLAN_1
 62
     2
  6
CONTINUOUS
 66
     1
 40
0.004169
 41
0.004169
  0
VERTEX
  8
PLAN_1
 62
     2
  6
CONTINUOUS
 10
-1.455713
 20
-1.050917
  0
VERTEX
  8
PLAN_1
 62
     2
  6
CONTINUOUS
 10
-0.816244
 20
-1.213520
  0
VERTEX
  8
PLAN_1
 62
     2
  6
CONTINUOUS
 10
-0.101213
 20
-1.213520
  0
SEQEND
  8
0
  0
POLYLINE
  8
PLAN_1
 62
     2
  6
CONTINUOUS
 66
     1
 40
0.004169
 41
0.004169
  0
VERTEX
  8
PLAN_1
 62
     2
  6
CONTINUOUS
 10
-0.989791
 20
-0.797634
  0
VERTEX
  8
PLAN_1
 62
     2
  6
CONTINUOUS
 10
-0.989791
 20
-1.145248
  0
SEQEND
  8
0
  0
POLYLINE
  8
PLAN_1
 62
     2
  6
CONTINUOUS
 66
     1
 40
0.004169
 41
0.004169
  0
VERTEX
  8
PLAN_1
 62
     2
  6
CONTINUOUS
 10
-0.989791
 20
-1.192673
  0
VERTEX
  8
PLAN_1
 62
     2
  6
CONTINUOUS
 10
-0.989791
 20
-1.351106
  0
SEQEND
  8
0
  0
POLYLINE
  8
PLAN_1
 62
     2
  6
CONTINUOUS
 66
     1
 40
0.004169
 41
0.004169
  0
VERTEX
  8
PLAN_1
 62
     2
  6
CONTINUOUS
 10
-2.168142
 20
-0.349433
  0
VERTEX
  8
PLAN_1
 62
     2
  6
CONTINUOUS
 10
-2.168142
 20
-1.351106
  0
SEQEND
  8
0
  0
POLYLINE
  8
PLAN_1
 62
     2
  6
CONTINUOUS
 66
     1
 40
0.004169
 41
0.004169
  0
VERTEX
  8
PLAN_1
 62
     2
  6
CONTINUOUS
 10
-0.832402
 20
-0.744996
  0
VERTEX
  8
PLAN_1
 62
     2
  6
CONTINUOUS
 10
-0.832402
 20
3.729701
  0
SEQEND
  8
0
  0
SOLID
  8
PLAN_1
 62
     2
 10
-0.832402
 20
3.758886
 11
-0.848559
 21
3.699996
 12
-0.832402
 22
3.758886
 13
-0.816768
 23
3.699996
  0
POLYLINE
  8
PLAN_1
 62
     2
  6
CONTINUOUS
 66
     1
 40
0.003000
 41
0.003000
  0
VERTEX
  8
PLAN_1
 62
     2
  6
CONTINUOUS
 10
-0.832402
 20
3.758886
  0
VERTEX
  8
PLAN_1
 62
     2
  6
CONTINUOUS
 10
-0.848559
 20
3.699996
  0
VERTEX
  8
PLAN_1
 62
     2
  6
CONTINUOUS
 10
-0.816768
 20
3.699996
  0
VERTEX
  8
PLAN_1
 62
     2
  6
CONTINUOUS
 10
-0.832402
 20
3.758886
  0
SEQEND
  8
0
  0
SOLID
  8
PLAN_1
 62
     2
 10
-0.832402
 20
-0.774701
 11
-0.848559
 21
-0.715811
 12
-0.832402
 22
-0.774701
 13
-0.816768
 23
-0.715811
  0
POLYLINE
  8
PLAN_1
 62
     2
  6
CONTINUOUS
 66
     1
 40
0.003000
 41
0.003000
  0
VERTEX
  8
PLAN_1
 62
     2
  6
CONTINUOUS
 10
-0.832402
 20
-0.774701
  0
VERTEX
  8
PLAN_1
 62
     2
  6
CONTINUOUS
 10
-0.848559
 20
-0.715811
  0
VERTEX
  8
PLAN_1
 62
     2
  6
CONTINUOUS
 10
-0.816768
 20
-0.715811
  0
VERTEX
  8
PLAN_1
 62
     2
  6
CONTINUOUS
 10
-0.832402
 20
-0.774701
  0
SEQEND
  8
0
  0
POLYLINE
  8
PLAN_1
 62
     2
  6
CONTINUOUS
 66
     1
 40
0.004169
 41
0.004169
  0
VERTEX
  8
PLAN_1
 62
     2
  6
CONTINUOUS
 10
-1.756945
 20
3.915756
  0
VERTEX
  8
PLAN_1
 62
     2
  6
CONTINUOUS
 10
-1.425484
 20
3.915756
  0
SEQEND
  8
0
  0
SOLID
  8
PLAN_1
 62
     2
 10
-1.592256
 20
3.915756
 11
-1.651146
 21
3.931394
 12
-1.592256
 22
3.915756
 13
-1.651146
 23
3.900122
  0
POLYLINE
  8
PLAN_1
 62
     2
  6
CONTINUOUS
 66
     1
 40
0.003000
 41
0.003000
  0
VERTEX
  8
PLAN_1
 62
     2
  6
CONTINUOUS
 10
-1.592256
 20
3.915756
  0
VERTEX
  8
PLAN_1
 62
     2
  6
CONTINUOUS
 10
-1.651146
 20
3.931394
  0
VERTEX
  8
PLAN_1
 62
     2
  6
CONTINUOUS
 10
-1.651146
 20
3.900122
  0
VERTEX
  8
PLAN_1
 62
     2
  6
CONTINUOUS
 10
-1.592256
 20
3.915756
  0
SEQEND
  8
0
  0
SOLID
  8
PLAN_1
 62
     2
 10
-1.450500
 20
3.915756
 11
-1.391610
 21
3.931394
 12
-1.450500
 22
3.915756
 13
-1.391610
 23
3.900122
  0
POLYLINE
  8
PLAN_1
 62
     2
  6
CONTINUOUS
 66
     1
 40
0.003000
 41
0.003000
  0
VERTEX
  8
PLAN_1
 62
     2
  6
CONTINUOUS
 10
-1.450500
 20
3.915756
  0
VERTEX
  8
PLAN_1
 62
     2
  6
CONTINUOUS
 10
-1.391610
 20
3.931394
  0
VERTEX
  8
PLAN_1
 62
     2
  6
CONTINUOUS
 10
-1.391610
 20
3.900122
  0
VERTEX
  8
PLAN_1
 62
     2
  6
CONTINUOUS
 10
-1.450500
 20
3.915756
  0
SEQEND
  8
0
  0
POLYLINE
  8
PLAN_1
 62
     2
  6
CONTINUOUS
 66
     1
 40
0.003000
 41
0.003000
  0
VERTEX
  8
PLAN_1
 62
     2
  6
CONTINUOUS
 10
-1.683980
 20
3.956929
  0
VERTEX
  8
PLAN_1
 62
     2
  6
CONTINUOUS
 10
-1.683980
 20
3.939209
  0
VERTEX
  8
PLAN_1
 62
     2
  6
CONTINUOUS
 10
-1.692839
 20
3.939209
  0
VERTEX
  8
PLAN_1
 62
     2
  6
CONTINUOUS
 10
-1.692839
 20
3.956929
  0
VERTEX
  8
PLAN_1
 62
     2
  6
CONTINUOUS
 10
-1.724630
 20
3.956929
  0
VERTEX
  8
PLAN_1
 62
     2
  6
CONTINUOUS
 10
-1.724630
 20
3.966311
  0
VERTEX
  8
PLAN_1
 62
     2
  6
CONTINUOUS
 10
-1.691276
 20
4.012693
  0
VERTEX
  8
PLAN_1
 62
     2
  6
CONTINUOUS
 10
-1.683980
 20
4.012693
  0
VERTEX
  8
PLAN_1
 62
     2
  6
CONTINUOUS
 10
-1.683980
 20
3.965268
  0
VERTEX
  8
PLAN_1
 62
     2
  6
CONTINUOUS
 10
-1.673035
 20
3.965268
  0
VERTEX
  8
PLAN_1
 62
     2
  6
CONTINUOUS
 10
-1.673035
 20
3.956929
  0
VERTEX
  8
PLAN_1
 62
     2
  6
CONTINUOUS
 10
-1.683980
 20
3.956929
  0
SEQEND
  8
0
  0
SOLID
  8
PLAN_1
 62
     2
 10
-1.716291
 20
3.965268
 11
-1.692839
 21
3.965268
 12
-1.693362
 22
3.998102
 13
-1.692839
 23
3.998102
  0
POLYLINE
  8
PLAN_1
 62
     2
  6
CONTINUOUS
 66
     1
 40
0.003000
 41
0.003000
  0
VERTEX
  8
PLAN_1
 62
     2
  6
CONTINUOUS
 10
-1.716291
 20
3.965268
  0
VERTEX
  8
PLAN_1
 62
     2
  6
CONTINUOUS
 10
-1.692839
 20
3.965268
  0
VERTEX
  8
PLAN_1
 62
     2
  6
CONTINUOUS
 10
-1.692839
 20
3.998102
  0
VERTEX
  8
PLAN_1
 62
     2
  6
CONTINUOUS
 10
-1.693362
 20
3.998102
  0
VERTEX
  8
PLAN_1
 62
     2
  6
CONTINUOUS
 10
-1.716291
 20
3.965268
  0
SEQEND
  8
0
  0
POLYLINE
  8
PLAN_1
 62
     2
  6
CONTINUOUS
 66
     1
 40
0.004169
 41
0.004169
  0
VERTEX
  8
PLAN_1
 62
     2
  6
CONTINUOUS
 10
-1.592256
 20
3.781819
  0
VERTEX
  8
PLAN_1
 62
     2
  6
CONTINUOUS
 10
-1.592256
 20
3.939209
  0
SEQEND
  8
0
  0
POLYLINE
  8
PLAN_1
 62
     2
  6
CONTINUOUS
 66
     1
 40
0.004169
 41
0.004169
  0
VERTEX
  8
PLAN_1
 62
     2
  6
CONTINUOUS
 10
-1.450500
 20
3.781819
  0
VERTEX
  8
PLAN_1
 62
     2
  6
CONTINUOUS
 10
-1.450500
 20
3.939209
  0
SEQEND
  8
0
  0
POLYLINE
  8
PLAN_1
 62
     2
  6
CONTINUOUS
 66
     1
 40
0.004169
 41
0.004169
  0
VERTEX
  8
PLAN_1
 62
     2
  6
CONTINUOUS
 10
-1.521898
 20
3.780776
  0
VERTEX
  8
PLAN_1
 62
     2
  6
CONTINUOUS
 10
-1.521898
 20
3.891783
  0
SEQEND
  8
0
  0
POLYLINE
  8
PLAN_1
 62
     2
  6
CONTINUOUS
 66
     1
 40
0.004169
 41
0.004169
  0
VERTEX
  8
PLAN_1
 62
     2
  6
CONTINUOUS
 10
-1.521898
 20
3.938689
  0
VERTEX
  8
PLAN_1
 62
     2
  6
CONTINUOUS
 10
-1.521898
 20
4.095035
  0
SEQEND
  8
0
  0
POLYLINE
  8
PLAN_1
 62
     2
  6
CONTINUOUS
 66
     1
 40
0.003000
 41
0.003000
  0
VERTEX
  8
PLAN_1
 62
     2
  6
CONTINUOUS
 10
-0.759441
 20
-1.189547
  0
VERTEX
  8
PLAN_1
 62
     2
  6
CONTINUOUS
 10
-0.769343
 20
-1.189547
  0
VERTEX
  8
PLAN_1
 62
     2
  6
CONTINUOUS
 10
-0.769343
 20
-1.115020
  0
VERTEX
  8
PLAN_1
 62
     2
  6
CONTINUOUS
 10
-0.735988
 20
-1.115020
  0
VERTEX
  8
PLAN_1
 62
     2
  6
CONTINUOUS
 10
-0.730776
 20
-1.115543
  0
VERTEX
  8
PLAN_1
 62
     2
  6
CONTINUOUS
 10
-0.726606
 20
-1.116583
  0
VERTEX
  8
PLAN_1
 62
     2
  6
CONTINUOUS
 10
-0.722437
 20
-1.118669
  0
VERTEX
  8
PLAN_1
 62
     2
  6
CONTINUOUS
 10
-0.719311
 20
-1.121276
  0
VERTEX
  8
PLAN_1
 62
     2
  6
CONTINUOUS
 10
-0.717224
 20
-1.124402
  0
VERTEX
  8
PLAN_1
 62
     2
  6
CONTINUOUS
 10
-0.715142
 20
-1.127528
  0
VERTEX
  8
PLAN_1
 62
     2
  6
CONTINUOUS
 10
-0.714098
 20
-1.131697
  0
VERTEX
  8
PLAN_1
 62
     2
  6
CONTINUOUS
 10
-0.713575
 20
-1.135866
  0
VERTEX
  8
PLAN_1
 62
     2
  6
CONTINUOUS
 10
-0.714098
 20
-1.140035
  0
VERTEX
  8
PLAN_1
 62
     2
  6
CONTINUOUS
 10
-0.714618
 20
-1.144205
  0
VERTEX
  8
PLAN_1
 62
     2
  6
CONTINUOUS
 10
-0.716181
 20
-1.147854
  0
VERTEX
  8
PLAN_1
 62
     2
  6
CONTINUOUS
 10
-0.718787
 20
-1.150980
  0
VERTEX
  8
PLAN_1
 62
     2
  6
CONTINUOUS
 10
-0.721394
 20
-1.154106
  0
VERTEX
  8
PLAN_1
 62
     2
  6
CONTINUOUS
 10
-0.725563
 20
-1.156193
  0
VERTEX
  8
PLAN_1
 62
     2
  6
CONTINUOUS
 10
-0.727650
 20
-1.157236
  0
VERTEX
  8
PLAN_1
 62
     2
  6
CONTINUOUS
 10
-0.730256
 20
-1.157756
  0
VERTEX
  8
PLAN_1
 62
     2
  6
CONTINUOUS
 10
-0.732858
 20
-1.158276
  0
VERTEX
  8
PLAN_1
 62
     2
  6
CONTINUOUS
 10
-0.735988
 20
-1.158276
  0
VERTEX
  8
PLAN_1
 62
     2
  6
CONTINUOUS
 10
-0.759441
 20
-1.158276
  0
VERTEX
  8
PLAN_1
 62
     2
  6
CONTINUOUS
 10
-0.759441
 20
-1.189547
  0
SEQEND
  8
0
  0
POLYLINE
  8
PLAN_1
 62
     2
  6
CONTINUOUS
 66
     1
 40
0.003000
 41
0.003000
  0
VERTEX
  8
PLAN_1
 62
     2
  6
CONTINUOUS
 10
-0.759441
 20
-1.149417
  0
VERTEX
  8
PLAN_1
 62
     2
  6
CONTINUOUS
 10
-0.739114
 20
-1.149417
  0
VERTEX
  8
PLAN_1
 62
     2
  6
CONTINUOUS
 10
-0.735988
 20
-1.149417
  0
VERTEX
  8
PLAN_1
 62
     2
  6
CONTINUOUS
 10
-0.732858
 20
-1.148898
  0
VERTEX
  8
PLAN_1
 62
     2
  6
CONTINUOUS
 10
-0.730256
 20
-1.147854
  0
VERTEX
  8
PLAN_1
 62
     2
  6
CONTINUOUS
 10
-0.728169
 20
-1.146811
  0
VERTEX
  8
PLAN_1
 62
     2
  6
CONTINUOUS
 10
-0.726606
 20
-1.144728
  0
VERTEX
  8
PLAN_1
 62
     2
  6
CONTINUOUS
 10
-0.725043
 20
-1.142642
  0
VERTEX
  8
PLAN_1
 62
     2
  6
CONTINUOUS
 10
-0.724520
 20
-1.139516
  0
VERTEX
  8
PLAN_1
 62
     2
  6
CONTINUOUS
 10
-0.724000
 20
-1.136390
  0
VERTEX
  8
PLAN_1
 62
     2
  6
CONTINUOUS
 10
-0.724520
 20
-1.132740
  0
VERTEX
  8
PLAN_1
 62
     2
  6
CONTINUOUS
 10
-0.725043
 20
-1.130134
  0
VERTEX
  8
PLAN_1
 62
     2
  6
CONTINUOUS
 10
-0.726606
 20
-1.128051
  0
VERTEX
  8
PLAN_1
 62
     2
  6
CONTINUOUS
 10
-0.728169
 20
-1.126484
  0
VERTEX
  8
PLAN_1
 62
     2
  6
CONTINUOUS
 10
-0.730256
 20
-1.124921
  0
VERTEX
  8
PLAN_1
 62
     2
  6
CONTINUOUS
 10
-0.732858
 20
-1.124402
  0
VERTEX
  8
PLAN_1
 62
     2
  6
CONTINUOUS
 10
-0.735988
 20
-1.123882
  0
VERTEX
  8
PLAN_1
 62
     2
  6
CONTINUOUS
 10
-0.738594
 20
-1.123882
  0
VERTEX
  8
PLAN_1
 62
     2
  6
CONTINUOUS
 10
-0.759441
 20
-1.123882
  0
VERTEX
  8
PLAN_1
 62
     2
  6
CONTINUOUS
 10
-0.759441
 20
-1.149417
  0
SEQEND
  8
0
  0
POLYLINE
  8
PLAN_1
 62
     2
  6
CONTINUOUS
 66
     1
 40
0.003000
 41
0.003000
  0
VERTEX
  8
PLAN_1
 62
     2
  6
CONTINUOUS
 10
-0.691689
 20
-1.189547
  0
VERTEX
  8
PLAN_1
 62
     2
  6
CONTINUOUS
 10
-0.701067
 20
-1.189547
  0
VERTEX
  8
PLAN_1
 62
     2
  6
CONTINUOUS
 10
-0.701067
 20
-1.135346
  0
VERTEX
  8
PLAN_1
 62
     2
  6
CONTINUOUS
 10
-0.692209
 20
-1.135346
  0
VERTEX
  8
PLAN_1
 62
     2
  6
CONTINUOUS
 10
-0.692209
 20
-1.144205
  0
VERTEX
  8
PLAN_1
 62
     2
  6
CONTINUOUS
 10
-0.690646
 20
-1.142122
  0
VERTEX
  8
PLAN_1
 62
     2
  6
CONTINUOUS
 10
-0.689083
 20
-1.140035
  0
VERTEX
  8
PLAN_1
 62
     2
  6
CONTINUOUS
 10
-0.687520
 20
-1.138472
  0
VERTEX
  8
PLAN_1
 62
     2
  6
CONTINUOUS
 10
-0.685433
 20
-1.136909
  0
VERTEX
  8
PLAN_1
 62
     2
  6
CONTINUOUS
 10
-0.683350
 20
-1.135346
  0
VERTEX
  8
PLAN_1
 62
     2
  6
CONTINUOUS
 10
-0.681264
 20
-1.134823
  0
VERTEX
  8
PLAN_1
 62
     2
  6
CONTINUOUS
 10
-0.679181
 20
-1.133783
  0
VERTEX
  8
PLAN_1
 62
     2
  6
CONTINUOUS
 10
-0.676575
 20
-1.133783
  0
VERTEX
  8
PLAN_1
 62
     2
  6
CONTINUOUS
 10
-0.676051
 20
-1.133783
  0
VERTEX
  8
PLAN_1
 62
     2
  6
CONTINUOUS
 10
-0.675531
 20
-1.133783
  0
VERTEX
  8
PLAN_1
 62
     2
  6
CONTINUOUS
 10
-0.675012
 20
-1.133783
  0
VERTEX
  8
PLAN_1
 62
     2
  6
CONTINUOUS
 10
-0.674488
 20
-1.134303
  0
VERTEX
  8
PLAN_1
 62
     2
  6
CONTINUOUS
 10
-0.674488
 20
-1.143685
  0
VERTEX
  8
PLAN_1
 62
     2
  6
CONTINUOUS
 10
-0.677618
 20
-1.143685
  0
VERTEX
  8
PLAN_1
 62
     2
  6
CONTINUOUS
 10
-0.680744
 20
-1.143685
  0
VERTEX
  8
PLAN_1
 62
     2
  6
CONTINUOUS
 10
-0.683350
 20
-1.144728
  0
VERTEX
  8
PLAN_1
 62
     2
  6
CONTINUOUS
 10
-0.685957
 20
-1.146291
  0
VERTEX
  8
PLAN_1
 62
     2
  6
CONTINUOUS
 10
-0.688039
 20
-1.147854
  0
VERTEX
  8
PLAN_1
 62
     2
  6
CONTINUOUS
 10
-0.689602
 20
-1.149937
  0
VERTEX
  8
PLAN_1
 62
     2
  6
CONTINUOUS
 10
-0.690646
 20
-1.152543
  0
VERTEX
  8
PLAN_1
 62
     2
  6
CONTINUOUS
 10
-0.691689
 20
-1.155150
  0
VERTEX
  8
PLAN_1
 62
     2
  6
CONTINUOUS
 10
-0.691689
 20
-1.158276
  0
VERTEX
  8
PLAN_1
 62
     2
  6
CONTINUOUS
 10
-0.691689
 20
-1.189547
  0
SEQEND
  8
0
  0
POLYLINE
  8
PLAN_1
 62
     2
  6
CONTINUOUS
 66
     1
 40
0.003000
 41
0.003000
  0
VERTEX
  8
PLAN_1
 62
     2
  6
CONTINUOUS
 10
-0.621331
 20
-1.172870
  0
VERTEX
  8
PLAN_1
 62
     2
  6
CONTINUOUS
 10
-0.621331
 20
-1.173913
  0
VERTEX
  8
PLAN_1
 62
     2
  6
CONTINUOUS
 10
-0.621850
 20
-1.175476
  0
VERTEX
  8
PLAN_1
 62
     2
  6
CONTINUOUS
 10
-0.622374
 20
-1.177559
  0
VERTEX
  8
PLAN_1
 62
     2
  6
CONTINUOUS
 10
-0.623417
 20
-1.179646
  0
VERTEX
  8
PLAN_1
 62
     2
  6
CONTINUOUS
 10
-0.624980
 20
-1.181728
  0
VERTEX
  8
PLAN_1
 62
     2
  6
CONTINUOUS
 10
-0.626543
 20
-1.183815
  0
VERTEX
  8
PLAN_1
 62
     2
  6
CONTINUOUS
 10
-0.628626
 20
-1.185898
  0
VERTEX
  8
PLAN_1
 62
     2
  6
CONTINUOUS
 10
-0.630713
 20
-1.187461
  0
VERTEX
  8
PLAN_1
 62
     2
  6
CONTINUOUS
 10
-0.631756
 20
-1.187984
  0
VERTEX
  8
PLAN_1
 62
     2
  6
CONTINUOUS
 10
-0.632795
 20
-1.189024
  0
VERTEX
  8
PLAN_1
 62
     2
  6
CONTINUOUS
 10
-0.634358
 20
-1.189547
  0
VERTEX
  8
PLAN_1
 62
     2
  6
CONTINUOUS
 10
-0.635925
 20
-1.190067
  0
VERTEX
  8
PLAN_1
 62
     2
  6
CONTINUOUS
 10
-0.638008
 20
-1.190591
  0
VERTEX
  8
PLAN_1
 62
     2
  6
CONTINUOUS
 10
-0.640094
 20
-1.191110
  0
VERTEX
  8
PLAN_1
 62
     2
  6
CONTINUOUS
 10
-0.642697
 20
-1.191110
  0
VERTEX
  8
PLAN_1
 62
     2
  6
CONTINUOUS
 10
-0.645827
 20
-1.191110
  0
VERTEX
  8
PLAN_1
 62
     2
  6
CONTINUOUS
 10
-0.648433
 20
-1.191110
  0
VERTEX
  8
PLAN_1
 62
     2
  6
CONTINUOUS
 10
-0.651035
 20
-1.190591
  0
VERTEX
  8
PLAN_1
 62
     2
  6
CONTINUOUS
 10
-0.653642
 20
-1.190067
  0
VERTEX
  8
PLAN_1
 62
     2
  6
CONTINUOUS
 10
-0.655728
 20
-1.189547
  0
VERTEX
  8
PLAN_1
 62
     2
  6
CONTINUOUS
 10
-0.658335
 20
-1.187984
  0
VERTEX
  8
PLAN_1
 62
     2
  6
CONTINUOUS
 10
-0.659898
 20
-1.186941
  0
VERTEX
  8
PLAN_1
 62
     2
  6
CONTINUOUS
 10
-0.661980
 20
-1.185378
  0
VERTEX
  8
PLAN_1
 62
     2
  6
CONTINUOUS
 10
-0.663543
 20
-1.183815
  0
VERTEX
  8
PLAN_1
 62
     2
  6
CONTINUOUS
 10
-0.666150
 20
-1.179646
  0
VERTEX
  8
PLAN_1
 62
     2
  6
CONTINUOUS
 10
-0.668236
 20
-1.174953
  0
VERTEX
  8
PLAN_1
 62
     2
  6
CONTINUOUS
 10
-0.669799
 20
-1.169744
  0
VERTEX
  8
PLAN_1
 62
     2
  6
CONTINUOUS
 10
-0.669799
 20
-1.164008
  0
VERTEX
  8
PLAN_1
 62
     2
  6
CONTINUOUS
 10
-0.669799
 20
-1.157756
  0
VERTEX
  8
PLAN_1
 62
     2
  6
CONTINUOUS
 10
-0.668236
 20
-1.152024
  0
VERTEX
  8
PLAN_1
 62
     2
  6
CONTINUOUS
 10
-0.667713
 20
-1.149417
  0
VERTEX
  8
PLAN_1
 62
     2
  6
CONTINUOUS
 10
-0.666673
 20
-1.147331
  0
VERTEX
  8
PLAN_1
 62
     2
  6
CONTINUOUS
 10
-0.665110
 20
-1.144728
  0
VERTEX
  8
PLAN_1
 62
     2
  6
CONTINUOUS
 10
-0.663543
 20
-1.142642
  0
VERTEX
  8
PLAN_1
 62
     2
  6
CONTINUOUS
 10
-0.661980
 20
-1.140559
  0
VERTEX
  8
PLAN_1
 62
     2
  6
CONTINUOUS
 10
-0.659898
 20
-1.138992
  0
VERTEX
  8
PLAN_1
 62
     2
  6
CONTINUOUS
 10
-0.657811
 20
-1.137429
  0
VERTEX
  8
PLAN_1
 62
     2
  6
CONTINUOUS
 10
-0.655728
 20
-1.136390
  0
VERTEX
  8
PLAN_1
 62
     2
  6
CONTINUOUS
 10
-0.653122
 20
-1.135346
  0
VERTEX
  8
PLAN_1
 62
     2
  6
CONTINUOUS
 10
-0.649996
 20
-1.134303
  0
VERTEX
  8
PLAN_1
 62
     2
  6
CONTINUOUS
 10
-0.647390
 20
-1.133783
  0
VERTEX
  8
PLAN_1
 62
     2
  6
CONTINUOUS
 10
-0.643740
 20
-1.133783
  0
VERTEX
  8
PLAN_1
 62
     2
  6
CONTINUOUS
 10
-0.641134
 20
-1.133783
  0
VERTEX
  8
PLAN_1
 62
     2
  6
CONTINUOUS
 10
-0.638528
 20
-1.134303
  0
VERTEX
  8
PLAN_1
 62
     2
  6
CONTINUOUS
 10
-0.635925
 20
-1.135346
  0
VERTEX
  8
PLAN_1
 62
     2
  6
CONTINUOUS
 10
-0.633839
 20
-1.135866
  0
VERTEX
  8
PLAN_1
 62
     2
  6
CONTINUOUS
 10
-0.631756
 20
-1.137429
  0
VERTEX
  8
PLAN_1
 62
     2
  6
CONTINUOUS
 10
-0.629669
 20
-1.138992
  0
VERTEX
  8
PLAN_1
 62
     2
  6
CONTINUOUS
 10
-0.628106
 20
-1.140559
  0
VERTEX
  8
PLAN_1
 62
     2
  6
CONTINUOUS
 10
-0.626543
 20
-1.142642
  0
VERTEX
  8
PLAN_1
 62
     2
  6
CONTINUOUS
 10
-0.623937
 20
-1.146811
  0
VERTEX
  8
PLAN_1
 62
     2
  6
CONTINUOUS
 10
-0.621850
 20
-1.152543
  0
VERTEX
  8
PLAN_1
 62
     2
  6
CONTINUOUS
 10
-0.620811
 20
-1.158799
  0
VERTEX
  8
PLAN_1
 62
     2
  6
CONTINUOUS
 10
-0.620287
 20
-1.165575
  0
VERTEX
  8
PLAN_1
 62
     2
  6
CONTINUOUS
 10
-0.660417
 20
-1.165575
  0
VERTEX
  8
PLAN_1
 62
     2
  6
CONTINUOUS
 10
-0.659898
 20
-1.169744
  0
VERTEX
  8
PLAN_1
 62
     2
  6
CONTINUOUS
 10
-0.659374
 20
-1.172870
  0
VERTEX
  8
PLAN_1
 62
     2
  6
CONTINUOUS
 10
-0.657811
 20
-1.175996
  0
VERTEX
  8
PLAN_1
 62
     2
  6
CONTINUOUS
 10
-0.656248
 20
-1.178602
  0
VERTEX
  8
PLAN_1
 62
     2
  6
CONTINUOUS
 10
-0.654165
 20
-1.180685
  0
VERTEX
  8
PLAN_1
 62
     2
  6
CONTINUOUS
 10
-0.651559
 20
-1.182252
  0
VERTEX
  8
PLAN_1
 62
     2
  6
CONTINUOUS
 10
-0.647909
 20
-1.183291
  0
VERTEX
  8
PLAN_1
 62
     2
  6
CONTINUOUS
 10
-0.644264
 20
-1.183291
  0
VERTEX
  8
PLAN_1
 62
     2
  6
CONTINUOUS
 10
-0.641134
 20
-1.183291
  0
VERTEX
  8
PLAN_1
 62
     2
  6
CONTINUOUS
 10
-0.638528
 20
-1.182252
  0
VERTEX
  8
PLAN_1
 62
     2
  6
CONTINUOUS
 10
-0.636445
 20
-1.181209
  0
VERTEX
  8
PLAN_1
 62
     2
  6
CONTINUOUS
 10
-0.634358
 20
-1.179646
  0
VERTEX
  8
PLAN_1
 62
     2
  6
CONTINUOUS
 10
-0.632795
 20
-1.178083
  0
VERTEX
  8
PLAN_1
 62
     2
  6
CONTINUOUS
 10
-0.631756
 20
-1.175996
  0
VERTEX
  8
PLAN_1
 62
     2
  6
CONTINUOUS
 10
-0.630713
 20
-1.174433
  0
VERTEX
  8
PLAN_1
 62
     2
  6
CONTINUOUS
 10
-0.630189
 20
-1.172870
  0
VERTEX
  8
PLAN_1
 62
     2
  6
CONTINUOUS
 10
-0.621331
 20
-1.172870
  0
SEQEND
  8
0
  0
POLYLINE
  8
PLAN_1
 62
     2
  6
CONTINUOUS
 66
     1
 40
0.003000
 41
0.003000
  0
VERTEX
  8
PLAN_1
 62
     2
  6
CONTINUOUS
 10
-0.630189
 20
-1.158276
  0
VERTEX
  8
PLAN_1
 62
     2
  6
CONTINUOUS
 10
-0.630189
 20
-1.155150
  0
VERTEX
  8
PLAN_1
 62
     2
  6
CONTINUOUS
 10
-0.631232
 20
-1.152024
  0
VERTEX
  8
PLAN_1
 62
     2
  6
CONTINUOUS
 10
-0.632276
 20
-1.149417
  0
VERTEX
  8
PLAN_1
 62
     2
  6
CONTINUOUS
 10
-0.633839
 20
-1.146811
  0
VERTEX
  8
PLAN_1
 62
     2
  6
CONTINUOUS
 10
-0.635402
 20
-1.144728
  0
VERTEX
  8
PLAN_1
 62
     2
  6
CONTINUOUS
 10
-0.638008
 20
-1.143161
  0
VERTEX
  8
PLAN_1
 62
     2
  6
CONTINUOUS
 10
-0.641134
 20
-1.142642
  0
VERTEX
  8
PLAN_1
 62
     2
  6
CONTINUOUS
 10
-0.645303
 20
-1.142122
  0
VERTEX
  8
PLAN_1
 62
     2
  6
CONTINUOUS
 10
-0.648433
 20
-1.142642
  0
VERTEX
  8
PLAN_1
 62
     2
  6
CONTINUOUS
 10
-0.651035
 20
-1.143161
  0
VERTEX
  8
PLAN_1
 62
     2
  6
CONTINUOUS
 10
-0.653642
 20
-1.144728
  0
VERTEX
  8
PLAN_1
 62
     2
  6
CONTINUOUS
 10
-0.655728
 20
-1.146811
  0
VERTEX
  8
PLAN_1
 62
     2
  6
CONTINUOUS
 10
-0.657811
 20
-1.149417
  0
VERTEX
  8
PLAN_1
 62
     2
  6
CONTINUOUS
 10
-0.658854
 20
-1.152024
  0
VERTEX
  8
PLAN_1
 62
     2
  6
CONTINUOUS
 10
-0.659898
 20
-1.155150
  0
VERTEX
  8
PLAN_1
 62
     2
  6
CONTINUOUS
 10
-0.660417
 20
-1.158276
  0
VERTEX
  8
PLAN_1
 62
     2
  6
CONTINUOUS
 10
-0.630189
 20
-1.158276
  0
SEQEND
  8
0
  0
POLYLINE
  8
PLAN_1
 62
     2
  6
CONTINUOUS
 66
     1
 40
0.003000
 41
0.003000
  0
VERTEX
  8
PLAN_1
 62
     2
  6
CONTINUOUS
 10
-0.578594
 20
-1.150980
  0
VERTEX
  8
PLAN_1
 62
     2
  6
CONTINUOUS
 10
-0.578594
 20
-1.149417
  0
VERTEX
  8
PLAN_1
 62
     2
  6
CONTINUOUS
 10
-0.579118
 20
-1.147854
  0
VERTEX
  8
PLAN_1
 62
     2
  6
CONTINUOUS
 10
-0.579638
 20
-1.146291
  0
VERTEX
  8
PLAN_1
 62
     2
  6
CONTINUOUS
 10
-0.580681
 20
-1.145248
  0
VERTEX
  8
PLAN_1
 62
     2
  6
CONTINUOUS
 10
-0.582244
 20
-1.143685
  0
VERTEX
  8
PLAN_1
 62
     2
  6
CONTINUOUS
 10
-0.584850
 20
-1.142642
  0
VERTEX
  8
PLAN_1
 62
     2
  6
CONTINUOUS
 10
-0.587457
 20
-1.142122
  0
VERTEX
  8
PLAN_1
 62
     2
  6
CONTINUOUS
 10
-0.591626
 20
-1.141598
  0
VERTEX
  8
PLAN_1
 62
     2
  6
CONTINUOUS
 10
-0.592665
 20
-1.141598
  0
VERTEX
  8
PLAN_1
 62
     2
  6
CONTINUOUS
 10
-0.594232
 20
-1.142122
  0
VERTEX
  8
PLAN_1
 62
     2
  6
CONTINUOUS
 10
-0.596315
 20
-1.142122
  0
VERTEX
  8
PLAN_1
 62
     2
  6
CONTINUOUS
 10
-0.597878
 20
-1.143161
  0
VERTEX
  8
PLAN_1
 62
     2
  6
CONTINUOUS
 10
-0.599441
 20
-1.144205
  0
VERTEX
  8
PLAN_1
 62
     2
  6
CONTINUOUS
 10
-0.601004
 20
-1.145248
  0
VERTEX
  8
PLAN_1
 62
     2
  6
CONTINUOUS
 10
-0.602047
 20
-1.147331
  0
VERTEX
  8
PLAN_1
 62
     2
  6
CONTINUOUS
 10
-0.602571
 20
-1.149417
  0
VERTEX
  8
PLAN_1
 62
     2
  6
CONTINUOUS
 10
-0.602047
 20
-1.150980
  0
VERTEX
  8
PLAN_1
 62
     2
  6
CONTINUOUS
 10
-0.602047
 20
-1.152024
  0
VERTEX
  8
PLAN_1
 62
     2
  6
CONTINUOUS
 10
-0.601004
 20
-1.153067
  0
VERTEX
  8
PLAN_1
 62
     2
  6
CONTINUOUS
 10
-0.599965
 20
-1.154106
  0
VERTEX
  8
PLAN_1
 62
     2
  6
CONTINUOUS
 10
-0.598921
 20
-1.154630
  0
VERTEX
  8
PLAN_1
 62
     2
  6
CONTINUOUS
 10
-0.596835
 20
-1.155669
  0
VERTEX
  8
PLAN_1
 62
     2
  6
CONTINUOUS
 10
-0.594752
 20
-1.156193
  0
VERTEX
  8
PLAN_1
 62
     2
  6
CONTINUOUS
 10
-0.592665
 20
-1.156713
  0
VERTEX
  8
PLAN_1
 62
     2
  6
CONTINUOUS
 10
-0.583287
 20
-1.158799
  0
VERTEX
  8
PLAN_1
 62
     2
  6
CONTINUOUS
 10
-0.579638
 20
-1.160362
  0
VERTEX
  8
PLAN_1
 62
     2
  6
CONTINUOUS
 10
-0.575988
 20
-1.161406
  0
VERTEX
  8
PLAN_1
 62
     2
  6
CONTINUOUS
 10
-0.573386
 20
-1.162969
  0
VERTEX
  8
PLAN_1
 62
     2
  6
CONTINUOUS
 10
-0.571299
 20
-1.164531
  0
VERTEX
  8
PLAN_1
 62
     2
  6
CONTINUOUS
 10
-0.569736
 20
-1.166094
  0
VERTEX
  8
PLAN_1
 62
     2
  6
CONTINUOUS
 10
-0.568693
 20
-1.168177
  0
VERTEX
  8
PLAN_1
 62
     2
  6
CONTINUOUS
 10
-0.568173
 20
-1.170783
  0
VERTEX
  8
PLAN_1
 62
     2
  6
CONTINUOUS
 10
-0.568173
 20
-1.173390
  0
VERTEX
  8
PLAN_1
 62
     2
  6
CONTINUOUS
 10
-0.568693
 20
-1.177559
  0
VERTEX
  8
PLAN_1
 62
     2
  6
CONTINUOUS
 10
-0.569736
 20
-1.180685
  0
VERTEX
  8
PLAN_1
 62
     2
  6
CONTINUOUS
 10
-0.571819
 20
-1.183815
  0
VERTEX
  8
PLAN_1
 62
     2
  6
CONTINUOUS
 10
-0.574425
 20
-1.186421
  0
VERTEX
  8
PLAN_1
 62
     2
  6
CONTINUOUS
 10
-0.577555
 20
-1.188504
  0
VERTEX
  8
PLAN_1
 62
     2
  6
CONTINUOUS
 10
-0.581201
 20
-1.190067
  0
VERTEX
  8
PLAN_1
 62
     2
  6
CONTINUOUS
 10
-0.585370
 20
-1.191110
  0
VERTEX
  8
PLAN_1
 62
     2
  6
CONTINUOUS
 10
-0.589539
 20
-1.191110
  0
VERTEX
  8
PLAN_1
 62
     2
  6
CONTINUOUS
 10
-0.593189
 20
-1.191110
  0
VERTEX
  8
PLAN_1
 62
     2
  6
CONTINUOUS
 10
-0.596835
 20
-1.190591
  0
VERTEX
  8
PLAN_1
 62
     2
  6
CONTINUOUS
 10
-0.599441
 20
-1.190067
  0
VERTEX
  8
PLAN_1
 62
     2
  6
CONTINUOUS
 10
-0.602047
 20
-1.189547
  0
VERTEX
  8
PLAN_1
 62
     2
  6
CONTINUOUS
 10
-0.604654
 20
-1.188504
  0
VERTEX
  8
PLAN_1
 62
     2
  6
CONTINUOUS
 10
-0.606217
 20
-1.186941
  0
VERTEX
  8
PLAN_1
 62
     2
  6
CONTINUOUS
 10
-0.607780
 20
-1.185898
  0
VERTEX
  8
PLAN_1
 62
     2
  6
CONTINUOUS
 10
-0.609343
 20
-1.184335
  0
VERTEX
  8
PLAN_1
 62
     2
  6
CONTINUOUS
 10
-0.610909
 20
-1.181209
  0
VERTEX
  8
PLAN_1
 62
     2
  6
CONTINUOUS
 10
-0.611949
 20
-1.178083
  0
VERTEX
  8
PLAN_1
 62
     2
  6
CONTINUOUS
 10
-0.612992
 20
-1.174953
  0
VERTEX
  8
PLAN_1
 62
     2
  6
CONTINUOUS
 10
-0.612992
 20
-1.172346
  0
VERTEX
  8
PLAN_1
 62
     2
  6
CONTINUOUS
 10
-0.604134
 20
-1.172346
  0
VERTEX
  8
PLAN_1
 62
     2
  6
CONTINUOUS
 10
-0.604134
 20
-1.173913
  0
VERTEX
  8
PLAN_1
 62
     2
  6
CONTINUOUS
 10
-0.603610
 20
-1.175996
  0
VERTEX
  8
PLAN_1
 62
     2
  6
CONTINUOUS
 10
-0.602571
 20
-1.177559
  0
VERTEX
  8
PLAN_1
 62
     2
  6
CONTINUOUS
 10
-0.601528
 20
-1.179646
  0
VERTEX
  8
PLAN_1
 62
     2
  6
CONTINUOUS
 10
-0.599965
 20
-1.181209
  0
VERTEX
  8
PLAN_1
 62
     2
  6
CONTINUOUS
 10
-0.597358
 20
-1.182252
  0
VERTEX
  8
PLAN_1
 62
     2
  6
CONTINUOUS
 10
-0.594232
 20
-1.183291
  0
VERTEX
  8
PLAN_1
 62
     2
  6
CONTINUOUS
 10
-0.589539
 20
-1.183291
  0
VERTEX
  8
PLAN_1
 62
     2
  6
CONTINUOUS
 10
-0.587457
 20
-1.183291
  0
VERTEX
  8
PLAN_1
 62
     2
  6
CONTINUOUS
 10
-0.584850
 20
-1.182772
  0
VERTEX
  8
PLAN_1
 62
     2
  6
CONTINUOUS
 10
-0.582764
 20
-1.182252
  0
VERTEX
  8
PLAN_1
 62
     2
  6
CONTINUOUS
 10
-0.581201
 20
-1.181209
  0
VERTEX
  8
PLAN_1
 62
     2
  6
CONTINUOUS
 10
-0.579638
 20
-1.180165
  0
VERTEX
  8
PLAN_1
 62
     2
  6
CONTINUOUS
 10
-0.578075
 20
-1.178602
  0
VERTEX
  8
PLAN_1
 62
     2
  6
CONTINUOUS
 10
-0.577555
 20
-1.177039
  0
VERTEX
  8
PLAN_1
 62
     2
  6
CONTINUOUS
 10
-0.577031
 20
-1.174953
  0
VERTEX
  8
PLAN_1
 62
     2
  6
CONTINUOUS
 10
-0.577555
 20
-1.173390
  0
VERTEX
  8
PLAN_1
 62
     2
  6
CONTINUOUS
 10
-0.577555
 20
-1.171827
  0
VERTEX
  8
PLAN_1
 62
     2
  6
CONTINUOUS
 10
-0.578594
 20
-1.170783
  0
VERTEX
  8
PLAN_1
 62
     2
  6
CONTINUOUS
 10
-0.579638
 20
-1.169744
  0
VERTEX
  8
PLAN_1
 62
     2
  6
CONTINUOUS
 10
-0.581201
 20
-1.169220
  0
VERTEX
  8
PLAN_1
 62
     2
  6
CONTINUOUS
 10
-0.582764
 20
-1.168177
  0
VERTEX
  8
PLAN_1
 62
     2
  6
CONTINUOUS
 10
-0.585370
 20
-1.167657
  0
VERTEX
  8
PLAN_1
 62
     2
  6
CONTINUOUS
 10
-0.587976
 20
-1.167138
  0
VERTEX
  8
PLAN_1
 62
     2
  6
CONTINUOUS
 10
-0.598402
 20
-1.164531
  0
VERTEX
  8
PLAN_1
 62
     2
  6
CONTINUOUS
 10
-0.601528
 20
-1.163488
  0
VERTEX
  8
PLAN_1
 62
     2
  6
CONTINUOUS
 10
-0.603610
 20
-1.162445
  0
VERTEX
  8
PLAN_1
 62
     2
  6
CONTINUOUS
 10
-0.605697
 20
-1.161406
  0
VERTEX
  8
PLAN_1
 62
     2
  6
CONTINUOUS
 10
-0.607780
 20
-1.159839
  0
VERTEX
  8
PLAN_1
 62
     2
  6
CONTINUOUS
 10
-0.609343
 20
-1.158276
  0
VERTEX
  8
PLAN_1
 62
     2
  6
CONTINUOUS
 10
-0.610386
 20
-1.156193
  0
VERTEX
  8
PLAN_1
 62
     2
  6
CONTINUOUS
 10
-0.610909
 20
-1.153587
  0
VERTEX
  8
PLAN_1
 62
     2
  6
CONTINUOUS
 10
-0.611429
 20
-1.150980
  0
VERTEX
  8
PLAN_1
 62
     2
  6
CONTINUOUS
 10
-0.610909
 20
-1.146811
  0
VERTEX
  8
PLAN_1
 62
     2
  6
CONTINUOUS
 10
-0.609343
 20
-1.143685
  0
VERTEX
  8
PLAN_1
 62
     2
  6
CONTINUOUS
 10
-0.607260
 20
-1.140559
  0
VERTEX
  8
PLAN_1
 62
     2
  6
CONTINUOUS
 10
-0.605173
 20
-1.137953
  0
VERTEX
  8
PLAN_1
 62
     2
  6
CONTINUOUS
 10
-0.602047
 20
-1.136390
  0
VERTEX
  8
PLAN_1
 62
     2
  6
CONTINUOUS
 10
-0.598402
 20
-1.134823
  0
VERTEX
  8
PLAN_1
 62
     2
  6
CONTINUOUS
 10
-0.594752
 20
-1.134303
  0
VERTEX
  8
PLAN_1
 62
     2
  6
CONTINUOUS
 10
-0.590583
 20
-1.133783
  0
VERTEX
  8
PLAN_1
 62
     2
  6
CONTINUOUS
 10
-0.586933
 20
-1.133783
  0
VERTEX
  8
PLAN_1
 62
     2
  6
CONTINUOUS
 10
-0.584327
 20
-1.134303
  0
VERTEX
  8
PLAN_1
 62
     2
  6
CONTINUOUS
 10
-0.581724
 20
-1.135346
  0
VERTEX
  8
PLAN_1
 62
     2
  6
CONTINUOUS
 10
-0.579118
 20
-1.135866
  0
VERTEX
  8
PLAN_1
 62
     2
  6
CONTINUOUS
 10
-0.575469
 20
-1.138472
  0
VERTEX
  8
PLAN_1
 62
     2
  6
CONTINUOUS
 10
-0.572862
 20
-1.141079
  0
VERTEX
  8
PLAN_1
 62
     2
  6
CONTINUOUS
 10
-0.571299
 20
-1.144205
  0
VERTEX
  8
PLAN_1
 62
     2
  6
CONTINUOUS
 10
-0.570256
 20
-1.146811
  0
VERTEX
  8
PLAN_1
 62
     2
  6
CONTINUOUS
 10
-0.569736
 20
-1.149417
  0
VERTEX
  8
PLAN_1
 62
     2
  6
CONTINUOUS
 10
-0.569736
 20
-1.150980
  0
VERTEX
  8
PLAN_1
 62
     2
  6
CONTINUOUS
 10
-0.578594
 20
-1.150980
  0
SEQEND
  8
0
  0
POLYLINE
  8
PLAN_1
 62
     2
  6
CONTINUOUS
 66
     1
 40
0.003000
 41
0.003000
  0
VERTEX
  8
PLAN_1
 62
     2
  6
CONTINUOUS
 10
-0.526480
 20
-1.150980
  0
VERTEX
  8
PLAN_1
 62
     2
  6
CONTINUOUS
 10
-0.526480
 20
-1.149417
  0
VERTEX
  8
PLAN_1
 62
     2
  6
CONTINUOUS
 10
-0.527000
 20
-1.147854
  0
VERTEX
  8
PLAN_1
 62
     2
  6
CONTINUOUS
 10
-0.527524
 20
-1.146291
  0
VERTEX
  8
PLAN_1
 62
     2
  6
CONTINUOUS
 10
-0.528563
 20
-1.145248
  0
VERTEX
  8
PLAN_1
 62
     2
  6
CONTINUOUS
 10
-0.530126
 20
-1.143685
  0
VERTEX
  8
PLAN_1
 62
     2
  6
CONTINUOUS
 10
-0.532732
 20
-1.142642
  0
VERTEX
  8
PLAN_1
 62
     2
  6
CONTINUOUS
 10
-0.535862
 20
-1.142122
  0
VERTEX
  8
PLAN_1
 62
     2
  6
CONTINUOUS
 10
-0.539508
 20
-1.141598
  0
VERTEX
  8
PLAN_1
 62
     2
  6
CONTINUOUS
 10
-0.540551
 20
-1.141598
  0
VERTEX
  8
PLAN_1
 62
     2
  6
CONTINUOUS
 10
-0.542114
 20
-1.142122
  0
VERTEX
  8
PLAN_1
 62
     2
  6
CONTINUOUS
 10
-0.544201
 20
-1.142122
  0
VERTEX
  8
PLAN_1
 62
     2
  6
CONTINUOUS
 10
-0.545764
 20
-1.143161
  0
VERTEX
  8
PLAN_1
 62
     2
  6
CONTINUOUS
 10
-0.547846
 20
-1.144205
  0
VERTEX
  8
PLAN_1
 62
     2
  6
CONTINUOUS
 10
-0.548890
 20
-1.145248
  0
VERTEX
  8
PLAN_1
 62
     2
  6
CONTINUOUS
 10
-0.549933
 20
-1.147331
  0
VERTEX
  8
PLAN_1
 62
     2
  6
CONTINUOUS
 10
-0.550453
 20
-1.149417
  0
VERTEX
  8
PLAN_1
 62
     2
  6
CONTINUOUS
 10
-0.549933
 20
-1.150980
  0
VERTEX
  8
PLAN_1
 62
     2
  6
CONTINUOUS
 10
-0.549933
 20
-1.152024
  0
VERTEX
  8
PLAN_1
 62
     2
  6
CONTINUOUS
 10
-0.548890
 20
-1.153067
  0
VERTEX
  8
PLAN_1
 62
     2
  6
CONTINUOUS
 10
-0.547846
 20
-1.154106
  0
VERTEX
  8
PLAN_1
 62
     2
  6
CONTINUOUS
 10
-0.546803
 20
-1.154630
  0
VERTEX
  8
PLAN_1
 62
     2
  6
CONTINUOUS
 10
-0.544720
 20
-1.155669
  0
VERTEX
  8
PLAN_1
 62
     2
  6
CONTINUOUS
 10
-0.542634
 20
-1.156193
  0
VERTEX
  8
PLAN_1
 62
     2
  6
CONTINUOUS
 10
-0.540551
 20
-1.156713
  0
VERTEX
  8
PLAN_1
 62
     2
  6
CONTINUOUS
 10
-0.531169
 20
-1.158799
  0
VERTEX
  8
PLAN_1
 62
     2
  6
CONTINUOUS
 10
-0.527524
 20
-1.160362
  0
VERTEX
  8
PLAN_1
 62
     2
  6
CONTINUOUS
 10
-0.523874
 20
-1.161406
  0
VERTEX
  8
PLAN_1
 62
     2
  6
CONTINUOUS
 10
-0.521268
 20
-1.162969
  0
VERTEX
  8
PLAN_1
 62
     2
  6
CONTINUOUS
 10
-0.519185
 20
-1.164531
  0
VERTEX
  8
PLAN_1
 62
     2
  6
CONTINUOUS
 10
-0.517618
 20
-1.166094
  0
VERTEX
  8
PLAN_1
 62
     2
  6
CONTINUOUS
 10
-0.516579
 20
-1.168177
  0
VERTEX
  8
PLAN_1
 62
     2
  6
CONTINUOUS
 10
-0.516055
 20
-1.170783
  0
VERTEX
  8
PLAN_1
 62
     2
  6
CONTINUOUS
 10
-0.516055
 20
-1.173390
  0
VERTEX
  8
PLAN_1
 62
     2
  6
CONTINUOUS
 10
-0.516579
 20
-1.177559
  0
VERTEX
  8
PLAN_1
 62
     2
  6
CONTINUOUS
 10
-0.517618
 20
-1.180685
  0
VERTEX
  8
PLAN_1
 62
     2
  6
CONTINUOUS
 10
-0.519705
 20
-1.183815
  0
VERTEX
  8
PLAN_1
 62
     2
  6
CONTINUOUS
 10
-0.522311
 20
-1.186421
  0
VERTEX
  8
PLAN_1
 62
     2
  6
CONTINUOUS
 10
-0.525437
 20
-1.188504
  0
VERTEX
  8
PLAN_1
 62
     2
  6
CONTINUOUS
 10
-0.529087
 20
-1.190067
  0
VERTEX
  8
PLAN_1
 62
     2
  6
CONTINUOUS
 10
-0.533256
 20
-1.191110
  0
VERTEX
  8
PLAN_1
 62
     2
  6
CONTINUOUS
 10
-0.537425
 20
-1.191110
  0
VERTEX
  8
PLAN_1
 62
     2
  6
CONTINUOUS
 10
-0.541071
 20
-1.191110
  0
VERTEX
  8
PLAN_1
 62
     2
  6
CONTINUOUS
 10
-0.544720
 20
-1.190591
  0
VERTEX
  8
PLAN_1
 62
     2
  6
CONTINUOUS
 10
-0.547846
 20
-1.190067
  0
VERTEX
  8
PLAN_1
 62
     2
  6
CONTINUOUS
 10
-0.549933
 20
-1.189547
  0
VERTEX
  8
PLAN_1
 62
     2
  6
CONTINUOUS
 10
-0.552539
 20
-1.188504
  0
VERTEX
  8
PLAN_1
 62
     2
  6
CONTINUOUS
 10
-0.554102
 20
-1.186941
  0
VERTEX
  8
PLAN_1
 62
     2
  6
CONTINUOUS
 10
-0.555665
 20
-1.185898
  0
VERTEX
  8
PLAN_1
 62
     2
  6
CONTINUOUS
 10
-0.557228
 20
-1.184335
  0
VERTEX
  8
PLAN_1
 62
     2
  6
CONTINUOUS
 10
-0.558791
 20
-1.181209
  0
VERTEX
  8
PLAN_1
 62
     2
  6
CONTINUOUS
 10
-0.560354
 20
-1.178083
  0
VERTEX
  8
PLAN_1
 62
     2
  6
CONTINUOUS
 10
-0.560878
 20
-1.174953
  0
VERTEX
  8
PLAN_1
 62
     2
  6
CONTINUOUS
 10
-0.560878
 20
-1.172346
  0
VERTEX
  8
PLAN_1
 62
     2
  6
CONTINUOUS
 10
-0.552016
 20
-1.172346
  0
VERTEX
  8
PLAN_1
 62
     2
  6
CONTINUOUS
 10
-0.552016
 20
-1.173913
  0
VERTEX
  8
PLAN_1
 62
     2
  6
CONTINUOUS
 10
-0.551496
 20
-1.175996
  0
VERTEX
  8
PLAN_1
 62
     2
  6
CONTINUOUS
 10
-0.550972
 20
-1.177559
  0
VERTEX
  8
PLAN_1
 62
     2
  6
CONTINUOUS
 10
-0.549409
 20
-1.179646
  0
VERTEX
  8
PLAN_1
 62
     2
  6
CONTINUOUS
 10
-0.547846
 20
-1.181209
  0
VERTEX
  8
PLAN_1
 62
     2
  6
CONTINUOUS
 10
-0.545240
 20
-1.182252
  0
VERTEX
  8
PLAN_1
 62
     2
  6
CONTINUOUS
 10
-0.542114
 20
-1.183291
  0
VERTEX
  8
PLAN_1
 62
     2
  6
CONTINUOUS
 10
-0.537425
 20
-1.183291
  0
VERTEX
  8
PLAN_1
 62
     2
  6
CONTINUOUS
 10
-0.535339
 20
-1.183291
  0
VERTEX
  8
PLAN_1
 62
     2
  6
CONTINUOUS
 10
-0.532732
 20
-1.182772
  0
VERTEX
  8
PLAN_1
 62
     2
  6
CONTINUOUS
 10
-0.530650
 20
-1.182252
  0
VERTEX
  8
PLAN_1
 62
     2
  6
CONTINUOUS
 10
-0.529087
 20
-1.181209
  0
VERTEX
  8
PLAN_1
 62
     2
  6
CONTINUOUS
 10
-0.527524
 20
-1.180165
  0
VERTEX
  8
PLAN_1
 62
     2
  6
CONTINUOUS
 10
-0.525957
 20
-1.178602
  0
VERTEX
  8
PLAN_1
 62
     2
  6
CONTINUOUS
 10
-0.525437
 20
-1.177039
  0
VERTEX
  8
PLAN_1
 62
     2
  6
CONTINUOUS
 10
-0.524917
 20
-1.174953
  0
VERTEX
  8
PLAN_1
 62
     2
  6
CONTINUOUS
 10
-0.525437
 20
-1.173390
  0
VERTEX
  8
PLAN_1
 62
     2
  6
CONTINUOUS
 10
-0.525437
 20
-1.171827
  0
VERTEX
  8
PLAN_1
 62
     2
  6
CONTINUOUS
 10
-0.526480
 20
-1.170783
  0
VERTEX
  8
PLAN_1
 62
     2
  6
CONTINUOUS
 10
-0.527524
 20
-1.169744
  0
VERTEX
  8
PLAN_1
 62
     2
  6
CONTINUOUS
 10
-0.529087
 20
-1.169220
  0
VERTEX
  8
PLAN_1
 62
     2
  6
CONTINUOUS
 10
-0.531169
 20
-1.168177
  0
VERTEX
  8
PLAN_1
 62
     2
  6
CONTINUOUS
 10
-0.533256
 20
-1.167657
  0
VERTEX
  8
PLAN_1
 62
     2
  6
CONTINUOUS
 10
-0.535862
 20
-1.167138
  0
VERTEX
  8
PLAN_1
 62
     2
  6
CONTINUOUS
 10
-0.546283
 20
-1.164531
  0
VERTEX
  8
PLAN_1
 62
     2
  6
CONTINUOUS
 10
-0.549409
 20
-1.163488
  0
VERTEX
  8
PLAN_1
 62
     2
  6
CONTINUOUS
 10
-0.551496
 20
-1.162445
  0
VERTEX
  8
PLAN_1
 62
     2
  6
CONTINUOUS
 10
-0.554102
 20
-1.161406
  0
VERTEX
  8
PLAN_1
 62
     2
  6
CONTINUOUS
 10
-0.555665
 20
-1.159839
  0
VERTEX
  8
PLAN_1
 62
     2
  6
CONTINUOUS
 10
-0.557228
 20
-1.158276
  0
VERTEX
  8
PLAN_1
 62
     2
  6
CONTINUOUS
 10
-0.558272
 20
-1.156193
  0
VERTEX
  8
PLAN_1
 62
     2
  6
CONTINUOUS
 10
-0.558791
 20
-1.153587
  0
VERTEX
  8
PLAN_1
 62
     2
  6
CONTINUOUS
 10
-0.559311
 20
-1.150980
  0
VERTEX
  8
PLAN_1
 62
     2
  6
CONTINUOUS
 10
-0.558791
 20
-1.146811
  0
VERTEX
  8
PLAN_1
 62
     2
  6
CONTINUOUS
 10
-0.557228
 20
-1.143685
  0
VERTEX
  8
PLAN_1
 62
     2
  6
CONTINUOUS
 10
-0.555665
 20
-1.140559
  0
VERTEX
  8
PLAN_1
 62
     2
  6
CONTINUOUS
 10
-0.553059
 20
-1.137953
  0
VERTEX
  8
PLAN_1
 62
     2
  6
CONTINUOUS
 10
-0.549933
 20
-1.136390
  0
VERTEX
  8
PLAN_1
 62
     2
  6
CONTINUOUS
 10
-0.546283
 20
-1.134823
  0
VERTEX
  8
PLAN_1
 62
     2
  6
CONTINUOUS
 10
-0.542634
 20
-1.134303
  0
VERTEX
  8
PLAN_1
 62
     2
  6
CONTINUOUS
 10
-0.538465
 20
-1.133783
  0
VERTEX
  8
PLAN_1
 62
     2
  6
CONTINUOUS
 10
-0.535339
 20
-1.133783
  0
VERTEX
  8
PLAN_1
 62
     2
  6
CONTINUOUS
 10
-0.532213
 20
-1.134303
  0
VERTEX
  8
PLAN_1
 62
     2
  6
CONTINUOUS
 10
-0.529606
 20
-1.135346
  0
VERTEX
  8
PLAN_1
 62
     2
  6
CONTINUOUS
 10
-0.527000
 20
-1.135866
  0
VERTEX
  8
PLAN_1
 62
     2
  6
CONTINUOUS
 10
-0.523354
 20
-1.138472
  0
VERTEX
  8
PLAN_1
 62
     2
  6
CONTINUOUS
 10
-0.520748
 20
-1.141079
  0
VERTEX
  8
PLAN_1
 62
     2
  6
CONTINUOUS
 10
-0.519185
 20
-1.144205
  0
VERTEX
  8
PLAN_1
 62
     2
  6
CONTINUOUS
 10
-0.518142
 20
-1.146811
  0
VERTEX
  8
PLAN_1
 62
     2
  6
CONTINUOUS
 10
-0.517618
 20
-1.149417
  0
VERTEX
  8
PLAN_1
 62
     2
  6
CONTINUOUS
 10
-0.517618
 20
-1.150980
  0
VERTEX
  8
PLAN_1
 62
     2
  6
CONTINUOUS
 10
-0.526480
 20
-1.150980
  0
SEQEND
  8
0
  0
POLYLINE
  8
PLAN_1
 62
     2
  6
CONTINUOUS
 66
     1
 40
0.003000
 41
0.003000
  0
VERTEX
  8
PLAN_1
 62
     2
  6
CONTINUOUS
 10
-0.459248
 20
-1.172870
  0
VERTEX
  8
PLAN_1
 62
     2
  6
CONTINUOUS
 10
-0.459248
 20
-1.173913
  0
VERTEX
  8
PLAN_1
 62
     2
  6
CONTINUOUS
 10
-0.459772
 20
-1.175476
  0
VERTEX
  8
PLAN_1
 62
     2
  6
CONTINUOUS
 10
-0.460815
 20
-1.177559
  0
VERTEX
  8
PLAN_1
 62
     2
  6
CONTINUOUS
 10
-0.461335
 20
-1.179646
  0
VERTEX
  8
PLAN_1
 62
     2
  6
CONTINUOUS
 10
-0.462898
 20
-1.181728
  0
VERTEX
  8
PLAN_1
 62
     2
  6
CONTINUOUS
 10
-0.464461
 20
-1.183815
  0
VERTEX
  8
PLAN_1
 62
     2
  6
CONTINUOUS
 10
-0.466547
 20
-1.185898
  0
VERTEX
  8
PLAN_1
 62
     2
  6
CONTINUOUS
 10
-0.468630
 20
-1.187461
  0
VERTEX
  8
PLAN_1
 62
     2
  6
CONTINUOUS
 10
-0.469673
 20
-1.187984
  0
VERTEX
  8
PLAN_1
 62
     2
  6
CONTINUOUS
 10
-0.471236
 20
-1.189024
  0
VERTEX
  8
PLAN_1
 62
     2
  6
CONTINUOUS
 10
-0.472280
 20
-1.189547
  0
VERTEX
  8
PLAN_1
 62
     2
  6
CONTINUOUS
 10
-0.473843
 20
-1.190067
  0
VERTEX
  8
PLAN_1
 62
     2
  6
CONTINUOUS
 10
-0.475925
 20
-1.190591
  0
VERTEX
  8
PLAN_1
 62
     2
  6
CONTINUOUS
 10
-0.478012
 20
-1.191110
  0
VERTEX
  8
PLAN_1
 62
     2
  6
CONTINUOUS
 10
-0.480618
 20
-1.191110
  0
VERTEX
  8
PLAN_1
 62
     2
  6
CONTINUOUS
 10
-0.483744
 20
-1.191110
  0
VERTEX
  8
PLAN_1
 62
     2
  6
CONTINUOUS
 10
-0.486350
 20
-1.191110
  0
VERTEX
  8
PLAN_1
 62
     2
  6
CONTINUOUS
 10
-0.488957
 20
-1.190591
  0
VERTEX
  8
PLAN_1
 62
     2
  6
CONTINUOUS
 10
-0.491563
 20
-1.190067
  0
VERTEX
  8
PLAN_1
 62
     2
  6
CONTINUOUS
 10
-0.493646
 20
-1.189547
  0
VERTEX
  8
PLAN_1
 62
     2
  6
CONTINUOUS
 10
-0.496252
 20
-1.187984
  0
VERTEX
  8
PLAN_1
 62
     2
  6
CONTINUOUS
 10
-0.498339
 20
-1.186941
  0
VERTEX
  8
PLAN_1
 62
     2
  6
CONTINUOUS
 10
-0.499902
 20
-1.185378
  0
VERTEX
  8
PLAN_1
 62
     2
  6
CONTINUOUS
 10
-0.501465
 20
-1.183815
  0
VERTEX
  8
PLAN_1
 62
     2
  6
CONTINUOUS
 10
-0.504071
 20
-1.179646
  0
VERTEX
  8
PLAN_1
 62
     2
  6
CONTINUOUS
 10
-0.506154
 20
-1.174953
  0
VERTEX
  8
PLAN_1
 62
     2
  6
CONTINUOUS
 10
-0.507717
 20
-1.169744
  0
VERTEX
  8
PLAN_1
 62
     2
  6
CONTINUOUS
 10
-0.508240
 20
-1.164008
  0
VERTEX
  8
PLAN_1
 62
     2
  6
CONTINUOUS
 10
-0.507717
 20
-1.157756
  0
VERTEX
  8
PLAN_1
 62
     2
  6
CONTINUOUS
 10
-0.506677
 20
-1.152024
  0
VERTEX
  8
PLAN_1
 62
     2
  6
CONTINUOUS
 10
-0.505634
 20
-1.149417
  0
VERTEX
  8
PLAN_1
 62
     2
  6
CONTINUOUS
 10
-0.504591
 20
-1.147331
  0
VERTEX
  8
PLAN_1
 62
     2
  6
CONTINUOUS
 10
-0.503028
 20
-1.144728
  0
VERTEX
  8
PLAN_1
 62
     2
  6
CONTINUOUS
 10
-0.501465
 20
-1.142642
  0
VERTEX
  8
PLAN_1
 62
     2
  6
CONTINUOUS
 10
-0.499902
 20
-1.140559
  0
VERTEX
  8
PLAN_1
 62
     2
  6
CONTINUOUS
 10
-0.497815
 20
-1.138992
  0
VERTEX
  8
PLAN_1
 62
     2
  6
CONTINUOUS
 10
-0.495732
 20
-1.137429
  0
VERTEX
  8
PLAN_1
 62
     2
  6
CONTINUOUS
 10
-0.493646
 20
-1.136390
  0
VERTEX
  8
PLAN_1
 62
     2
  6
CONTINUOUS
 10
-0.491039
 20
-1.135346
  0
VERTEX
  8
PLAN_1
 62
     2
  6
CONTINUOUS
 10
-0.488433
 20
-1.134303
  0
VERTEX
  8
PLAN_1
 62
     2
  6
CONTINUOUS
 10
-0.485307
 20
-1.133783
  0
VERTEX
  8
PLAN_1
 62
     2
  6
CONTINUOUS
 10
-0.481661
 20
-1.133783
  0
VERTEX
  8
PLAN_1
 62
     2
  6
CONTINUOUS
 10
-0.479055
 20
-1.133783
  0
VERTEX
  8
PLAN_1
 62
     2
  6
CONTINUOUS
 10
-0.476449
 20
-1.134303
  0
VERTEX
  8
PLAN_1
 62
     2
  6
CONTINUOUS
 10
-0.473843
 20
-1.135346
  0
VERTEX
  8
PLAN_1
 62
     2
  6
CONTINUOUS
 10
-0.471756
 20
-1.135866
  0
VERTEX
  8
PLAN_1
 62
     2
  6
CONTINUOUS
 10
-0.469673
 20
-1.137429
  0
VERTEX
  8
PLAN_1
 62
     2
  6
CONTINUOUS
 10
-0.467587
 20
-1.138992
  0
VERTEX
  8
PLAN_1
 62
     2
  6
CONTINUOUS
 10
-0.466024
 20
-1.140559
  0
VERTEX
  8
PLAN_1
 62
     2
  6
CONTINUOUS
 10
-0.464461
 20
-1.142642
  0
VERTEX
  8
PLAN_1
 62
     2
  6
CONTINUOUS
 10
-0.461854
 20
-1.146811
  0
VERTEX
  8
PLAN_1
 62
     2
  6
CONTINUOUS
 10
-0.459772
 20
-1.152543
  0
VERTEX
  8
PLAN_1
 62
     2
  6
CONTINUOUS
 10
-0.458728
 20
-1.158799
  0
VERTEX
  8
PLAN_1
 62
     2
  6
CONTINUOUS
 10
-0.458728
 20
-1.165575
  0
VERTEX
  8
PLAN_1
 62
     2
  6
CONTINUOUS
 10
-0.498339
 20
-1.165575
  0
VERTEX
  8
PLAN_1
 62
     2
  6
CONTINUOUS
 10
-0.497815
 20
-1.169744
  0
VERTEX
  8
PLAN_1
 62
     2
  6
CONTINUOUS
 10
-0.497295
 20
-1.172870
  0
VERTEX
  8
PLAN_1
 62
     2
  6
CONTINUOUS
 10
-0.495732
 20
-1.175996
  0
VERTEX
  8
PLAN_1
 62
     2
  6
CONTINUOUS
 10
-0.494169
 20
-1.178602
  0
VERTEX
  8
PLAN_1
 62
     2
  6
CONTINUOUS
 10
-0.492083
 20
-1.180685
  0
VERTEX
  8
PLAN_1
 62
     2
  6
CONTINUOUS
 10
-0.489476
 20
-1.182252
  0
VERTEX
  8
PLAN_1
 62
     2
  6
CONTINUOUS
 10
-0.486350
 20
-1.183291
  0
VERTEX
  8
PLAN_1
 62
     2
  6
CONTINUOUS
 10
-0.482181
 20
-1.183291
  0
VERTEX
  8
PLAN_1
 62
     2
  6
CONTINUOUS
 10
-0.479575
 20
-1.183291
  0
VERTEX
  8
PLAN_1
 62
     2
  6
CONTINUOUS
 10
-0.476449
 20
-1.182252
  0
VERTEX
  8
PLAN_1
 62
     2
  6
CONTINUOUS
 10
-0.474362
 20
-1.181209
  0
VERTEX
  8
PLAN_1
 62
     2
  6
CONTINUOUS
 10
-0.472280
 20
-1.179646
  0
VERTEX
  8
PLAN_1
 62
     2
  6
CONTINUOUS
 10
-0.470717
 20
-1.178083
  0
VERTEX
  8
PLAN_1
 62
     2
  6
CONTINUOUS
 10
-0.469673
 20
-1.175996
  0
VERTEX
  8
PLAN_1
 62
     2
  6
CONTINUOUS
 10
-0.468630
 20
-1.174433
  0
VERTEX
  8
PLAN_1
 62
     2
  6
CONTINUOUS
 10
-0.468110
 20
-1.172870
  0
VERTEX
  8
PLAN_1
 62
     2
  6
CONTINUOUS
 10
-0.459248
 20
-1.172870
  0
SEQEND
  8
0
  0
POLYLINE
  8
PLAN_1
 62
     2
  6
CONTINUOUS
 66
     1
 40
0.003000
 41
0.003000
  0
VERTEX
  8
PLAN_1
 62
     2
  6
CONTINUOUS
 10
-0.468110
 20
-1.158276
  0
VERTEX
  8
PLAN_1
 62
     2
  6
CONTINUOUS
 10
-0.468110
 20
-1.155150
  0
VERTEX
  8
PLAN_1
 62
     2
  6
CONTINUOUS
 10
-0.469154
 20
-1.152024
  0
VERTEX
  8
PLAN_1
 62
     2
  6
CONTINUOUS
 10
-0.470193
 20
-1.149417
  0
VERTEX
  8
PLAN_1
 62
     2
  6
CONTINUOUS
 10
-0.471756
 20
-1.146811
  0
VERTEX
  8
PLAN_1
 62
     2
  6
CONTINUOUS
 10
-0.473323
 20
-1.144728
  0
VERTEX
  8
PLAN_1
 62
     2
  6
CONTINUOUS
 10
-0.475925
 20
-1.143161
  0
VERTEX
  8
PLAN_1
 62
     2
  6
CONTINUOUS
 10
-0.479055
 20
-1.142642
  0
VERTEX
  8
PLAN_1
 62
     2
  6
CONTINUOUS
 10
-0.483224
 20
-1.142122
  0
VERTEX
  8
PLAN_1
 62
     2
  6
CONTINUOUS
 10
-0.486350
 20
-1.142642
  0
VERTEX
  8
PLAN_1
 62
     2
  6
CONTINUOUS
 10
-0.488957
 20
-1.143161
  0
VERTEX
  8
PLAN_1
 62
     2
  6
CONTINUOUS
 10
-0.491563
 20
-1.144728
  0
VERTEX
  8
PLAN_1
 62
     2
  6
CONTINUOUS
 10
-0.493646
 20
-1.146811
  0
VERTEX
  8
PLAN_1
 62
     2
  6
CONTINUOUS
 10
-0.495732
 20
-1.149417
  0
VERTEX
  8
PLAN_1
 62
     2
  6
CONTINUOUS
 10
-0.497295
 20
-1.152024
  0
VERTEX
  8
PLAN_1
 62
     2
  6
CONTINUOUS
 10
-0.497815
 20
-1.155150
  0
VERTEX
  8
PLAN_1
 62
     2
  6
CONTINUOUS
 10
-0.498339
 20
-1.158276
  0
VERTEX
  8
PLAN_1
 62
     2
  6
CONTINUOUS
 10
-0.468110
 20
-1.158276
  0
SEQEND
  8
0
  0
SOLID
  8
PLAN_1
 62
     2
 10
-0.424331
 20
-1.165575
 11
-0.449870
 21
-1.165575
 12
-0.424331
 22
-1.156193
 13
-0.449870
 23
-1.156193
  0
POLYLINE
  8
PLAN_1
 62
     2
  6
CONTINUOUS
 66
     1
 40
0.003000
 41
0.003000
  0
VERTEX
  8
PLAN_1
 62
     2
  6
CONTINUOUS
 10
-0.424331
 20
-1.165575
  0
VERTEX
  8
PLAN_1
 62
     2
  6
CONTINUOUS
 10
-0.449870
 20
-1.165575
  0
VERTEX
  8
PLAN_1
 62
     2
  6
CONTINUOUS
 10
-0.449870
 20
-1.156193
  0
VERTEX
  8
PLAN_1
 62
     2
  6
CONTINUOUS
 10
-0.424331
 20
-1.156193
  0
VERTEX
  8
PLAN_1
 62
     2
  6
CONTINUOUS
 10
-0.424331
 20
-1.165575
  0
SEQEND
  8
0
  0
SOLID
  8
PLAN_1
 62
     2
 10
-0.388370
 20
-1.128051
 11
-0.395146
 21
-1.128051
 12
-0.374823
 22
-1.113457
 13
-0.385768
 23
-1.113457
  0
POLYLINE
  8
PLAN_1
 62
     2
  6
CONTINUOUS
 66
     1
 40
0.003000
 41
0.003000
  0
VERTEX
  8
PLAN_1
 62
     2
  6
CONTINUOUS
 10
-0.388370
 20
-1.128051
  0
VERTEX
  8
PLAN_1
 62
     2
  6
CONTINUOUS
 10
-0.395146
 20
-1.128051
  0
VERTEX
  8
PLAN_1
 62
     2
  6
CONTINUOUS
 10
-0.385768
 20
-1.113457
  0
VERTEX
  8
PLAN_1
 62
     2
  6
CONTINUOUS
 10
-0.374823
 20
-1.113457
  0
VERTEX
  8
PLAN_1
 62
     2
  6
CONTINUOUS
 10
-0.388370
 20
-1.128051
  0
SEQEND
  8
0
  0
POLYLINE
  8
PLAN_1
 62
     2
  6
CONTINUOUS
 66
     1
 40
0.003000
 41
0.003000
  0
VERTEX
  8
PLAN_1
 62
     2
  6
CONTINUOUS
 10
-0.366484
 20
-1.172870
  0
VERTEX
  8
PLAN_1
 62
     2
  6
CONTINUOUS
 10
-0.367004
 20
-1.173913
  0
VERTEX
  8
PLAN_1
 62
     2
  6
CONTINUOUS
 10
-0.367524
 20
-1.175476
  0
VERTEX
  8
PLAN_1
 62
     2
  6
CONTINUOUS
 10
-0.368047
 20
-1.177559
  0
VERTEX
  8
PLAN_1
 62
     2
  6
CONTINUOUS
 10
-0.369091
 20
-1.179646
  0
VERTEX
  8
PLAN_1
 62
     2
  6
CONTINUOUS
 10
-0.370130
 20
-1.181728
  0
VERTEX
  8
PLAN_1
 62
     2
  6
CONTINUOUS
 10
-0.372217
 20
-1.183815
  0
VERTEX
  8
PLAN_1
 62
     2
  6
CONTINUOUS
 10
-0.373780
 20
-1.185898
  0
VERTEX
  8
PLAN_1
 62
     2
  6
CONTINUOUS
 10
-0.376386
 20
-1.187461
  0
VERTEX
  8
PLAN_1
 62
     2
  6
CONTINUOUS
 10
-0.377429
 20
-1.187984
  0
VERTEX
  8
PLAN_1
 62
     2
  6
CONTINUOUS
 10
-0.378469
 20
-1.189024
  0
VERTEX
  8
PLAN_1
 62
     2
  6
CONTINUOUS
 10
-0.380031
 20
-1.189547
  0
VERTEX
  8
PLAN_1
 62
     2
  6
CONTINUOUS
 10
-0.381598
 20
-1.190067
  0
VERTEX
  8
PLAN_1
 62
     2
  6
CONTINUOUS
 10
-0.383161
 20
-1.190591
  0
VERTEX
  8
PLAN_1
 62
     2
  6
CONTINUOUS
 10
-0.385244
 20
-1.191110
  0
VERTEX
  8
PLAN_1
 62
     2
  6
CONTINUOUS
 10
-0.387850
 20
-1.191110
  0
VERTEX
  8
PLAN_1
 62
     2
  6
CONTINUOUS
 10
-0.390976
 20
-1.191110
  0
VERTEX
  8
PLAN_1
 62
     2
  6
CONTINUOUS
 10
-0.394106
 20
-1.191110
  0
VERTEX
  8
PLAN_1
 62
     2
  6
CONTINUOUS
 10
-0.396709
 20
-1.190591
  0
VERTEX
  8
PLAN_1
 62
     2
  6
CONTINUOUS
 10
-0.398795
 20
-1.190067
  0
VERTEX
  8
PLAN_1
 62
     2
  6
CONTINUOUS
 10
-0.401402
 20
-1.189547
  0
VERTEX
  8
PLAN_1
 62
     2
  6
CONTINUOUS
 10
-0.403484
 20
-1.187984
  0
VERTEX
  8
PLAN_1
 62
     2
  6
CONTINUOUS
 10
-0.405571
 20
-1.186941
  0
VERTEX
  8
PLAN_1
 62
     2
  6
CONTINUOUS
 10
-0.407134
 20
-1.185378
  0
VERTEX
  8
PLAN_1
 62
     2
  6
CONTINUOUS
 10
-0.409217
 20
-1.183815
  0
VERTEX
  8
PLAN_1
 62
     2
  6
CONTINUOUS
 10
-0.411823
 20
-1.179646
  0
VERTEX
  8
PLAN_1
 62
     2
  6
CONTINUOUS
 10
-0.413909
 20
-1.174953
  0
VERTEX
  8
PLAN_1
 62
     2
  6
CONTINUOUS
 10
-0.414953
 20
-1.169744
  0
VERTEX
  8
PLAN_1
 62
     2
  6
CONTINUOUS
 10
-0.415472
 20
-1.164008
  0
VERTEX
  8
PLAN_1
 62
     2
  6
CONTINUOUS
 10
-0.414953
 20
-1.157756
  0
VERTEX
  8
PLAN_1
 62
     2
  6
CONTINUOUS
 10
-0.413909
 20
-1.152024
  0
VERTEX
  8
PLAN_1
 62
     2
  6
CONTINUOUS
 10
-0.412866
 20
-1.149417
  0
VERTEX
  8
PLAN_1
 62
     2
  6
CONTINUOUS
 10
-0.411823
 20
-1.147331
  0
VERTEX
  8
PLAN_1
 62
     2
  6
CONTINUOUS
 10
-0.410783
 20
-1.144728
  0
VERTEX
  8
PLAN_1
 62
     2
  6
CONTINUOUS
 10
-0.409217
 20
-1.142642
  0
VERTEX
  8
PLAN_1
 62
     2
  6
CONTINUOUS
 10
-0.407654
 20
-1.140559
  0
VERTEX
  8
PLAN_1
 62
     2
  6
CONTINUOUS
 10
-0.405571
 20
-1.138992
  0
VERTEX
  8
PLAN_1
 62
     2
  6
CONTINUOUS
 10
-0.403484
 20
-1.137429
  0
VERTEX
  8
PLAN_1
 62
     2
  6
CONTINUOUS
 10
-0.400878
 20
-1.136390
  0
VERTEX
  8
PLAN_1
 62
     2
  6
CONTINUOUS
 10
-0.398276
 20
-1.135346
  0
VERTEX
  8
PLAN_1
 62
     2
  6
CONTINUOUS
 10
-0.395669
 20
-1.134303
  0
VERTEX
  8
PLAN_1
 62
     2
  6
CONTINUOUS
 10
-0.392539
 20
-1.133783
  0
VERTEX
  8
PLAN_1
 62
     2
  6
CONTINUOUS
 10
-0.389413
 20
-1.133783
  0
VERTEX
  8
PLAN_1
 62
     2
  6
CONTINUOUS
 10
-0.386287
 20
-1.133783
  0
VERTEX
  8
PLAN_1
 62
     2
  6
CONTINUOUS
 10
-0.383681
 20
-1.134303
  0
VERTEX
  8
PLAN_1
 62
     2
  6
CONTINUOUS
 10
-0.381598
 20
-1.135346
  0
VERTEX
  8
PLAN_1
 62
     2
  6
CONTINUOUS
 10
-0.378992
 20
-1.135866
  0
VERTEX
  8
PLAN_1
 62
     2
  6
CONTINUOUS
 10
-0.376906
 20
-1.137429
  0
VERTEX
  8
PLAN_1
 62
     2
  6
CONTINUOUS
 10
-0.374823
 20
-1.138992
  0
VERTEX
  8
PLAN_1
 62
     2
  6
CONTINUOUS
 10
-0.373260
 20
-1.140559
  0
VERTEX
  8
PLAN_1
 62
     2
  6
CONTINUOUS
 10
-0.371693
 20
-1.142642
  0
VERTEX
  8
PLAN_1
 62
     2
  6
CONTINUOUS
 10
-0.369091
 20
-1.146811
  0
VERTEX
  8
PLAN_1
 62
     2
  6
CONTINUOUS
 10
-0.367524
 20
-1.152543
  0
VERTEX
  8
PLAN_1
 62
     2
  6
CONTINUOUS
 10
-0.366484
 20
-1.158799
  0
VERTEX
  8
PLAN_1
 62
     2
  6
CONTINUOUS
 10
-0.365961
 20
-1.165575
  0
VERTEX
  8
PLAN_1
 62
     2
  6
CONTINUOUS
 10
-0.405571
 20
-1.165575
  0
VERTEX
  8
PLAN_1
 62
     2
  6
CONTINUOUS
 10
-0.405571
 20
-1.169744
  0
VERTEX
  8
PLAN_1
 62
     2
  6
CONTINUOUS
 10
-0.404528
 20
-1.172870
  0
VERTEX
  8
PLAN_1
 62
     2
  6
CONTINUOUS
 10
-0.403484
 20
-1.175996
  0
VERTEX
  8
PLAN_1
 62
     2
  6
CONTINUOUS
 10
-0.401921
 20
-1.178602
  0
VERTEX
  8
PLAN_1
 62
     2
  6
CONTINUOUS
 10
-0.399315
 20
-1.180685
  0
VERTEX
  8
PLAN_1
 62
     2
  6
CONTINUOUS
 10
-0.396709
 20
-1.182252
  0
VERTEX
  8
PLAN_1
 62
     2
  6
CONTINUOUS
 10
-0.393583
 20
-1.183291
  0
VERTEX
  8
PLAN_1
 62
     2
  6
CONTINUOUS
 10
-0.389937
 20
-1.183291
  0
VERTEX
  8
PLAN_1
 62
     2
  6
CONTINUOUS
 10
-0.386807
 20
-1.183291
  0
VERTEX
  8
PLAN_1
 62
     2
  6
CONTINUOUS
 10
-0.384201
 20
-1.182252
  0
VERTEX
  8
PLAN_1
 62
     2
  6
CONTINUOUS
 10
-0.381598
 20
-1.181209
  0
VERTEX
  8
PLAN_1
 62
     2
  6
CONTINUOUS
 10
-0.379512
 20
-1.179646
  0
VERTEX
  8
PLAN_1
 62
     2
  6
CONTINUOUS
 10
-0.377949
 20
-1.178083
  0
VERTEX
  8
PLAN_1
 62
     2
  6
CONTINUOUS
 10
-0.376906
 20
-1.175996
  0
VERTEX
  8
PLAN_1
 62
     2
  6
CONTINUOUS
 10
-0.376386
 20
-1.174433
  0
VERTEX
  8
PLAN_1
 62
     2
  6
CONTINUOUS
 10
-0.375862
 20
-1.172870
  0
VERTEX
  8
PLAN_1
 62
     2
  6
CONTINUOUS
 10
-0.366484
 20
-1.172870
  0
SEQEND
  8
0
  0
POLYLINE
  8
PLAN_1
 62
     2
  6
CONTINUOUS
 66
     1
 40
0.003000
 41
0.003000
  0
VERTEX
  8
PLAN_1
 62
     2
  6
CONTINUOUS
 10
-0.375343
 20
-1.158276
  0
VERTEX
  8
PLAN_1
 62
     2
  6
CONTINUOUS
 10
-0.375862
 20
-1.155150
  0
VERTEX
  8
PLAN_1
 62
     2
  6
CONTINUOUS
 10
-0.376386
 20
-1.152024
  0
VERTEX
  8
PLAN_1
 62
     2
  6
CONTINUOUS
 10
-0.377429
 20
-1.149417
  0
VERTEX
  8
PLAN_1
 62
     2
  6
CONTINUOUS
 10
-0.378992
 20
-1.146811
  0
VERTEX
  8
PLAN_1
 62
     2
  6
CONTINUOUS
 10
-0.381075
 20
-1.144728
  0
VERTEX
  8
PLAN_1
 62
     2
  6
CONTINUOUS
 10
-0.383681
 20
-1.143161
  0
VERTEX
  8
PLAN_1
 62
     2
  6
CONTINUOUS
 10
-0.386807
 20
-1.142642
  0
VERTEX
  8
PLAN_1
 62
     2
  6
CONTINUOUS
 10
-0.390457
 20
-1.142122
  0
VERTEX
  8
PLAN_1
 62
     2
  6
CONTINUOUS
 10
-0.393583
 20
-1.142642
  0
VERTEX
  8
PLAN_1
 62
     2
  6
CONTINUOUS
 10
-0.396709
 20
-1.143161
  0
VERTEX
  8
PLAN_1
 62
     2
  6
CONTINUOUS
 10
-0.399315
 20
-1.144728
  0
VERTEX
  8
PLAN_1
 62
     2
  6
CONTINUOUS
 10
-0.401402
 20
-1.146811
  0
VERTEX
  8
PLAN_1
 62
     2
  6
CONTINUOUS
 10
-0.402965
 20
-1.149417
  0
VERTEX
  8
PLAN_1
 62
     2
  6
CONTINUOUS
 10
-0.404528
 20
-1.152024
  0
VERTEX
  8
PLAN_1
 62
     2
  6
CONTINUOUS
 10
-0.405571
 20
-1.155150
  0
VERTEX
  8
PLAN_1
 62
     2
  6
CONTINUOUS
 10
-0.405571
 20
-1.158276
  0
VERTEX
  8
PLAN_1
 62
     2
  6
CONTINUOUS
 10
-0.375343
 20
-1.158276
  0
SEQEND
  8
0
  0
POLYLINE
  8
PLAN_1
 62
     2
  6
CONTINUOUS
 66
     1
 40
0.003000
 41
0.003000
  0
VERTEX
  8
PLAN_1
 62
     2
  6
CONTINUOUS
 10
-0.343551
 20
-1.143161
  0
VERTEX
  8
PLAN_1
 62
     2
  6
CONTINUOUS
 10
-0.343551
 20
-1.178083
  0
VERTEX
  8
PLAN_1
 62
     2
  6
CONTINUOUS
 10
-0.343551
 20
-1.179646
  0
VERTEX
  8
PLAN_1
 62
     2
  6
CONTINUOUS
 10
-0.343031
 20
-1.180685
  0
VERTEX
  8
PLAN_1
 62
     2
  6
CONTINUOUS
 10
-0.342508
 20
-1.181728
  0
VERTEX
  8
PLAN_1
 62
     2
  6
CONTINUOUS
 10
-0.341469
 20
-1.182252
  0
VERTEX
  8
PLAN_1
 62
     2
  6
CONTINUOUS
 10
-0.340945
 20
-1.182252
  0
VERTEX
  8
PLAN_1
 62
     2
  6
CONTINUOUS
 10
-0.339902
 20
-1.182772
  0
VERTEX
  8
PLAN_1
 62
     2
  6
CONTINUOUS
 10
-0.338862
 20
-1.182772
  0
VERTEX
  8
PLAN_1
 62
     2
  6
CONTINUOUS
 10
-0.338339
 20
-1.182772
  0
VERTEX
  8
PLAN_1
 62
     2
  6
CONTINUOUS
 10
-0.335213
 20
-1.182772
  0
VERTEX
  8
PLAN_1
 62
     2
  6
CONTINUOUS
 10
-0.335213
 20
-1.189547
  0
VERTEX
  8
PLAN_1
 62
     2
  6
CONTINUOUS
 10
-0.336256
 20
-1.190067
  0
VERTEX
  8
PLAN_1
 62
     2
  6
CONTINUOUS
 10
-0.337299
 20
-1.190067
  0
VERTEX
  8
PLAN_1
 62
     2
  6
CONTINUOUS
 10
-0.338339
 20
-1.190067
  0
VERTEX
  8
PLAN_1
 62
     2
  6
CONTINUOUS
 10
-0.339382
 20
-1.190067
  0
VERTEX
  8
PLAN_1
 62
     2
  6
CONTINUOUS
 10
-0.339902
 20
-1.190591
  0
VERTEX
  8
PLAN_1
 62
     2
  6
CONTINUOUS
 10
-0.340945
 20
-1.190591
  0
VERTEX
  8
PLAN_1
 62
     2
  6
CONTINUOUS
 10
-0.341469
 20
-1.190591
  0
VERTEX
  8
PLAN_1
 62
     2
  6
CONTINUOUS
 10
-0.341988
 20
-1.190591
  0
VERTEX
  8
PLAN_1
 62
     2
  6
CONTINUOUS
 10
-0.345114
 20
-1.190067
  0
VERTEX
  8
PLAN_1
 62
     2
  6
CONTINUOUS
 10
-0.347201
 20
-1.189547
  0
VERTEX
  8
PLAN_1
 62
     2
  6
CONTINUOUS
 10
-0.349283
 20
-1.188504
  0
VERTEX
  8
PLAN_1
 62
     2
  6
CONTINUOUS
 10
-0.350846
 20
-1.186941
  0
VERTEX
  8
PLAN_1
 62
     2
  6
CONTINUOUS
 10
-0.351890
 20
-1.185378
  0
VERTEX
  8
PLAN_1
 62
     2
  6
CONTINUOUS
 10
-0.352409
 20
-1.183291
  0
VERTEX
  8
PLAN_1
 62
     2
  6
CONTINUOUS
 10
-0.352933
 20
-1.181209
  0
VERTEX
  8
PLAN_1
 62
     2
  6
CONTINUOUS
 10
-0.352933
 20
-1.178602
  0
VERTEX
  8
PLAN_1
 62
     2
  6
CONTINUOUS
 10
-0.352933
 20
-1.143161
  0
VERTEX
  8
PLAN_1
 62
     2
  6
CONTINUOUS
 10
-0.360228
 20
-1.143161
  0
VERTEX
  8
PLAN_1
 62
     2
  6
CONTINUOUS
 10
-0.360228
 20
-1.135346
  0
VERTEX
  8
PLAN_1
 62
     2
  6
CONTINUOUS
 10
-0.352933
 20
-1.135346
  0
VERTEX
  8
PLAN_1
 62
     2
  6
CONTINUOUS
 10
-0.352933
 20
-1.120232
  0
VERTEX
  8
PLAN_1
 62
     2
  6
CONTINUOUS
 10
-0.343551
 20
-1.120232
  0
VERTEX
  8
PLAN_1
 62
     2
  6
CONTINUOUS
 10
-0.343551
 20
-1.135346
  0
VERTEX
  8
PLAN_1
 62
     2
  6
CONTINUOUS
 10
-0.335213
 20
-1.135346
  0
VERTEX
  8
PLAN_1
 62
     2
  6
CONTINUOUS
 10
-0.335213
 20
-1.143161
  0
VERTEX
  8
PLAN_1
 62
     2
  6
CONTINUOUS
 10
-0.343551
 20
-1.143161
  0
SEQEND
  8
0
  0
POLYLINE
  8
PLAN_1
 62
     2
  6
CONTINUOUS
 66
     1
 40
0.003000
 41
0.003000
  0
VERTEX
  8
PLAN_1
 62
     2
  6
CONTINUOUS
 10
-0.303945
 20
-1.133783
  0
VERTEX
  8
PLAN_1
 62
     2
  6
CONTINUOUS
 10
-0.300815
 20
-1.133783
  0
VERTEX
  8
PLAN_1
 62
     2
  6
CONTINUOUS
 10
-0.297689
 20
-1.134303
  0
VERTEX
  8
PLAN_1
 62
     2
  6
CONTINUOUS
 10
-0.295083
 20
-1.135346
  0
VERTEX
  8
PLAN_1
 62
     2
  6
CONTINUOUS
 10
-0.292476
 20
-1.136390
  0
VERTEX
  8
PLAN_1
 62
     2
  6
CONTINUOUS
 10
-0.290394
 20
-1.137429
  0
VERTEX
  8
PLAN_1
 62
     2
  6
CONTINUOUS
 10
-0.288307
 20
-1.138992
  0
VERTEX
  8
PLAN_1
 62
     2
  6
CONTINUOUS
 10
-0.286224
 20
-1.141079
  0
VERTEX
  8
PLAN_1
 62
     2
  6
CONTINUOUS
 10
-0.284661
 20
-1.143161
  0
VERTEX
  8
PLAN_1
 62
     2
  6
CONTINUOUS
 10
-0.282055
 20
-1.147331
  0
VERTEX
  8
PLAN_1
 62
     2
  6
CONTINUOUS
 10
-0.279969
 20
-1.152024
  0
VERTEX
  8
PLAN_1
 62
     2
  6
CONTINUOUS
 10
-0.278929
 20
-1.157236
  0
VERTEX
  8
PLAN_1
 62
     2
  6
CONTINUOUS
 10
-0.278406
 20
-1.162445
  0
VERTEX
  8
PLAN_1
 62
     2
  6
CONTINUOUS
 10
-0.278929
 20
-1.167657
  0
VERTEX
  8
PLAN_1
 62
     2
  6
CONTINUOUS
 10
-0.279969
 20
-1.172870
  0
VERTEX
  8
PLAN_1
 62
     2
  6
CONTINUOUS
 10
-0.282055
 20
-1.177559
  0
VERTEX
  8
PLAN_1
 62
     2
  6
CONTINUOUS
 10
-0.284661
 20
-1.182252
  0
VERTEX
  8
PLAN_1
 62
     2
  6
CONTINUOUS
 10
-0.286224
 20
-1.184335
  0
VERTEX
  8
PLAN_1
 62
     2
  6
CONTINUOUS
 10
-0.288307
 20
-1.185898
  0
VERTEX
  8
PLAN_1
 62
     2
  6
CONTINUOUS
 10
-0.290394
 20
-1.187461
  0
VERTEX
  8
PLAN_1
 62
     2
  6
CONTINUOUS
 10
-0.292476
 20
-1.188504
  0
VERTEX
  8
PLAN_1
 62
     2
  6
CONTINUOUS
 10
-0.295083
 20
-1.189547
  0
VERTEX
  8
PLAN_1
 62
     2
  6
CONTINUOUS
 10
-0.297689
 20
-1.190591
  0
VERTEX
  8
PLAN_1
 62
     2
  6
CONTINUOUS
 10
-0.300815
 20
-1.191110
  0
VERTEX
  8
PLAN_1
 62
     2
  6
CONTINUOUS
 10
-0.303945
 20
-1.191110
  0
VERTEX
  8
PLAN_1
 62
     2
  6
CONTINUOUS
 10
-0.307071
 20
-1.191110
  0
VERTEX
  8
PLAN_1
 62
     2
  6
CONTINUOUS
 10
-0.309677
 20
-1.190591
  0
VERTEX
  8
PLAN_1
 62
     2
  6
CONTINUOUS
 10
-0.312803
 20
-1.189547
  0
VERTEX
  8
PLAN_1
 62
     2
  6
CONTINUOUS
 10
-0.314886
 20
-1.188504
  0
VERTEX
  8
PLAN_1
 62
     2
  6
CONTINUOUS
 10
-0.317492
 20
-1.187461
  0
VERTEX
  8
PLAN_1
 62
     2
  6
CONTINUOUS
 10
-0.319579
 20
-1.185898
  0
VERTEX
  8
PLAN_1
 62
     2
  6
CONTINUOUS
 10
-0.321142
 20
-1.184335
  0
VERTEX
  8
PLAN_1
 62
     2
  6
CONTINUOUS
 10
-0.323224
 20
-1.182252
  0
VERTEX
  8
PLAN_1
 62
     2
  6
CONTINUOUS
 10
-0.325831
 20
-1.177559
  0
VERTEX
  8
PLAN_1
 62
     2
  6
CONTINUOUS
 10
-0.327394
 20
-1.172870
  0
VERTEX
  8
PLAN_1
 62
     2
  6
CONTINUOUS
 10
-0.328961
 20
-1.167657
  0
VERTEX
  8
PLAN_1
 62
     2
  6
CONTINUOUS
 10
-0.328961
 20
-1.162445
  0
VERTEX
  8
PLAN_1
 62
     2
  6
CONTINUOUS
 10
-0.328961
 20
-1.157236
  0
VERTEX
  8
PLAN_1
 62
     2
  6
CONTINUOUS
 10
-0.327394
 20
-1.152024
  0
VERTEX
  8
PLAN_1
 62
     2
  6
CONTINUOUS
 10
-0.325831
 20
-1.147331
  0
VERTEX
  8
PLAN_1
 62
     2
  6
CONTINUOUS
 10
-0.323224
 20
-1.143161
  0
VERTEX
  8
PLAN_1
 62
     2
  6
CONTINUOUS
 10
-0.321142
 20
-1.141079
  0
VERTEX
  8
PLAN_1
 62
     2
  6
CONTINUOUS
 10
-0.319579
 20
-1.138992
  0
VERTEX
  8
PLAN_1
 62
     2
  6
CONTINUOUS
 10
-0.317492
 20
-1.137429
  0
VERTEX
  8
PLAN_1
 62
     2
  6
CONTINUOUS
 10
-0.314886
 20
-1.136390
  0
VERTEX
  8
PLAN_1
 62
     2
  6
CONTINUOUS
 10
-0.312803
 20
-1.135346
  0
VERTEX
  8
PLAN_1
 62
     2
  6
CONTINUOUS
 10
-0.309677
 20
-1.134303
  0
VERTEX
  8
PLAN_1
 62
     2
  6
CONTINUOUS
 10
-0.307071
 20
-1.133783
  0
VERTEX
  8
PLAN_1
 62
     2
  6
CONTINUOUS
 10
-0.303945
 20
-1.133783
  0
SEQEND
  8
0
  0
POLYLINE
  8
PLAN_1
 62
     2
  6
CONTINUOUS
 66
     1
 40
0.003000
 41
0.003000
  0
VERTEX
  8
PLAN_1
 62
     2
  6
CONTINUOUS
 10
-0.303945
 20
-1.183291
  0
VERTEX
  8
PLAN_1
 62
     2
  6
CONTINUOUS
 10
-0.301339
 20
-1.183291
  0
VERTEX
  8
PLAN_1
 62
     2
  6
CONTINUOUS
 10
-0.299252
 20
-1.182772
  0
VERTEX
  8
PLAN_1
 62
     2
  6
CONTINUOUS
 10
-0.297689
 20
-1.182252
  0
VERTEX
  8
PLAN_1
 62
     2
  6
CONTINUOUS
 10
-0.295606
 20
-1.181209
  0
VERTEX
  8
PLAN_1
 62
     2
  6
CONTINUOUS
 10
-0.293000
 20
-1.178602
  0
VERTEX
  8
PLAN_1
 62
     2
  6
CONTINUOUS
 10
-0.290913
 20
-1.175476
  0
VERTEX
  8
PLAN_1
 62
     2
  6
CONTINUOUS
 10
-0.289350
 20
-1.172346
  0
VERTEX
  8
PLAN_1
 62
     2
  6
CONTINUOUS
 10
-0.288831
 20
-1.168701
  0
VERTEX
  8
PLAN_1
 62
     2
  6
CONTINUOUS
 10
-0.288307
 20
-1.165575
  0
VERTEX
  8
PLAN_1
 62
     2
  6
CONTINUOUS
 10
-0.287787
 20
-1.162445
  0
VERTEX
  8
PLAN_1
 62
     2
  6
CONTINUOUS
 10
-0.288307
 20
-1.159319
  0
VERTEX
  8
PLAN_1
 62
     2
  6
CONTINUOUS
 10
-0.288831
 20
-1.156193
  0
VERTEX
  8
PLAN_1
 62
     2
  6
CONTINUOUS
 10
-0.289350
 20
-1.152543
  0
VERTEX
  8
PLAN_1
 62
     2
  6
CONTINUOUS
 10
-0.290913
 20
-1.149417
  0
VERTEX
  8
PLAN_1
 62
     2
  6
CONTINUOUS
 10
-0.293000
 20
-1.146291
  0
VERTEX
  8
PLAN_1
 62
     2
  6
CONTINUOUS
 10
-0.295606
 20
-1.144205
  0
VERTEX
  8
PLAN_1
 62
     2
  6
CONTINUOUS
 10
-0.297689
 20
-1.143161
  0
VERTEX
  8
PLAN_1
 62
     2
  6
CONTINUOUS
 10
-0.299252
 20
-1.142122
  0
VERTEX
  8
PLAN_1
 62
     2
  6
CONTINUOUS
 10
-0.301339
 20
-1.142122
  0
VERTEX
  8
PLAN_1
 62
     2
  6
CONTINUOUS
 10
-0.303945
 20
-1.141598
  0
VERTEX
  8
PLAN_1
 62
     2
  6
CONTINUOUS
 10
-0.306028
 20
-1.142122
  0
VERTEX
  8
PLAN_1
 62
     2
  6
CONTINUOUS
 10
-0.308114
 20
-1.142122
  0
VERTEX
  8
PLAN_1
 62
     2
  6
CONTINUOUS
 10
-0.310197
 20
-1.143161
  0
VERTEX
  8
PLAN_1
 62
     2
  6
CONTINUOUS
 10
-0.311760
 20
-1.144205
  0
VERTEX
  8
PLAN_1
 62
     2
  6
CONTINUOUS
 10
-0.314366
 20
-1.146291
  0
VERTEX
  8
PLAN_1
 62
     2
  6
CONTINUOUS
 10
-0.316453
 20
-1.149417
  0
VERTEX
  8
PLAN_1
 62
     2
  6
CONTINUOUS
 10
-0.318016
 20
-1.152543
  0
VERTEX
  8
PLAN_1
 62
     2
  6
CONTINUOUS
 10
-0.319055
 20
-1.156193
  0
VERTEX
  8
PLAN_1
 62
     2
  6
CONTINUOUS
 10
-0.319579
 20
-1.159319
  0
VERTEX
  8
PLAN_1
 62
     2
  6
CONTINUOUS
 10
-0.319579
 20
-1.162445
  0
VERTEX
  8
PLAN_1
 62
     2
  6
CONTINUOUS
 10
-0.319579
 20
-1.165575
  0
VERTEX
  8
PLAN_1
 62
     2
  6
CONTINUOUS
 10
-0.319055
 20
-1.168701
  0
VERTEX
  8
PLAN_1
 62
     2
  6
CONTINUOUS
 10
-0.318016
 20
-1.172346
  0
VERTEX
  8
PLAN_1
 62
     2
  6
CONTINUOUS
 10
-0.316453
 20
-1.175476
  0
VERTEX
  8
PLAN_1
 62
     2
  6
CONTINUOUS
 10
-0.314366
 20
-1.178602
  0
VERTEX
  8
PLAN_1
 62
     2
  6
CONTINUOUS
 10
-0.311760
 20
-1.181209
  0
VERTEX
  8
PLAN_1
 62
     2
  6
CONTINUOUS
 10
-0.310197
 20
-1.182252
  0
VERTEX
  8
PLAN_1
 62
     2
  6
CONTINUOUS
 10
-0.308114
 20
-1.182772
  0
VERTEX
  8
PLAN_1
 62
     2
  6
CONTINUOUS
 10
-0.306028
 20
-1.183291
  0
VERTEX
  8
PLAN_1
 62
     2
  6
CONTINUOUS
 10
-0.303945
 20
-1.183291
  0
SEQEND
  8
0
  0
POLYLINE
  8
PLAN_1
 62
     2
  6
CONTINUOUS
 66
     1
 40
0.003000
 41
0.003000
  0
VERTEX
  8
PLAN_1
 62
     2
  6
CONTINUOUS
 10
-0.232543
 20
-1.189547
  0
VERTEX
  8
PLAN_1
 62
     2
  6
CONTINUOUS
 10
-0.232543
 20
-1.181728
  0
VERTEX
  8
PLAN_1
 62
     2
  6
CONTINUOUS
 10
-0.233067
 20
-1.181728
  0
VERTEX
  8
PLAN_1
 62
     2
  6
CONTINUOUS
 10
-0.234106
 20
-1.183815
  0
VERTEX
  8
PLAN_1
 62
     2
  6
CONTINUOUS
 10
-0.236193
 20
-1.185898
  0
VERTEX
  8
PLAN_1
 62
     2
  6
CONTINUOUS
 10
-0.237756
 20
-1.187461
  0
VERTEX
  8
PLAN_1
 62
     2
  6
CONTINUOUS
 10
-0.239839
 20
-1.189024
  0
VERTEX
  8
PLAN_1
 62
     2
  6
CONTINUOUS
 10
-0.241925
 20
-1.190067
  0
VERTEX
  8
PLAN_1
 62
     2
  6
CONTINUOUS
 10
-0.244531
 20
-1.190591
  0
VERTEX
  8
PLAN_1
 62
     2
  6
CONTINUOUS
 10
-0.247138
 20
-1.191110
  0
VERTEX
  8
PLAN_1
 62
     2
  6
CONTINUOUS
 10
-0.250264
 20
-1.191110
  0
VERTEX
  8
PLAN_1
 62
     2
  6
CONTINUOUS
 10
-0.253390
 20
-1.191110
  0
VERTEX
  8
PLAN_1
 62
     2
  6
CONTINUOUS
 10
-0.256516
 20
-1.190591
  0
VERTEX
  8
PLAN_1
 62
     2
  6
CONTINUOUS
 10
-0.259122
 20
-1.189547
  0
VERTEX
  8
PLAN_1
 62
     2
  6
CONTINUOUS
 10
-0.261728
 20
-1.187984
  0
VERTEX
  8
PLAN_1
 62
     2
  6
CONTINUOUS
 10
-0.264335
 20
-1.185378
  0
VERTEX
  8
PLAN_1
 62
     2
  6
CONTINUOUS
 10
-0.266421
 20
-1.182772
  0
VERTEX
  8
PLAN_1
 62
     2
  6
CONTINUOUS
 10
-0.267461
 20
-1.179122
  0
VERTEX
  8
PLAN_1
 62
     2
  6
CONTINUOUS
 10
-0.267984
 20
-1.174433
  0
VERTEX
  8
PLAN_1
 62
     2
  6
CONTINUOUS
 10
-0.267984
 20
-1.135346
  0
VERTEX
  8
PLAN_1
 62
     2
  6
CONTINUOUS
 10
-0.258602
 20
-1.135346
  0
VERTEX
  8
PLAN_1
 62
     2
  6
CONTINUOUS
 10
-0.258602
 20
-1.171307
  0
VERTEX
  8
PLAN_1
 62
     2
  6
CONTINUOUS
 10
-0.258602
 20
-1.174433
  0
VERTEX
  8
PLAN_1
 62
     2
  6
CONTINUOUS
 10
-0.258083
 20
-1.177039
  0
VERTEX
  8
PLAN_1
 62
     2
  6
CONTINUOUS
 10
-0.257039
 20
-1.179122
  0
VERTEX
  8
PLAN_1
 62
     2
  6
CONTINUOUS
 10
-0.255476
 20
-1.180685
  0
VERTEX
  8
PLAN_1
 62
     2
  6
CONTINUOUS
 10
-0.253913
 20
-1.182252
  0
VERTEX
  8
PLAN_1
 62
     2
  6
CONTINUOUS
 10
-0.252346
 20
-1.182772
  0
VERTEX
  8
PLAN_1
 62
     2
  6
CONTINUOUS
 10
-0.250264
 20
-1.183291
  0
VERTEX
  8
PLAN_1
 62
     2
  6
CONTINUOUS
 10
-0.248177
 20
-1.183291
  0
VERTEX
  8
PLAN_1
 62
     2
  6
CONTINUOUS
 10
-0.244008
 20
-1.182772
  0
VERTEX
  8
PLAN_1
 62
     2
  6
CONTINUOUS
 10
-0.240882
 20
-1.181728
  0
VERTEX
  8
PLAN_1
 62
     2
  6
CONTINUOUS
 10
-0.238276
 20
-1.179646
  0
VERTEX
  8
PLAN_1
 62
     2
  6
CONTINUOUS
 10
-0.236193
 20
-1.177559
  0
VERTEX
  8
PLAN_1
 62
     2
  6
CONTINUOUS
 10
-0.234630
 20
-1.174433
  0
VERTEX
  8
PLAN_1
 62
     2
  6
CONTINUOUS
 10
-0.234106
 20
-1.171307
  0
VERTEX
  8
PLAN_1
 62
     2
  6
CONTINUOUS
 10
-0.233587
 20
-1.168177
  0
VERTEX
  8
PLAN_1
 62
     2
  6
CONTINUOUS
 10
-0.233067
 20
-1.165575
  0
VERTEX
  8
PLAN_1
 62
     2
  6
CONTINUOUS
 10
-0.233067
 20
-1.135346
  0
VERTEX
  8
PLAN_1
 62
     2
  6
CONTINUOUS
 10
-0.224205
 20
-1.135346
  0
VERTEX
  8
PLAN_1
 62
     2
  6
CONTINUOUS
 10
-0.224205
 20
-1.189547
  0
VERTEX
  8
PLAN_1
 62
     2
  6
CONTINUOUS
 10
-0.232543
 20
-1.189547
  0
SEQEND
  8
0
  0
POLYLINE
  8
PLAN_1
 62
     2
  6
CONTINUOUS
 66
     1
 40
0.003000
 41
0.003000
  0
VERTEX
  8
PLAN_1
 62
     2
  6
CONTINUOUS
 10
-0.211177
 20
-1.135346
  0
VERTEX
  8
PLAN_1
 62
     2
  6
CONTINUOUS
 10
-0.202315
 20
-1.135346
  0
VERTEX
  8
PLAN_1
 62
     2
  6
CONTINUOUS
 10
-0.202315
 20
-1.143161
  0
VERTEX
  8
PLAN_1
 62
     2
  6
CONTINUOUS
 10
-0.201276
 20
-1.141598
  0
VERTEX
  8
PLAN_1
 62
     2
  6
CONTINUOUS
 10
-0.200232
 20
-1.140559
  0
VERTEX
  8
PLAN_1
 62
     2
  6
CONTINUOUS
 10
-0.198669
 20
-1.138992
  0
VERTEX
  8
PLAN_1
 62
     2
  6
CONTINUOUS
 10
-0.197106
 20
-1.137429
  0
VERTEX
  8
PLAN_1
 62
     2
  6
CONTINUOUS
 10
-0.195020
 20
-1.135866
  0
VERTEX
  8
PLAN_1
 62
     2
  6
CONTINUOUS
 10
-0.192413
 20
-1.134823
  0
VERTEX
  8
PLAN_1
 62
     2
  6
CONTINUOUS
 10
-0.189287
 20
-1.134303
  0
VERTEX
  8
PLAN_1
 62
     2
  6
CONTINUOUS
 10
-0.185638
 20
-1.133783
  0
VERTEX
  8
PLAN_1
 62
     2
  6
CONTINUOUS
 10
-0.183035
 20
-1.133783
  0
VERTEX
  8
PLAN_1
 62
     2
  6
CONTINUOUS
 10
-0.180949
 20
-1.134303
  0
VERTEX
  8
PLAN_1
 62
     2
  6
CONTINUOUS
 10
-0.178343
 20
-1.134823
  0
VERTEX
  8
PLAN_1
 62
     2
  6
CONTINUOUS
 10
-0.176260
 20
-1.135866
  0
VERTEX
  8
PLAN_1
 62
     2
  6
CONTINUOUS
 10
-0.172610
 20
-1.138472
  0
VERTEX
  8
PLAN_1
 62
     2
  6
CONTINUOUS
 10
-0.168961
 20
-1.141598
  0
VERTEX
  8
PLAN_1
 62
     2
  6
CONTINUOUS
 10
-0.166358
 20
-1.145768
  0
VERTEX
  8
PLAN_1
 62
     2
  6
CONTINUOUS
 10
-0.164791
 20
-1.150461
  0
VERTEX
  8
PLAN_1
 62
     2
  6
CONTINUOUS
 10
-0.163752
 20
-1.155669
  0
VERTEX
  8
PLAN_1
 62
     2
  6
CONTINUOUS
 10
-0.163228
 20
-1.160882
  0
VERTEX
  8
PLAN_1
 62
     2
  6
CONTINUOUS
 10
-0.163228
 20
-1.166094
  0
VERTEX
  8
PLAN_1
 62
     2
  6
CONTINUOUS
 10
-0.164272
 20
-1.171307
  0
VERTEX
  8
PLAN_1
 62
     2
  6
CONTINUOUS
 10
-0.165835
 20
-1.176516
  0
VERTEX
  8
PLAN_1
 62
     2
  6
CONTINUOUS
 10
-0.168441
 20
-1.181209
  0
VERTEX
  8
PLAN_1
 62
     2
  6
CONTINUOUS
 10
-0.169484
 20
-1.183291
  0
VERTEX
  8
PLAN_1
 62
     2
  6
CONTINUOUS
 10
-0.171567
 20
-1.185378
  0
VERTEX
  8
PLAN_1
 62
     2
  6
CONTINUOUS
 10
-0.173130
 20
-1.186941
  0
VERTEX
  8
PLAN_1
 62
     2
  6
CONTINUOUS
 10
-0.175736
 20
-1.188504
  0
VERTEX
  8
PLAN_1
 62
     2
  6
CONTINUOUS
 10
-0.177823
 20
-1.189547
  0
VERTEX
  8
PLAN_1
 62
     2
  6
CONTINUOUS
 10
-0.180949
 20
-1.190591
  0
VERTEX
  8
PLAN_1
 62
     2
  6
CONTINUOUS
 10
-0.183555
 20
-1.191110
  0
VERTEX
  8
PLAN_1
 62
     2
  6
CONTINUOUS
 10
-0.187205
 20
-1.191110
  0
VERTEX
  8
PLAN_1
 62
     2
  6
CONTINUOUS
 10
-0.189807
 20
-1.191110
  0
VERTEX
  8
PLAN_1
 62
     2
  6
CONTINUOUS
 10
-0.191894
 20
-1.190591
  0
VERTEX
  8
PLAN_1
 62
     2
  6
CONTINUOUS
 10
-0.194500
 20
-1.190067
  0
VERTEX
  8
PLAN_1
 62
     2
  6
CONTINUOUS
 10
-0.196063
 20
-1.189024
  0
VERTEX
  8
PLAN_1
 62
     2
  6
CONTINUOUS
 10
-0.198146
 20
-1.187984
  0
VERTEX
  8
PLAN_1
 62
     2
  6
CONTINUOUS
 10
-0.199189
 20
-1.186941
  0
VERTEX
  8
PLAN_1
 62
     2
  6
CONTINUOUS
 10
-0.200752
 20
-1.185378
  0
VERTEX
  8
PLAN_1
 62
     2
  6
CONTINUOUS
 10
-0.201795
 20
-1.183815
  0
VERTEX
  8
PLAN_1
 62
     2
  6
CONTINUOUS
 10
-0.201795
 20
-1.211437
  0
VERTEX
  8
PLAN_1
 62
     2
  6
CONTINUOUS
 10
-0.211177
 20
-1.211437
  0
VERTEX
  8
PLAN_1
 62
     2
  6
CONTINUOUS
 10
-0.211177
 20
-1.135346
  0
SEQEND
  8
0
  0
POLYLINE
  8
PLAN_1
 62
     2
  6
CONTINUOUS
 66
     1
 40
0.003000
 41
0.003000
  0
VERTEX
  8
PLAN_1
 62
     2
  6
CONTINUOUS
 10
-0.187205
 20
-1.183291
  0
VERTEX
  8
PLAN_1
 62
     2
  6
CONTINUOUS
 10
-0.184075
 20
-1.182772
  0
VERTEX
  8
PLAN_1
 62
     2
  6
CONTINUOUS
 10
-0.180949
 20
-1.181728
  0
VERTEX
  8
PLAN_1
 62
     2
  6
CONTINUOUS
 10
-0.178343
 20
-1.180165
  0
VERTEX
  8
PLAN_1
 62
     2
  6
CONTINUOUS
 10
-0.176260
 20
-1.177559
  0
VERTEX
  8
PLAN_1
 62
     2
  6
CONTINUOUS
 10
-0.174697
 20
-1.174433
  0
VERTEX
  8
PLAN_1
 62
     2
  6
CONTINUOUS
 10
-0.173654
 20
-1.170783
  0
VERTEX
  8
PLAN_1
 62
     2
  6
CONTINUOUS
 10
-0.173130
 20
-1.166614
  0
VERTEX
  8
PLAN_1
 62
     2
  6
CONTINUOUS
 10
-0.172610
 20
-1.162445
  0
VERTEX
  8
PLAN_1
 62
     2
  6
CONTINUOUS
 10
-0.172610
 20
-1.159319
  0
VERTEX
  8
PLAN_1
 62
     2
  6
CONTINUOUS
 10
-0.173130
 20
-1.156193
  0
VERTEX
  8
PLAN_1
 62
     2
  6
CONTINUOUS
 10
-0.173654
 20
-1.153067
  0
VERTEX
  8
PLAN_1
 62
     2
  6
CONTINUOUS
 10
-0.174697
 20
-1.149417
  0
VERTEX
  8
PLAN_1
 62
     2
  6
CONTINUOUS
 10
-0.176780
 20
-1.146811
  0
VERTEX
  8
PLAN_1
 62
     2
  6
CONTINUOUS
 10
-0.179386
 20
-1.144205
  0
VERTEX
  8
PLAN_1
 62
     2
  6
CONTINUOUS
 10
-0.180949
 20
-1.143161
  0
VERTEX
  8
PLAN_1
 62
     2
  6
CONTINUOUS
 10
-0.183035
 20
-1.142642
  0
VERTEX
  8
PLAN_1
 62
     2
  6
CONTINUOUS
 10
-0.185118
 20
-1.142122
  0
VERTEX
  8
PLAN_1
 62
     2
  6
CONTINUOUS
 10
-0.187724
 20
-1.142122
  0
VERTEX
  8
PLAN_1
 62
     2
  6
CONTINUOUS
 10
-0.189807
 20
-1.142122
  0
VERTEX
  8
PLAN_1
 62
     2
  6
CONTINUOUS
 10
-0.191894
 20
-1.142642
  0
VERTEX
  8
PLAN_1
 62
     2
  6
CONTINUOUS
 10
-0.193976
 20
-1.143161
  0
VERTEX
  8
PLAN_1
 62
     2
  6
CONTINUOUS
 10
-0.195543
 20
-1.144205
  0
VERTEX
  8
PLAN_1
 62
     2
  6
CONTINUOUS
 10
-0.198146
 20
-1.146811
  0
VERTEX
  8
PLAN_1
 62
     2
  6
CONTINUOUS
 10
-0.199713
 20
-1.150461
  0
VERTEX
  8
PLAN_1
 62
     2
  6
CONTINUOUS
 10
-0.201276
 20
-1.154106
  0
VERTEX
  8
PLAN_1
 62
     2
  6
CONTINUOUS
 10
-0.201795
 20
-1.157756
  0
VERTEX
  8
PLAN_1
 62
     2
  6
CONTINUOUS
 10
-0.202315
 20
-1.161406
  0
VERTEX
  8
PLAN_1
 62
     2
  6
CONTINUOUS
 10
-0.202315
 20
-1.165051
  0
VERTEX
  8
PLAN_1
 62
     2
  6
CONTINUOUS
 10
-0.201795
 20
-1.170264
  0
VERTEX
  8
PLAN_1
 62
     2
  6
CONTINUOUS
 10
-0.200752
 20
-1.173913
  0
VERTEX
  8
PLAN_1
 62
     2
  6
CONTINUOUS
 10
-0.199189
 20
-1.177039
  0
VERTEX
  8
PLAN_1
 62
     2
  6
CONTINUOUS
 10
-0.197106
 20
-1.179646
  0
VERTEX
  8
PLAN_1
 62
     2
  6
CONTINUOUS
 10
-0.194500
 20
-1.181209
  0
VERTEX
  8
PLAN_1
 62
     2
  6
CONTINUOUS
 10
-0.191894
 20
-1.182772
  0
VERTEX
  8
PLAN_1
 62
     2
  6
CONTINUOUS
 10
-0.189807
 20
-1.183291
  0
VERTEX
  8
PLAN_1
 62
     2
  6
CONTINUOUS
 10
-0.187205
 20
-1.183291
  0
SEQEND
  8
0
  0
POLYLINE
  8
PLAN_1
 62
     2
  6
CONTINUOUS
 66
     1
 40
0.003000
 41
0.003000
  0
VERTEX
  8
PLAN_1
 62
     2
  6
CONTINUOUS
 10
-0.105902
 20
-1.172870
  0
VERTEX
  8
PLAN_1
 62
     2
  6
CONTINUOUS
 10
-0.106421
 20
-1.173913
  0
VERTEX
  8
PLAN_1
 62
     2
  6
CONTINUOUS
 10
-0.106945
 20
-1.175476
  0
VERTEX
  8
PLAN_1
 62
     2
  6
CONTINUOUS
 10
-0.107465
 20
-1.177559
  0
VERTEX
  8
PLAN_1
 62
     2
  6
CONTINUOUS
 10
-0.108508
 20
-1.179646
  0
VERTEX
  8
PLAN_1
 62
     2
  6
CONTINUOUS
 10
-0.110071
 20
-1.181728
  0
VERTEX
  8
PLAN_1
 62
     2
  6
CONTINUOUS
 10
-0.111634
 20
-1.183815
  0
VERTEX
  8
PLAN_1
 62
     2
  6
CONTINUOUS
 10
-0.113197
 20
-1.185898
  0
VERTEX
  8
PLAN_1
 62
     2
  6
CONTINUOUS
 10
-0.115803
 20
-1.187461
  0
VERTEX
  8
PLAN_1
 62
     2
  6
CONTINUOUS
 10
-0.116846
 20
-1.187984
  0
VERTEX
  8
PLAN_1
 62
     2
  6
CONTINUOUS
 10
-0.117890
 20
-1.189024
  0
VERTEX
  8
PLAN_1
 62
     2
  6
CONTINUOUS
 10
-0.119453
 20
-1.189547
  0
VERTEX
  8
PLAN_1
 62
     2
  6
CONTINUOUS
 10
-0.121016
 20
-1.190067
  0
VERTEX
  8
PLAN_1
 62
     2
  6
CONTINUOUS
 10
-0.122579
 20
-1.190591
  0
VERTEX
  8
PLAN_1
 62
     2
  6
CONTINUOUS
 10
-0.125185
 20
-1.191110
  0
VERTEX
  8
PLAN_1
 62
     2
  6
CONTINUOUS
 10
-0.127791
 20
-1.191110
  0
VERTEX
  8
PLAN_1
 62
     2
  6
CONTINUOUS
 10
-0.130398
 20
-1.191110
  0
VERTEX
  8
PLAN_1
 62
     2
  6
CONTINUOUS
 10
-0.133524
 20
-1.191110
  0
VERTEX
  8
PLAN_1
 62
     2
  6
CONTINUOUS
 10
-0.136130
 20
-1.190591
  0
VERTEX
  8
PLAN_1
 62
     2
  6
CONTINUOUS
 10
-0.138736
 20
-1.190067
  0
VERTEX
  8
PLAN_1
 62
     2
  6
CONTINUOUS
 10
-0.140819
 20
-1.189547
  0
VERTEX
  8
PLAN_1
 62
     2
  6
CONTINUOUS
 10
-0.142906
 20
-1.187984
  0
VERTEX
  8
PLAN_1
 62
     2
  6
CONTINUOUS
 10
-0.144988
 20
-1.186941
  0
VERTEX
  8
PLAN_1
 62
     2
  6
CONTINUOUS
 10
-0.147075
 20
-1.185378
  0
VERTEX
  8
PLAN_1
 62
     2
  6
CONTINUOUS
 10
-0.148638
 20
-1.183815
  0
VERTEX
  8
PLAN_1
 62
     2
  6
CONTINUOUS
 10
-0.151244
 20
-1.179646
  0
VERTEX
  8
PLAN_1
 62
     2
  6
CONTINUOUS
 10
-0.153327
 20
-1.174953
  0
VERTEX
  8
PLAN_1
 62
     2
  6
CONTINUOUS
 10
-0.154370
 20
-1.169744
  0
VERTEX
  8
PLAN_1
 62
     2
  6
CONTINUOUS
 10
-0.154890
 20
-1.164008
  0
VERTEX
  8
PLAN_1
 62
     2
  6
CONTINUOUS
 10
-0.154370
 20
-1.157756
  0
VERTEX
  8
PLAN_1
 62
     2
  6
CONTINUOUS
 10
-0.153327
 20
-1.152024
  0
VERTEX
  8
PLAN_1
 62
     2
  6
CONTINUOUS
 10
-0.152283
 20
-1.149417
  0
VERTEX
  8
PLAN_1
 62
     2
  6
CONTINUOUS
 10
-0.151244
 20
-1.147331
  0
VERTEX
  8
PLAN_1
 62
     2
  6
CONTINUOUS
 10
-0.150201
 20
-1.144728
  0
VERTEX
  8
PLAN_1
 62
     2
  6
CONTINUOUS
 10
-0.148638
 20
-1.142642
  0
VERTEX
  8
PLAN_1
 62
     2
  6
CONTINUOUS
 10
-0.147075
 20
-1.140559
  0
VERTEX
  8
PLAN_1
 62
     2
  6
CONTINUOUS
 10
-0.144988
 20
-1.138992
  0
VERTEX
  8
PLAN_1
 62
     2
  6
CONTINUOUS
 10
-0.142906
 20
-1.137429
  0
VERTEX
  8
PLAN_1
 62
     2
  6
CONTINUOUS
 10
-0.140299
 20
-1.136390
  0
VERTEX
  8
PLAN_1
 62
     2
  6
CONTINUOUS
 10
-0.137693
 20
-1.135346
  0
VERTEX
  8
PLAN_1
 62
     2
  6
CONTINUOUS
 10
-0.135087
 20
-1.134303
  0
VERTEX
  8
PLAN_1
 62
     2
  6
CONTINUOUS
 10
-0.131961
 20
-1.133783
  0
VERTEX
  8
PLAN_1
 62
     2
  6
CONTINUOUS
 10
-0.128835
 20
-1.133783
  0
VERTEX
  8
PLAN_1
 62
     2
  6
CONTINUOUS
 10
-0.126228
 20
-1.133783
  0
VERTEX
  8
PLAN_1
 62
     2
  6
CONTINUOUS
 10
-0.123098
 20
-1.134303
  0
VERTEX
  8
PLAN_1
 62
     2
  6
CONTINUOUS
 10
-0.121016
 20
-1.135346
  0
VERTEX
  8
PLAN_1
 62
     2
  6
CONTINUOUS
 10
-0.118409
 20
-1.135866
  0
VERTEX
  8
PLAN_1
 62
     2
  6
CONTINUOUS
 10
-0.116327
 20
-1.137429
  0
VERTEX
  8
PLAN_1
 62
     2
  6
CONTINUOUS
 10
-0.114760
 20
-1.138992
  0
VERTEX
  8
PLAN_1
 62
     2
  6
CONTINUOUS
 10
-0.112677
 20
-1.140559
  0
VERTEX
  8
PLAN_1
 62
     2
  6
CONTINUOUS
 10
-0.111114
 20
-1.142642
  0
VERTEX
  8
PLAN_1
 62
     2
  6
CONTINUOUS
 10
-0.108508
 20
-1.146811
  0
VERTEX
  8
PLAN_1
 62
     2
  6
CONTINUOUS
 10
-0.106945
 20
-1.152543
  0
VERTEX
  8
PLAN_1
 62
     2
  6
CONTINUOUS
 10
-0.105902
 20
-1.158799
  0
VERTEX
  8
PLAN_1
 62
     2
  6
CONTINUOUS
 10
-0.105382
 20
-1.165575
  0
VERTEX
  8
PLAN_1
 62
     2
  6
CONTINUOUS
 10
-0.144988
 20
-1.165575
  0
VERTEX
  8
PLAN_1
 62
     2
  6
CONTINUOUS
 10
-0.144988
 20
-1.169744
  0
VERTEX
  8
PLAN_1
 62
     2
  6
CONTINUOUS
 10
-0.143945
 20
-1.172870
  0
VERTEX
  8
PLAN_1
 62
     2
  6
CONTINUOUS
 10
-0.142906
 20
-1.175996
  0
VERTEX
  8
PLAN_1
 62
     2
  6
CONTINUOUS
 10
-0.141343
 20
-1.178602
  0
VERTEX
  8
PLAN_1
 62
     2
  6
CONTINUOUS
 10
-0.138736
 20
-1.180685
  0
VERTEX
  8
PLAN_1
 62
     2
  6
CONTINUOUS
 10
-0.136130
 20
-1.182252
  0
VERTEX
  8
PLAN_1
 62
     2
  6
CONTINUOUS
 10
-0.133004
 20
-1.183291
  0
VERTEX
  8
PLAN_1
 62
     2
  6
CONTINUOUS
 10
-0.129354
 20
-1.183291
  0
VERTEX
  8
PLAN_1
 62
     2
  6
CONTINUOUS
 10
-0.126228
 20
-1.183291
  0
VERTEX
  8
PLAN_1
 62
     2
  6
CONTINUOUS
 10
-0.123622
 20
-1.182252
  0
VERTEX
  8
PLAN_1
 62
     2
  6
CONTINUOUS
 10
-0.121016
 20
-1.181209
  0
VERTEX
  8
PLAN_1
 62
     2
  6
CONTINUOUS
 10
-0.119453
 20
-1.179646
  0
VERTEX
  8
PLAN_1
 62
     2
  6
CONTINUOUS
 10
-0.117366
 20
-1.178083
  0
VERTEX
  8
PLAN_1
 62
     2
  6
CONTINUOUS
 10
-0.116327
 20
-1.175996
  0
VERTEX
  8
PLAN_1
 62
     2
  6
CONTINUOUS
 10
-0.115803
 20
-1.174433
  0
VERTEX
  8
PLAN_1
 62
     2
  6
CONTINUOUS
 10
-0.115283
 20
-1.172870
  0
VERTEX
  8
PLAN_1
 62
     2
  6
CONTINUOUS
 10
-0.105902
 20
-1.172870
  0
SEQEND
  8
0
  0
POLYLINE
  8
PLAN_1
 62
     2
  6
CONTINUOUS
 66
     1
 40
0.003000
 41
0.003000
  0
VERTEX
  8
PLAN_1
 62
     2
  6
CONTINUOUS
 10
-0.114760
 20
-1.158276
  0
VERTEX
  8
PLAN_1
 62
     2
  6
CONTINUOUS
 10
-0.115283
 20
-1.155150
  0
VERTEX
  8
PLAN_1
 62
     2
  6
CONTINUOUS
 10
-0.115803
 20
-1.152024
  0
VERTEX
  8
PLAN_1
 62
     2
  6
CONTINUOUS
 10
-0.116846
 20
-1.149417
  0
VERTEX
  8
PLAN_1
 62
     2
  6
CONTINUOUS
 10
-0.118409
 20
-1.146811
  0
VERTEX
  8
PLAN_1
 62
     2
  6
CONTINUOUS
 10
-0.120496
 20
-1.144728
  0
VERTEX
  8
PLAN_1
 62
     2
  6
CONTINUOUS
 10
-0.123098
 20
-1.143161
  0
VERTEX
  8
PLAN_1
 62
     2
  6
CONTINUOUS
 10
-0.126228
 20
-1.142642
  0
VERTEX
  8
PLAN_1
 62
     2
  6
CONTINUOUS
 10
-0.129874
 20
-1.142122
  0
VERTEX
  8
PLAN_1
 62
     2
  6
CONTINUOUS
 10
-0.133004
 20
-1.142642
  0
VERTEX
  8
PLAN_1
 62
     2
  6
CONTINUOUS
 10
-0.136130
 20
-1.143161
  0
VERTEX
  8
PLAN_1
 62
     2
  6
CONTINUOUS
 10
-0.138736
 20
-1.144728
  0
VERTEX
  8
PLAN_1
 62
     2
  6
CONTINUOUS
 10
-0.140819
 20
-1.146811
  0
VERTEX
  8
PLAN_1
 62
     2
  6
CONTINUOUS
 10
-0.142382
 20
-1.149417
  0
VERTEX
  8
PLAN_1
 62
     2
  6
CONTINUOUS
 10
-0.143945
 20
-1.152024
  0
VERTEX
  8
PLAN_1
 62
     2
  6
CONTINUOUS
 10
-0.144988
 20
-1.155150
  0
VERTEX
  8
PLAN_1
 62
     2
  6
CONTINUOUS
 10
-0.144988
 20
-1.158276
  0
VERTEX
  8
PLAN_1
 62
     2
  6
CONTINUOUS
 10
-0.114760
 20
-1.158276
  0
SEQEND
  8
0
  0
SOLID
  8
PLAN_1
 62
     2
 10
-0.762043
 20
-1.314626
 11
-0.771425
 21
-1.314626
 12
-0.762043
 22
-1.260425
 13
-0.771425
 23
-1.260425
  0
POLYLINE
  8
PLAN_1
 62
     2
  6
CONTINUOUS
 66
     1
 40
0.003000
 41
0.003000
  0
VERTEX
  8
PLAN_1
 62
     2
  6
CONTINUOUS
 10
-0.762043
 20
-1.314626
  0
VERTEX
  8
PLAN_1
 62
     2
  6
CONTINUOUS
 10
-0.771425
 20
-1.314626
  0
VERTEX
  8
PLAN_1
 62
     2
  6
CONTINUOUS
 10
-0.771425
 20
-1.260425
  0
VERTEX
  8
PLAN_1
 62
     2
  6
CONTINUOUS
 10
-0.762043
 20
-1.260425
  0
VERTEX
  8
PLAN_1
 62
     2
  6
CONTINUOUS
 10
-0.762043
 20
-1.314626
  0
SEQEND
  8
0
  0
SOLID
  8
PLAN_1
 62
     2
 10
-0.771425
 20
-1.250524
 11
-0.771425
 21
-1.240098
 12
-0.762043
 22
-1.250524
 13
-0.762043
 23
-1.240098
  0
POLYLINE
  8
PLAN_1
 62
     2
  6
CONTINUOUS
 66
     1
 40
0.003000
 41
0.003000
  0
VERTEX
  8
PLAN_1
 62
     2
  6
CONTINUOUS
 10
-0.771425
 20
-1.250524
  0
VERTEX
  8
PLAN_1
 62
     2
  6
CONTINUOUS
 10
-0.771425
 20
-1.240098
  0
VERTEX
  8
PLAN_1
 62
     2
  6
CONTINUOUS
 10
-0.762043
 20
-1.240098
  0
VERTEX
  8
PLAN_1
 62
     2
  6
CONTINUOUS
 10
-0.762043
 20
-1.250524
  0
VERTEX
  8
PLAN_1
 62
     2
  6
CONTINUOUS
 10
-0.771425
 20
-1.250524
  0
SEQEND
  8
0
  0
POLYLINE
  8
PLAN_1
 62
     2
  6
CONTINUOUS
 66
     1
 40
0.003000
 41
0.003000
  0
VERTEX
  8
PLAN_1
 62
     2
  6
CONTINUOUS
 10
-0.704197
 20
-1.314626
  0
VERTEX
  8
PLAN_1
 62
     2
  6
CONTINUOUS
 10
-0.713055
 20
-1.314626
  0
VERTEX
  8
PLAN_1
 62
     2
  6
CONTINUOUS
 10
-0.713055
 20
-1.281272
  0
VERTEX
  8
PLAN_1
 62
     2
  6
CONTINUOUS
 10
-0.713575
 20
-1.278146
  0
VERTEX
  8
PLAN_1
 62
     2
  6
CONTINUOUS
 10
-0.713575
 20
-1.275016
  0
VERTEX
  8
PLAN_1
 62
     2
  6
CONTINUOUS
 10
-0.714618
 20
-1.272409
  0
VERTEX
  8
PLAN_1
 62
     2
  6
CONTINUOUS
 10
-0.715661
 20
-1.270327
  0
VERTEX
  8
PLAN_1
 62
     2
  6
CONTINUOUS
 10
-0.717224
 20
-1.268764
  0
VERTEX
  8
PLAN_1
 62
     2
  6
CONTINUOUS
 10
-0.719311
 20
-1.267720
  0
VERTEX
  8
PLAN_1
 62
     2
  6
CONTINUOUS
 10
-0.721913
 20
-1.267201
  0
VERTEX
  8
PLAN_1
 62
     2
  6
CONTINUOUS
 10
-0.725043
 20
-1.267201
  0
VERTEX
  8
PLAN_1
 62
     2
  6
CONTINUOUS
 10
-0.727126
 20
-1.267201
  0
VERTEX
  8
PLAN_1
 62
     2
  6
CONTINUOUS
 10
-0.729213
 20
-1.267720
  0
VERTEX
  8
PLAN_1
 62
     2
  6
CONTINUOUS
 10
-0.731819
 20
-1.268764
  0
VERTEX
  8
PLAN_1
 62
     2
  6
CONTINUOUS
 10
-0.733902
 20
-1.270327
  0
VERTEX
  8
PLAN_1
 62
     2
  6
CONTINUOUS
 10
-0.735988
 20
-1.272933
  0
VERTEX
  8
PLAN_1
 62
     2
  6
CONTINUOUS
 10
-0.737551
 20
-1.276059
  0
VERTEX
  8
PLAN_1
 62
     2
  6
CONTINUOUS
 10
-0.739114
 20
-1.280228
  0
VERTEX
  8
PLAN_1
 62
     2
  6
CONTINUOUS
 10
-0.739114
 20
-1.284921
  0
VERTEX
  8
PLAN_1
 62
     2
  6
CONTINUOUS
 10
-0.739114
 20
-1.314626
  0
VERTEX
  8
PLAN_1
 62
     2
  6
CONTINUOUS
 10
-0.748496
 20
-1.314626
  0
VERTEX
  8
PLAN_1
 62
     2
  6
CONTINUOUS
 10
-0.748496
 20
-1.260425
  0
VERTEX
  8
PLAN_1
 62
     2
  6
CONTINUOUS
 10
-0.739634
 20
-1.260425
  0
VERTEX
  8
PLAN_1
 62
     2
  6
CONTINUOUS
 10
-0.739634
 20
-1.268240
  0
VERTEX
  8
PLAN_1
 62
     2
  6
CONTINUOUS
 10
-0.738594
 20
-1.266677
  0
VERTEX
  8
PLAN_1
 62
     2
  6
CONTINUOUS
 10
-0.737551
 20
-1.265114
  0
VERTEX
  8
PLAN_1
 62
     2
  6
CONTINUOUS
 10
-0.735988
 20
-1.264071
  0
VERTEX
  8
PLAN_1
 62
     2
  6
CONTINUOUS
 10
-0.733902
 20
-1.262508
  0
VERTEX
  8
PLAN_1
 62
     2
  6
CONTINUOUS
 10
-0.731819
 20
-1.260945
  0
VERTEX
  8
PLAN_1
 62
     2
  6
CONTINUOUS
 10
-0.729213
 20
-1.259902
  0
VERTEX
  8
PLAN_1
 62
     2
  6
CONTINUOUS
 10
-0.726606
 20
-1.258862
  0
VERTEX
  8
PLAN_1
 62
     2
  6
CONTINUOUS
 10
-0.722957
 20
-1.258862
  0
VERTEX
  8
PLAN_1
 62
     2
  6
CONTINUOUS
 10
-0.719831
 20
-1.258862
  0
VERTEX
  8
PLAN_1
 62
     2
  6
CONTINUOUS
 10
-0.716705
 20
-1.259382
  0
VERTEX
  8
PLAN_1
 62
     2
  6
CONTINUOUS
 10
-0.713575
 20
-1.260945
  0
VERTEX
  8
PLAN_1
 62
     2
  6
CONTINUOUS
 10
-0.710449
 20
-1.262508
  0
VERTEX
  8
PLAN_1
 62
     2
  6
CONTINUOUS
 10
-0.707843
 20
-1.265114
  0
VERTEX
  8
PLAN_1
 62
     2
  6
CONTINUOUS
 10
-0.705760
 20
-1.268240
  0
VERTEX
  8
PLAN_1
 62
     2
  6
CONTINUOUS
 10
-0.704717
 20
-1.272409
  0
VERTEX
  8
PLAN_1
 62
     2
  6
CONTINUOUS
 10
-0.704197
 20
-1.277622
  0
VERTEX
  8
PLAN_1
 62
     2
  6
CONTINUOUS
 10
-0.704197
 20
-1.314626
  0
SEQEND
  8
0
  0
POLYLINE
  8
PLAN_1
 62
     2
  6
CONTINUOUS
 66
     1
 40
0.003000
 41
0.003000
  0
VERTEX
  8
PLAN_1
 62
     2
  6
CONTINUOUS
 10
-0.656772
 20
-1.278665
  0
VERTEX
  8
PLAN_1
 62
     2
  6
CONTINUOUS
 10
-0.657291
 20
-1.276059
  0
VERTEX
  8
PLAN_1
 62
     2
  6
CONTINUOUS
 10
-0.657811
 20
-1.273976
  0
VERTEX
  8
PLAN_1
 62
     2
  6
CONTINUOUS
 10
-0.658854
 20
-1.271890
  0
VERTEX
  8
PLAN_1
 62
     2
  6
CONTINUOUS
 10
-0.660417
 20
-1.270327
  0
VERTEX
  8
PLAN_1
 62
     2
  6
CONTINUOUS
 10
-0.662504
 20
-1.268764
  0
VERTEX
  8
PLAN_1
 62
     2
  6
CONTINUOUS
 10
-0.664067
 20
-1.267720
  0
VERTEX
  8
PLAN_1
 62
     2
  6
CONTINUOUS
 10
-0.666673
 20
-1.267201
  0
VERTEX
  8
PLAN_1
 62
     2
  6
CONTINUOUS
 10
-0.669280
 20
-1.267201
  0
VERTEX
  8
PLAN_1
 62
     2
  6
CONTINUOUS
 10
-0.673449
 20
-1.267720
  0
VERTEX
  8
PLAN_1
 62
     2
  6
CONTINUOUS
 10
-0.676575
 20
-1.268764
  0
VERTEX
  8
PLAN_1
 62
     2
  6
CONTINUOUS
 10
-0.679181
 20
-1.270846
  0
VERTEX
  8
PLAN_1
 62
     2
  6
CONTINUOUS
 10
-0.681264
 20
-1.273453
  0
VERTEX
  8
PLAN_1
 62
     2
  6
CONTINUOUS
 10
-0.682827
 20
-1.276579
  0
VERTEX
  8
PLAN_1
 62
     2
  6
CONTINUOUS
 10
-0.683870
 20
-1.280228
  0
VERTEX
  8
PLAN_1
 62
     2
  6
CONTINUOUS
 10
-0.684390
 20
-1.283878
  0
VERTEX
  8
PLAN_1
 62
     2
  6
CONTINUOUS
 10
-0.684390
 20
-1.287524
  0
VERTEX
  8
PLAN_1
 62
     2
  6
CONTINUOUS
 10
-0.684390
 20
-1.291173
  0
VERTEX
  8
PLAN_1
 62
     2
  6
CONTINUOUS
 10
-0.683870
 20
-1.294823
  0
VERTEX
  8
PLAN_1
 62
     2
  6
CONTINUOUS
 10
-0.682827
 20
-1.298469
  0
VERTEX
  8
PLAN_1
 62
     2
  6
CONTINUOUS
 10
-0.681787
 20
-1.301598
  0
VERTEX
  8
PLAN_1
 62
     2
  6
CONTINUOUS
 10
-0.679701
 20
-1.304201
  0
VERTEX
  8
PLAN_1
 62
     2
  6
CONTINUOUS
 10
-0.677094
 20
-1.306287
  0
VERTEX
  8
PLAN_1
 62
     2
  6
CONTINUOUS
 10
-0.675531
 20
-1.307331
  0
VERTEX
  8
PLAN_1
 62
     2
  6
CONTINUOUS
 10
-0.673969
 20
-1.307850
  0
VERTEX
  8
PLAN_1
 62
     2
  6
CONTINUOUS
 10
-0.671882
 20
-1.308370
  0
VERTEX
  8
PLAN_1
 62
     2
  6
CONTINUOUS
 10
-0.669280
 20
-1.308370
  0
VERTEX
  8
PLAN_1
 62
     2
  6
CONTINUOUS
 10
-0.667193
 20
-1.308370
  0
VERTEX
  8
PLAN_1
 62
     2
  6
CONTINUOUS
 10
-0.665110
 20
-1.307331
  0
VERTEX
  8
PLAN_1
 62
     2
  6
CONTINUOUS
 10
-0.663024
 20
-1.306287
  0
VERTEX
  8
PLAN_1
 62
     2
  6
CONTINUOUS
 10
-0.661461
 20
-1.305244
  0
VERTEX
  8
PLAN_1
 62
     2
  6
CONTINUOUS
 10
-0.659898
 20
-1.303161
  0
VERTEX
  8
PLAN_1
 62
     2
  6
CONTINUOUS
 10
-0.658335
 20
-1.301075
  0
VERTEX
  8
PLAN_1
 62
     2
  6
CONTINUOUS
 10
-0.657291
 20
-1.298469
  0
VERTEX
  8
PLAN_1
 62
     2
  6
CONTINUOUS
 10
-0.656772
 20
-1.295343
  0
VERTEX
  8
PLAN_1
 62
     2
  6
CONTINUOUS
 10
-0.647909
 20
-1.295343
  0
VERTEX
  8
PLAN_1
 62
     2
  6
CONTINUOUS
 10
-0.648433
 20
-1.298992
  0
VERTEX
  8
PLAN_1
 62
     2
  6
CONTINUOUS
 10
-0.649472
 20
-1.302638
  0
VERTEX
  8
PLAN_1
 62
     2
  6
CONTINUOUS
 10
-0.651035
 20
-1.305768
  0
VERTEX
  8
PLAN_1
 62
     2
  6
CONTINUOUS
 10
-0.653122
 20
-1.308894
  0
VERTEX
  8
PLAN_1
 62
     2
  6
CONTINUOUS
 10
-0.656248
 20
-1.312020
  0
VERTEX
  8
PLAN_1
 62
     2
  6
CONTINUOUS
 10
-0.659898
 20
-1.314106
  0
VERTEX
  8
PLAN_1
 62
     2
  6
CONTINUOUS
 10
-0.661980
 20
-1.315146
  0
VERTEX
  8
PLAN_1
 62
     2
  6
CONTINUOUS
 10
-0.664587
 20
-1.315669
  0
VERTEX
  8
PLAN_1
 62
     2
  6
CONTINUOUS
 10
-0.667193
 20
-1.316189
  0
VERTEX
  8
PLAN_1
 62
     2
  6
CONTINUOUS
 10
-0.669799
 20
-1.316189
  0
VERTEX
  8
PLAN_1
 62
     2
  6
CONTINUOUS
 10
-0.672406
 20
-1.316189
  0
VERTEX
  8
PLAN_1
 62
     2
  6
CONTINUOUS
 10
-0.675531
 20
-1.315669
  0
VERTEX
  8
PLAN_1
 62
     2
  6
CONTINUOUS
 10
-0.677618
 20
-1.315146
  0
VERTEX
  8
PLAN_1
 62
     2
  6
CONTINUOUS
 10
-0.680220
 20
-1.314106
  0
VERTEX
  8
PLAN_1
 62
     2
  6
CONTINUOUS
 10
-0.682307
 20
-1.313063
  0
VERTEX
  8
PLAN_1
 62
     2
  6
CONTINUOUS
 10
-0.684390
 20
-1.312020
  0
VERTEX
  8
PLAN_1
 62
     2
  6
CONTINUOUS
 10
-0.685957
 20
-1.310457
  0
VERTEX
  8
PLAN_1
 62
     2
  6
CONTINUOUS
 10
-0.687520
 20
-1.308370
  0
VERTEX
  8
PLAN_1
 62
     2
  6
CONTINUOUS
 10
-0.690646
 20
-1.304724
  0
VERTEX
  8
PLAN_1
 62
     2
  6
CONTINUOUS
 10
-0.692728
 20
-1.300031
  0
VERTEX
  8
PLAN_1
 62
     2
  6
CONTINUOUS
 10
-0.693772
 20
-1.294823
  0
VERTEX
  8
PLAN_1
 62
     2
  6
CONTINUOUS
 10
-0.694295
 20
-1.289091
  0
VERTEX
  8
PLAN_1
 62
     2
  6
CONTINUOUS
 10
-0.693772
 20
-1.282835
  0
VERTEX
  8
PLAN_1
 62
     2
  6
CONTINUOUS
 10
-0.692728
 20
-1.277102
  0
VERTEX
  8
PLAN_1
 62
     2
  6
CONTINUOUS
 10
-0.691689
 20
-1.274496
  0
VERTEX
  8
PLAN_1
 62
     2
  6
CONTINUOUS
 10
-0.690646
 20
-1.271890
  0
VERTEX
  8
PLAN_1
 62
     2
  6
CONTINUOUS
 10
-0.689602
 20
-1.269807
  0
VERTEX
  8
PLAN_1
 62
     2
  6
CONTINUOUS
 10
-0.688039
 20
-1.267720
  0
VERTEX
  8
PLAN_1
 62
     2
  6
CONTINUOUS
 10
-0.685957
 20
-1.265638
  0
VERTEX
  8
PLAN_1
 62
     2
  6
CONTINUOUS
 10
-0.684390
 20
-1.264071
  0
VERTEX
  8
PLAN_1
 62
     2
  6
CONTINUOUS
 10
-0.682307
 20
-1.262508
  0
VERTEX
  8
PLAN_1
 62
     2
  6
CONTINUOUS
 10
-0.679701
 20
-1.260945
  0
VERTEX
  8
PLAN_1
 62
     2
  6
CONTINUOUS
 10
-0.677094
 20
-1.259902
  0
VERTEX
  8
PLAN_1
 62
     2
  6
CONTINUOUS
 10
-0.674488
 20
-1.259382
  0
VERTEX
  8
PLAN_1
 62
     2
  6
CONTINUOUS
 10
-0.671362
 20
-1.258862
  0
VERTEX
  8
PLAN_1
 62
     2
  6
CONTINUOUS
 10
-0.668236
 20
-1.258862
  0
VERTEX
  8
PLAN_1
 62
     2
  6
CONTINUOUS
 10
-0.663024
 20
-1.259382
  0
VERTEX
  8
PLAN_1
 62
     2
  6
CONTINUOUS
 10
-0.658854
 20
-1.260425
  0
VERTEX
  8
PLAN_1
 62
     2
  6
CONTINUOUS
 10
-0.655728
 20
-1.262508
  0
VERTEX
  8
PLAN_1
 62
     2
  6
CONTINUOUS
 10
-0.652602
 20
-1.265114
  0
VERTEX
  8
PLAN_1
 62
     2
  6
CONTINUOUS
 10
-0.650516
 20
-1.268240
  0
VERTEX
  8
PLAN_1
 62
     2
  6
CONTINUOUS
 10
-0.648953
 20
-1.271370
  0
VERTEX
  8
PLAN_1
 62
     2
  6
CONTINUOUS
 10
-0.648433
 20
-1.275016
  0
VERTEX
  8
PLAN_1
 62
     2
  6
CONTINUOUS
 10
-0.647909
 20
-1.278665
  0
VERTEX
  8
PLAN_1
 62
     2
  6
CONTINUOUS
 10
-0.656772
 20
-1.278665
  0
SEQEND
  8
0
  0
POLYLINE
  8
PLAN_1
 62
     2
  6
CONTINUOUS
 66
     1
 40
0.003000
 41
0.003000
  0
VERTEX
  8
PLAN_1
 62
     2
  6
CONTINUOUS
 10
-0.616118
 20
-1.258862
  0
VERTEX
  8
PLAN_1
 62
     2
  6
CONTINUOUS
 10
-0.612992
 20
-1.258862
  0
VERTEX
  8
PLAN_1
 62
     2
  6
CONTINUOUS
 10
-0.610386
 20
-1.259382
  0
VERTEX
  8
PLAN_1
 62
     2
  6
CONTINUOUS
 10
-0.607780
 20
-1.260425
  0
VERTEX
  8
PLAN_1
 62
     2
  6
CONTINUOUS
 10
-0.605173
 20
-1.261469
  0
VERTEX
  8
PLAN_1
 62
     2
  6
CONTINUOUS
 10
-0.602571
 20
-1.262508
  0
VERTEX
  8
PLAN_1
 62
     2
  6
CONTINUOUS
 10
-0.600484
 20
-1.264071
  0
VERTEX
  8
PLAN_1
 62
     2
  6
CONTINUOUS
 10
-0.598921
 20
-1.266157
  0
VERTEX
  8
PLAN_1
 62
     2
  6
CONTINUOUS
 10
-0.597358
 20
-1.267720
  0
VERTEX
  8
PLAN_1
 62
     2
  6
CONTINUOUS
 10
-0.594232
 20
-1.272409
  0
VERTEX
  8
PLAN_1
 62
     2
  6
CONTINUOUS
 10
-0.592665
 20
-1.277102
  0
VERTEX
  8
PLAN_1
 62
     2
  6
CONTINUOUS
 10
-0.591626
 20
-1.282315
  0
VERTEX
  8
PLAN_1
 62
     2
  6
CONTINUOUS
 10
-0.591102
 20
-1.287524
  0
VERTEX
  8
PLAN_1
 62
     2
  6
CONTINUOUS
 10
-0.591626
 20
-1.292736
  0
VERTEX
  8
PLAN_1
 62
     2
  6
CONTINUOUS
 10
-0.592665
 20
-1.297949
  0
VERTEX
  8
PLAN_1
 62
     2
  6
CONTINUOUS
 10
-0.594232
 20
-1.302638
  0
VERTEX
  8
PLAN_1
 62
     2
  6
CONTINUOUS
 10
-0.597358
 20
-1.307331
  0
VERTEX
  8
PLAN_1
 62
     2
  6
CONTINUOUS
 10
-0.598921
 20
-1.308894
  0
VERTEX
  8
PLAN_1
 62
     2
  6
CONTINUOUS
 10
-0.600484
 20
-1.310976
  0
VERTEX
  8
PLAN_1
 62
     2
  6
CONTINUOUS
 10
-0.602571
 20
-1.312539
  0
VERTEX
  8
PLAN_1
 62
     2
  6
CONTINUOUS
 10
-0.605173
 20
-1.313583
  0
VERTEX
  8
PLAN_1
 62
     2
  6
CONTINUOUS
 10
-0.607780
 20
-1.314626
  0
VERTEX
  8
PLAN_1
 62
     2
  6
CONTINUOUS
 10
-0.610386
 20
-1.315669
  0
VERTEX
  8
PLAN_1
 62
     2
  6
CONTINUOUS
 10
-0.612992
 20
-1.316189
  0
VERTEX
  8
PLAN_1
 62
     2
  6
CONTINUOUS
 10
-0.616118
 20
-1.316189
  0
VERTEX
  8
PLAN_1
 62
     2
  6
CONTINUOUS
 10
-0.619248
 20
-1.316189
  0
VERTEX
  8
PLAN_1
 62
     2
  6
CONTINUOUS
 10
-0.622374
 20
-1.315669
  0
VERTEX
  8
PLAN_1
 62
     2
  6
CONTINUOUS
 10
-0.624980
 20
-1.314626
  0
VERTEX
  8
PLAN_1
 62
     2
  6
CONTINUOUS
 10
-0.627587
 20
-1.313583
  0
VERTEX
  8
PLAN_1
 62
     2
  6
CONTINUOUS
 10
-0.629669
 20
-1.312539
  0
VERTEX
  8
PLAN_1
 62
     2
  6
CONTINUOUS
 10
-0.631756
 20
-1.310976
  0
VERTEX
  8
PLAN_1
 62
     2
  6
CONTINUOUS
 10
-0.633839
 20
-1.308894
  0
VERTEX
  8
PLAN_1
 62
     2
  6
CONTINUOUS
 10
-0.635402
 20
-1.307331
  0
VERTEX
  8
PLAN_1
 62
     2
  6
CONTINUOUS
 10
-0.638008
 20
-1.302638
  0
VERTEX
  8
PLAN_1
 62
     2
  6
CONTINUOUS
 10
-0.640094
 20
-1.297949
  0
VERTEX
  8
PLAN_1
 62
     2
  6
CONTINUOUS
 10
-0.641134
 20
-1.292736
  0
VERTEX
  8
PLAN_1
 62
     2
  6
CONTINUOUS
 10
-0.641657
 20
-1.287524
  0
VERTEX
  8
PLAN_1
 62
     2
  6
CONTINUOUS
 10
-0.641134
 20
-1.282315
  0
VERTEX
  8
PLAN_1
 62
     2
  6
CONTINUOUS
 10
-0.640094
 20
-1.277102
  0
VERTEX
  8
PLAN_1
 62
     2
  6
CONTINUOUS
 10
-0.638008
 20
-1.272409
  0
VERTEX
  8
PLAN_1
 62
     2
  6
CONTINUOUS
 10
-0.635402
 20
-1.267720
  0
VERTEX
  8
PLAN_1
 62
     2
  6
CONTINUOUS
 10
-0.633839
 20
-1.266157
  0
VERTEX
  8
PLAN_1
 62
     2
  6
CONTINUOUS
 10
-0.631756
 20
-1.264071
  0
VERTEX
  8
PLAN_1
 62
     2
  6
CONTINUOUS
 10
-0.629669
 20
-1.262508
  0
VERTEX
  8
PLAN_1
 62
     2
  6
CONTINUOUS
 10
-0.627587
 20
-1.261469
  0
VERTEX
  8
PLAN_1
 62
     2
  6
CONTINUOUS
 10
-0.624980
 20
-1.260425
  0
VERTEX
  8
PLAN_1
 62
     2
  6
CONTINUOUS
 10
-0.622374
 20
-1.259382
  0
VERTEX
  8
PLAN_1
 62
     2
  6
CONTINUOUS
 10
-0.619248
 20
-1.258862
  0
VERTEX
  8
PLAN_1
 62
     2
  6
CONTINUOUS
 10
-0.616118
 20
-1.258862
  0
SEQEND
  8
0
  0
POLYLINE
  8
PLAN_1
 62
     2
  6
CONTINUOUS
 66
     1
 40
0.003000
 41
0.003000
  0
VERTEX
  8
PLAN_1
 62
     2
  6
CONTINUOUS
 10
-0.616118
 20
-1.308370
  0
VERTEX
  8
PLAN_1
 62
     2
  6
CONTINUOUS
 10
-0.614035
 20
-1.308370
  0
VERTEX
  8
PLAN_1
 62
     2
  6
CONTINUOUS
 10
-0.611949
 20
-1.307850
  0
VERTEX
  8
PLAN_1
 62
     2
  6
CONTINUOUS
 10
-0.609866
 20
-1.306807
  0
VERTEX
  8
PLAN_1
 62
     2
  6
CONTINUOUS
 10
-0.608303
 20
-1.306287
  0
VERTEX
  8
PLAN_1
 62
     2
  6
CONTINUOUS
 10
-0.605697
 20
-1.303681
  0
VERTEX
  8
PLAN_1
 62
     2
  6
CONTINUOUS
 10
-0.603610
 20
-1.300555
  0
VERTEX
  8
PLAN_1
 62
     2
  6
CONTINUOUS
 10
-0.602047
 20
-1.297429
  0
VERTEX
  8
PLAN_1
 62
     2
  6
CONTINUOUS
 10
-0.601004
 20
-1.293780
  0
VERTEX
  8
PLAN_1
 62
     2
  6
CONTINUOUS
 10
-0.600484
 20
-1.290654
  0
VERTEX
  8
PLAN_1
 62
     2
  6
CONTINUOUS
 10
-0.600484
 20
-1.287524
  0
VERTEX
  8
PLAN_1
 62
     2
  6
CONTINUOUS
 10
-0.600484
 20
-1.284398
  0
VERTEX
  8
PLAN_1
 62
     2
  6
CONTINUOUS
 10
-0.601004
 20
-1.281272
  0
VERTEX
  8
PLAN_1
 62
     2
  6
CONTINUOUS
 10
-0.602047
 20
-1.277622
  0
VERTEX
  8
PLAN_1
 62
     2
  6
CONTINUOUS
 10
-0.603610
 20
-1.274496
  0
VERTEX
  8
PLAN_1
 62
     2
  6
CONTINUOUS
 10
-0.605697
 20
-1.271370
  0
VERTEX
  8
PLAN_1
 62
     2
  6
CONTINUOUS
 10
-0.608303
 20
-1.268764
  0
VERTEX
  8
PLAN_1
 62
     2
  6
CONTINUOUS
 10
-0.609866
 20
-1.268240
  0
VERTEX
  8
PLAN_1
 62
     2
  6
CONTINUOUS
 10
-0.611949
 20
-1.267201
  0
VERTEX
  8
PLAN_1
 62
     2
  6
CONTINUOUS
 10
-0.614035
 20
-1.266677
  0
VERTEX
  8
PLAN_1
 62
     2
  6
CONTINUOUS
 10
-0.616118
 20
-1.266677
  0
VERTEX
  8
PLAN_1
 62
     2
  6
CONTINUOUS
 10
-0.618724
 20
-1.266677
  0
VERTEX
  8
PLAN_1
 62
     2
  6
CONTINUOUS
 10
-0.620811
 20
-1.267201
  0
VERTEX
  8
PLAN_1
 62
     2
  6
CONTINUOUS
 10
-0.622894
 20
-1.268240
  0
VERTEX
  8
PLAN_1
 62
     2
  6
CONTINUOUS
 10
-0.624457
 20
-1.268764
  0
VERTEX
  8
PLAN_1
 62
     2
  6
CONTINUOUS
 10
-0.627063
 20
-1.271370
  0
VERTEX
  8
PLAN_1
 62
     2
  6
CONTINUOUS
 10
-0.629150
 20
-1.274496
  0
VERTEX
  8
PLAN_1
 62
     2
  6
CONTINUOUS
 10
-0.630713
 20
-1.277622
  0
VERTEX
  8
PLAN_1
 62
     2
  6
CONTINUOUS
 10
-0.631756
 20
-1.281272
  0
VERTEX
  8
PLAN_1
 62
     2
  6
CONTINUOUS
 10
-0.631756
 20
-1.284398
  0
VERTEX
  8
PLAN_1
 62
     2
  6
CONTINUOUS
 10
-0.632276
 20
-1.287524
  0
VERTEX
  8
PLAN_1
 62
     2
  6
CONTINUOUS
 10
-0.631756
 20
-1.290654
  0
VERTEX
  8
PLAN_1
 62
     2
  6
CONTINUOUS
 10
-0.631756
 20
-1.293780
  0
VERTEX
  8
PLAN_1
 62
     2
  6
CONTINUOUS
 10
-0.630713
 20
-1.297429
  0
VERTEX
  8
PLAN_1
 62
     2
  6
CONTINUOUS
 10
-0.629150
 20
-1.300555
  0
VERTEX
  8
PLAN_1
 62
     2
  6
CONTINUOUS
 10
-0.627063
 20
-1.303681
  0
VERTEX
  8
PLAN_1
 62
     2
  6
CONTINUOUS
 10
-0.624457
 20
-1.306287
  0
VERTEX
  8
PLAN_1
 62
     2
  6
CONTINUOUS
 10
-0.622894
 20
-1.306807
  0
VERTEX
  8
PLAN_1
 62
     2
  6
CONTINUOUS
 10
-0.620811
 20
-1.307850
  0
VERTEX
  8
PLAN_1
 62
     2
  6
CONTINUOUS
 10
-0.618724
 20
-1.308370
  0
VERTEX
  8
PLAN_1
 62
     2
  6
CONTINUOUS
 10
-0.616118
 20
-1.308370
  0
SEQEND
  8
0
  0
POLYLINE
  8
PLAN_1
 62
     2
  6
CONTINUOUS
 66
     1
 40
0.003000
 41
0.003000
  0
VERTEX
  8
PLAN_1
 62
     2
  6
CONTINUOUS
 10
-0.570256
 20
-1.314626
  0
VERTEX
  8
PLAN_1
 62
     2
  6
CONTINUOUS
 10
-0.579118
 20
-1.314626
  0
VERTEX
  8
PLAN_1
 62
     2
  6
CONTINUOUS
 10
-0.579118
 20
-1.260425
  0
VERTEX
  8
PLAN_1
 62
     2
  6
CONTINUOUS
 10
-0.570780
 20
-1.260425
  0
VERTEX
  8
PLAN_1
 62
     2
  6
CONTINUOUS
 10
-0.570780
 20
-1.269283
  0
VERTEX
  8
PLAN_1
 62
     2
  6
CONTINUOUS
 10
-0.570256
 20
-1.269283
  0
VERTEX
  8
PLAN_1
 62
     2
  6
CONTINUOUS
 10
-0.569217
 20
-1.267201
  0
VERTEX
  8
PLAN_1
 62
     2
  6
CONTINUOUS
 10
-0.567650
 20
-1.265114
  0
VERTEX
  8
PLAN_1
 62
     2
  6
CONTINUOUS
 10
-0.566087
 20
-1.263031
  0
VERTEX
  8
PLAN_1
 62
     2
  6
CONTINUOUS
 10
-0.564004
 20
-1.261469
  0
VERTEX
  8
PLAN_1
 62
     2
  6
CONTINUOUS
 10
-0.561917
 20
-1.260425
  0
VERTEX
  8
PLAN_1
 62
     2
  6
CONTINUOUS
 10
-0.559835
 20
-1.259382
  0
VERTEX
  8
PLAN_1
 62
     2
  6
CONTINUOUS
 10
-0.557748
 20
-1.258862
  0
VERTEX
  8
PLAN_1
 62
     2
  6
CONTINUOUS
 10
-0.555142
 20
-1.258862
  0
VERTEX
  8
PLAN_1
 62
     2
  6
CONTINUOUS
 10
-0.554622
 20
-1.258862
  0
VERTEX
  8
PLAN_1
 62
     2
  6
CONTINUOUS
 10
-0.554102
 20
-1.258862
  0
VERTEX
  8
PLAN_1
 62
     2
  6
CONTINUOUS
 10
-0.553579
 20
-1.258862
  0
VERTEX
  8
PLAN_1
 62
     2
  6
CONTINUOUS
 10
-0.553059
 20
-1.258862
  0
VERTEX
  8
PLAN_1
 62
     2
  6
CONTINUOUS
 10
-0.552539
 20
-1.258862
  0
VERTEX
  8
PLAN_1
 62
     2
  6
CONTINUOUS
 10
-0.552539
 20
-1.268764
  0
VERTEX
  8
PLAN_1
 62
     2
  6
CONTINUOUS
 10
-0.556185
 20
-1.268764
  0
VERTEX
  8
PLAN_1
 62
     2
  6
CONTINUOUS
 10
-0.559311
 20
-1.268764
  0
VERTEX
  8
PLAN_1
 62
     2
  6
CONTINUOUS
 10
-0.561917
 20
-1.269807
  0
VERTEX
  8
PLAN_1
 62
     2
  6
CONTINUOUS
 10
-0.564524
 20
-1.270846
  0
VERTEX
  8
PLAN_1
 62
     2
  6
CONTINUOUS
 10
-0.566610
 20
-1.272933
  0
VERTEX
  8
PLAN_1
 62
     2
  6
CONTINUOUS
 10
-0.568173
 20
-1.275016
  0
VERTEX
  8
PLAN_1
 62
     2
  6
CONTINUOUS
 10
-0.569217
 20
-1.277622
  0
VERTEX
  8
PLAN_1
 62
     2
  6
CONTINUOUS
 10
-0.569736
 20
-1.280228
  0
VERTEX
  8
PLAN_1
 62
     2
  6
CONTINUOUS
 10
-0.570256
 20
-1.283354
  0
VERTEX
  8
PLAN_1
 62
     2
  6
CONTINUOUS
 10
-0.570256
 20
-1.314626
  0
SEQEND
  8
0
  0
POLYLINE
  8
PLAN_1
 62
     2
  6
CONTINUOUS
 66
     1
 40
0.003000
 41
0.003000
  0
VERTEX
  8
PLAN_1
 62
     2
  6
CONTINUOUS
 10
-0.546803
 20
-1.260425
  0
VERTEX
  8
PLAN_1
 62
     2
  6
CONTINUOUS
 10
-0.537945
 20
-1.260425
  0
VERTEX
  8
PLAN_1
 62
     2
  6
CONTINUOUS
 10
-0.537945
 20
-1.268240
  0
VERTEX
  8
PLAN_1
 62
     2
  6
CONTINUOUS
 10
-0.536902
 20
-1.266677
  0
VERTEX
  8
PLAN_1
 62
     2
  6
CONTINUOUS
 10
-0.535862
 20
-1.265114
  0
VERTEX
  8
PLAN_1
 62
     2
  6
CONTINUOUS
 10
-0.534295
 20
-1.263551
  0
VERTEX
  8
PLAN_1
 62
     2
  6
CONTINUOUS
 10
-0.532732
 20
-1.261988
  0
VERTEX
  8
PLAN_1
 62
     2
  6
CONTINUOUS
 10
-0.530650
 20
-1.260945
  0
VERTEX
  8
PLAN_1
 62
     2
  6
CONTINUOUS
 10
-0.528043
 20
-1.259902
  0
VERTEX
  8
PLAN_1
 62
     2
  6
CONTINUOUS
 10
-0.524917
 20
-1.258862
  0
VERTEX
  8
PLAN_1
 62
     2
  6
CONTINUOUS
 10
-0.521787
 20
-1.258862
  0
VERTEX
  8
PLAN_1
 62
     2
  6
CONTINUOUS
 10
-0.519185
 20
-1.258862
  0
VERTEX
  8
PLAN_1
 62
     2
  6
CONTINUOUS
 10
-0.516579
 20
-1.259382
  0
VERTEX
  8
PLAN_1
 62
     2
  6
CONTINUOUS
 10
-0.513972
 20
-1.259902
  0
VERTEX
  8
PLAN_1
 62
     2
  6
CONTINUOUS
 10
-0.511886
 20
-1.260945
  0
VERTEX
  8
PLAN_1
 62
     2
  6
CONTINUOUS
 10
-0.508240
 20
-1.263551
  0
VERTEX
  8
PLAN_1
 62
     2
  6
CONTINUOUS
 10
-0.504591
 20
-1.266677
  0
VERTEX
  8
PLAN_1
 62
     2
  6
CONTINUOUS
 10
-0.502508
 20
-1.270846
  0
VERTEX
  8
PLAN_1
 62
     2
  6
CONTINUOUS
 10
-0.500421
 20
-1.275016
  0
VERTEX
  8
PLAN_1
 62
     2
  6
CONTINUOUS
 10
-0.499378
 20
-1.280228
  0
VERTEX
  8
PLAN_1
 62
     2
  6
CONTINUOUS
 10
-0.498858
 20
-1.285961
  0
VERTEX
  8
PLAN_1
 62
     2
  6
CONTINUOUS
 10
-0.499378
 20
-1.291173
  0
VERTEX
  8
PLAN_1
 62
     2
  6
CONTINUOUS
 10
-0.499902
 20
-1.296386
  0
VERTEX
  8
PLAN_1
 62
     2
  6
CONTINUOUS
 10
-0.501465
 20
-1.301075
  0
VERTEX
  8
PLAN_1
 62
     2
  6
CONTINUOUS
 10
-0.504071
 20
-1.305768
  0
VERTEX
  8
PLAN_1
 62
     2
  6
CONTINUOUS
 10
-0.505634
 20
-1.308370
  0
VERTEX
  8
PLAN_1
 62
     2
  6
CONTINUOUS
 10
-0.507197
 20
-1.309937
  0
VERTEX
  8
PLAN_1
 62
     2
  6
CONTINUOUS
 10
-0.509280
 20
-1.312020
  0
VERTEX
  8
PLAN_1
 62
     2
  6
CONTINUOUS
 10
-0.511366
 20
-1.313583
  0
VERTEX
  8
PLAN_1
 62
     2
  6
CONTINUOUS
 10
-0.513972
 20
-1.314626
  0
VERTEX
  8
PLAN_1
 62
     2
  6
CONTINUOUS
 10
-0.516579
 20
-1.315669
  0
VERTEX
  8
PLAN_1
 62
     2
  6
CONTINUOUS
 10
-0.519705
 20
-1.316189
  0
VERTEX
  8
PLAN_1
 62
     2
  6
CONTINUOUS
 10
-0.522831
 20
-1.316189
  0
VERTEX
  8
PLAN_1
 62
     2
  6
CONTINUOUS
 10
-0.525437
 20
-1.316189
  0
VERTEX
  8
PLAN_1
 62
     2
  6
CONTINUOUS
 10
-0.528043
 20
-1.315669
  0
VERTEX
  8
PLAN_1
 62
     2
  6
CONTINUOUS
 10
-0.530126
 20
-1.315146
  0
VERTEX
  8
PLAN_1
 62
     2
  6
CONTINUOUS
 10
-0.531693
 20
-1.314106
  0
VERTEX
  8
PLAN_1
 62
     2
  6
CONTINUOUS
 10
-0.533776
 20
-1.313063
  0
VERTEX
  8
PLAN_1
 62
     2
  6
CONTINUOUS
 10
-0.534819
 20
-1.312020
  0
VERTEX
  8
PLAN_1
 62
     2
  6
CONTINUOUS
 10
-0.536382
 20
-1.310457
  0
VERTEX
  8
PLAN_1
 62
     2
  6
CONTINUOUS
 10
-0.537425
 20
-1.308894
  0
VERTEX
  8
PLAN_1
 62
     2
  6
CONTINUOUS
 10
-0.537425
 20
-1.336516
  0
VERTEX
  8
PLAN_1
 62
     2
  6
CONTINUOUS
 10
-0.546803
 20
-1.336516
  0
VERTEX
  8
PLAN_1
 62
     2
  6
CONTINUOUS
 10
-0.546803
 20
-1.260425
  0
SEQEND
  8
0
  0
POLYLINE
  8
PLAN_1
 62
     2
  6
CONTINUOUS
 66
     1
 40
0.003000
 41
0.003000
  0
VERTEX
  8
PLAN_1
 62
     2
  6
CONTINUOUS
 10
-0.522831
 20
-1.308370
  0
VERTEX
  8
PLAN_1
 62
     2
  6
CONTINUOUS
 10
-0.519705
 20
-1.307850
  0
VERTEX
  8
PLAN_1
 62
     2
  6
CONTINUOUS
 10
-0.516579
 20
-1.306807
  0
VERTEX
  8
PLAN_1
 62
     2
  6
CONTINUOUS
 10
-0.513972
 20
-1.304724
  0
VERTEX
  8
PLAN_1
 62
     2
  6
CONTINUOUS
 10
-0.511886
 20
-1.302638
  0
VERTEX
  8
PLAN_1
 62
     2
  6
CONTINUOUS
 10
-0.510323
 20
-1.299512
  0
VERTEX
  8
PLAN_1
 62
     2
  6
CONTINUOUS
 10
-0.509280
 20
-1.295862
  0
VERTEX
  8
PLAN_1
 62
     2
  6
CONTINUOUS
 10
-0.508760
 20
-1.291693
  0
VERTEX
  8
PLAN_1
 62
     2
  6
CONTINUOUS
 10
-0.508240
 20
-1.287524
  0
VERTEX
  8
PLAN_1
 62
     2
  6
CONTINUOUS
 10
-0.508240
 20
-1.284398
  0
VERTEX
  8
PLAN_1
 62
     2
  6
CONTINUOUS
 10
-0.508760
 20
-1.281272
  0
VERTEX
  8
PLAN_1
 62
     2
  6
CONTINUOUS
 10
-0.509280
 20
-1.277622
  0
VERTEX
  8
PLAN_1
 62
     2
  6
CONTINUOUS
 10
-0.510323
 20
-1.274496
  0
VERTEX
  8
PLAN_1
 62
     2
  6
CONTINUOUS
 10
-0.512409
 20
-1.271370
  0
VERTEX
  8
PLAN_1
 62
     2
  6
CONTINUOUS
 10
-0.515016
 20
-1.269283
  0
VERTEX
  8
PLAN_1
 62
     2
  6
CONTINUOUS
 10
-0.516579
 20
-1.268240
  0
VERTEX
  8
PLAN_1
 62
     2
  6
CONTINUOUS
 10
-0.518661
 20
-1.267720
  0
VERTEX
  8
PLAN_1
 62
     2
  6
CONTINUOUS
 10
-0.520748
 20
-1.267201
  0
VERTEX
  8
PLAN_1
 62
     2
  6
CONTINUOUS
 10
-0.523354
 20
-1.267201
  0
VERTEX
  8
PLAN_1
 62
     2
  6
CONTINUOUS
 10
-0.525437
 20
-1.267201
  0
VERTEX
  8
PLAN_1
 62
     2
  6
CONTINUOUS
 10
-0.527524
 20
-1.267720
  0
VERTEX
  8
PLAN_1
 62
     2
  6
CONTINUOUS
 10
-0.529606
 20
-1.268240
  0
VERTEX
  8
PLAN_1
 62
     2
  6
CONTINUOUS
 10
-0.531169
 20
-1.269283
  0
VERTEX
  8
PLAN_1
 62
     2
  6
CONTINUOUS
 10
-0.533776
 20
-1.271890
  0
VERTEX
  8
PLAN_1
 62
     2
  6
CONTINUOUS
 10
-0.535339
 20
-1.275016
  0
VERTEX
  8
PLAN_1
 62
     2
  6
CONTINUOUS
 10
-0.536902
 20
-1.278665
  0
VERTEX
  8
PLAN_1
 62
     2
  6
CONTINUOUS
 10
-0.537425
 20
-1.282835
  0
VERTEX
  8
PLAN_1
 62
     2
  6
CONTINUOUS
 10
-0.537945
 20
-1.286484
  0
VERTEX
  8
PLAN_1
 62
     2
  6
CONTINUOUS
 10
-0.537945
 20
-1.290130
  0
VERTEX
  8
PLAN_1
 62
     2
  6
CONTINUOUS
 10
-0.537425
 20
-1.294823
  0
VERTEX
  8
PLAN_1
 62
     2
  6
CONTINUOUS
 10
-0.536382
 20
-1.298992
  0
VERTEX
  8
PLAN_1
 62
     2
  6
CONTINUOUS
 10
-0.534819
 20
-1.302118
  0
VERTEX
  8
PLAN_1
 62
     2
  6
CONTINUOUS
 10
-0.532732
 20
-1.304724
  0
VERTEX
  8
PLAN_1
 62
     2
  6
CONTINUOUS
 10
-0.530126
 20
-1.306287
  0
VERTEX
  8
PLAN_1
 62
     2
  6
CONTINUOUS
 10
-0.528043
 20
-1.307331
  0
VERTEX
  8
PLAN_1
 62
     2
  6
CONTINUOUS
 10
-0.525437
 20
-1.308370
  0
VERTEX
  8
PLAN_1
 62
     2
  6
CONTINUOUS
 10
-0.522831
 20
-1.308370
  0
SEQEND
  8
0
  0
POLYLINE
  8
PLAN_1
 62
     2
  6
CONTINUOUS
 66
     1
 40
0.003000
 41
0.003000
  0
VERTEX
  8
PLAN_1
 62
     2
  6
CONTINUOUS
 10
-0.466024
 20
-1.258862
  0
VERTEX
  8
PLAN_1
 62
     2
  6
CONTINUOUS
 10
-0.462898
 20
-1.258862
  0
VERTEX
  8
PLAN_1
 62
     2
  6
CONTINUOUS
 10
-0.459772
 20
-1.259382
  0
VERTEX
  8
PLAN_1
 62
     2
  6
CONTINUOUS
 10
-0.457165
 20
-1.260425
  0
VERTEX
  8
PLAN_1
 62
     2
  6
CONTINUOUS
 10
-0.454559
 20
-1.261469
  0
VERTEX
  8
PLAN_1
 62
     2
  6
CONTINUOUS
 10
-0.452476
 20
-1.262508
  0
VERTEX
  8
PLAN_1
 62
     2
  6
CONTINUOUS
 10
-0.450390
 20
-1.264071
  0
VERTEX
  8
PLAN_1
 62
     2
  6
CONTINUOUS
 10
-0.448307
 20
-1.266157
  0
VERTEX
  8
PLAN_1
 62
     2
  6
CONTINUOUS
 10
-0.446740
 20
-1.267720
  0
VERTEX
  8
PLAN_1
 62
     2
  6
CONTINUOUS
 10
-0.444138
 20
-1.272409
  0
VERTEX
  8
PLAN_1
 62
     2
  6
CONTINUOUS
 10
-0.442051
 20
-1.277102
  0
VERTEX
  8
PLAN_1
 62
     2
  6
CONTINUOUS
 10
-0.441008
 20
-1.282315
  0
VERTEX
  8
PLAN_1
 62
     2
  6
CONTINUOUS
 10
-0.440488
 20
-1.287524
  0
VERTEX
  8
PLAN_1
 62
     2
  6
CONTINUOUS
 10
-0.441008
 20
-1.292736
  0
VERTEX
  8
PLAN_1
 62
     2
  6
CONTINUOUS
 10
-0.442051
 20
-1.297949
  0
VERTEX
  8
PLAN_1
 62
     2
  6
CONTINUOUS
 10
-0.444138
 20
-1.302638
  0
VERTEX
  8
PLAN_1
 62
     2
  6
CONTINUOUS
 10
-0.446740
 20
-1.307331
  0
VERTEX
  8
PLAN_1
 62
     2
  6
CONTINUOUS
 10
-0.448307
 20
-1.308894
  0
VERTEX
  8
PLAN_1
 62
     2
  6
CONTINUOUS
 10
-0.450390
 20
-1.310976
  0
VERTEX
  8
PLAN_1
 62
     2
  6
CONTINUOUS
 10
-0.452476
 20
-1.312539
  0
VERTEX
  8
PLAN_1
 62
     2
  6
CONTINUOUS
 10
-0.454559
 20
-1.313583
  0
VERTEX
  8
PLAN_1
 62
     2
  6
CONTINUOUS
 10
-0.457165
 20
-1.314626
  0
VERTEX
  8
PLAN_1
 62
     2
  6
CONTINUOUS
 10
-0.459772
 20
-1.315669
  0
VERTEX
  8
PLAN_1
 62
     2
  6
CONTINUOUS
 10
-0.462898
 20
-1.316189
  0
VERTEX
  8
PLAN_1
 62
     2
  6
CONTINUOUS
 10
-0.466024
 20
-1.316189
  0
VERTEX
  8
PLAN_1
 62
     2
  6
CONTINUOUS
 10
-0.469154
 20
-1.316189
  0
VERTEX
  8
PLAN_1
 62
     2
  6
CONTINUOUS
 10
-0.471756
 20
-1.315669
  0
VERTEX
  8
PLAN_1
 62
     2
  6
CONTINUOUS
 10
-0.474886
 20
-1.314626
  0
VERTEX
  8
PLAN_1
 62
     2
  6
CONTINUOUS
 10
-0.476969
 20
-1.313583
  0
VERTEX
  8
PLAN_1
 62
     2
  6
CONTINUOUS
 10
-0.479575
 20
-1.312539
  0
VERTEX
  8
PLAN_1
 62
     2
  6
CONTINUOUS
 10
-0.481661
 20
-1.310976
  0
VERTEX
  8
PLAN_1
 62
     2
  6
CONTINUOUS
 10
-0.483224
 20
-1.308894
  0
VERTEX
  8
PLAN_1
 62
     2
  6
CONTINUOUS
 10
-0.484787
 20
-1.307331
  0
VERTEX
  8
PLAN_1
 62
     2
  6
CONTINUOUS
 10
-0.487913
 20
-1.302638
  0
VERTEX
  8
PLAN_1
 62
     2
  6
CONTINUOUS
 10
-0.489476
 20
-1.297949
  0
VERTEX
  8
PLAN_1
 62
     2
  6
CONTINUOUS
 10
-0.490520
 20
-1.292736
  0
VERTEX
  8
PLAN_1
 62
     2
  6
CONTINUOUS
 10
-0.491039
 20
-1.287524
  0
VERTEX
  8
PLAN_1
 62
     2
  6
CONTINUOUS
 10
-0.490520
 20
-1.282315
  0
VERTEX
  8
PLAN_1
 62
     2
  6
CONTINUOUS
 10
-0.489476
 20
-1.277102
  0
VERTEX
  8
PLAN_1
 62
     2
  6
CONTINUOUS
 10
-0.487913
 20
-1.272409
  0
VERTEX
  8
PLAN_1
 62
     2
  6
CONTINUOUS
 10
-0.484787
 20
-1.267720
  0
VERTEX
  8
PLAN_1
 62
     2
  6
CONTINUOUS
 10
-0.483224
 20
-1.266157
  0
VERTEX
  8
PLAN_1
 62
     2
  6
CONTINUOUS
 10
-0.481661
 20
-1.264071
  0
VERTEX
  8
PLAN_1
 62
     2
  6
CONTINUOUS
 10
-0.479575
 20
-1.262508
  0
VERTEX
  8
PLAN_1
 62
     2
  6
CONTINUOUS
 10
-0.476969
 20
-1.261469
  0
VERTEX
  8
PLAN_1
 62
     2
  6
CONTINUOUS
 10
-0.474886
 20
-1.260425
  0
VERTEX
  8
PLAN_1
 62
     2
  6
CONTINUOUS
 10
-0.471756
 20
-1.259382
  0
VERTEX
  8
PLAN_1
 62
     2
  6
CONTINUOUS
 10
-0.469154
 20
-1.258862
  0
VERTEX
  8
PLAN_1
 62
     2
  6
CONTINUOUS
 10
-0.466024
 20
-1.258862
  0
SEQEND
  8
0
  0
POLYLINE
  8
PLAN_1
 62
     2
  6
CONTINUOUS
 66
     1
 40
0.003000
 41
0.003000
  0
VERTEX
  8
PLAN_1
 62
     2
  6
CONTINUOUS
 10
-0.466024
 20
-1.308370
  0
VERTEX
  8
PLAN_1
 62
     2
  6
CONTINUOUS
 10
-0.463417
 20
-1.308370
  0
VERTEX
  8
PLAN_1
 62
     2
  6
CONTINUOUS
 10
-0.461335
 20
-1.307850
  0
VERTEX
  8
PLAN_1
 62
     2
  6
CONTINUOUS
 10
-0.459772
 20
-1.306807
  0
VERTEX
  8
PLAN_1
 62
     2
  6
CONTINUOUS
 10
-0.457685
 20
-1.306287
  0
VERTEX
  8
PLAN_1
 62
     2
  6
CONTINUOUS
 10
-0.455079
 20
-1.303681
  0
VERTEX
  8
PLAN_1
 62
     2
  6
CONTINUOUS
 10
-0.452996
 20
-1.300555
  0
VERTEX
  8
PLAN_1
 62
     2
  6
CONTINUOUS
 10
-0.451433
 20
-1.297429
  0
VERTEX
  8
PLAN_1
 62
     2
  6
CONTINUOUS
 10
-0.450909
 20
-1.293780
  0
VERTEX
  8
PLAN_1
 62
     2
  6
CONTINUOUS
 10
-0.450390
 20
-1.290654
  0
VERTEX
  8
PLAN_1
 62
     2
  6
CONTINUOUS
 10
-0.449870
 20
-1.287524
  0
VERTEX
  8
PLAN_1
 62
     2
  6
CONTINUOUS
 10
-0.450390
 20
-1.284398
  0
VERTEX
  8
PLAN_1
 62
     2
  6
CONTINUOUS
 10
-0.450909
 20
-1.281272
  0
VERTEX
  8
PLAN_1
 62
     2
  6
CONTINUOUS
 10
-0.451433
 20
-1.277622
  0
VERTEX
  8
PLAN_1
 62
     2
  6
CONTINUOUS
 10
-0.452996
 20
-1.274496
  0
VERTEX
  8
PLAN_1
 62
     2
  6
CONTINUOUS
 10
-0.455079
 20
-1.271370
  0
VERTEX
  8
PLAN_1
 62
     2
  6
CONTINUOUS
 10
-0.457685
 20
-1.268764
  0
VERTEX
  8
PLAN_1
 62
     2
  6
CONTINUOUS
 10
-0.459772
 20
-1.268240
  0
VERTEX
  8
PLAN_1
 62
     2
  6
CONTINUOUS
 10
-0.461335
 20
-1.267201
  0
VERTEX
  8
PLAN_1
 62
     2
  6
CONTINUOUS
 10
-0.463417
 20
-1.266677
  0
VERTEX
  8
PLAN_1
 62
     2
  6
CONTINUOUS
 10
-0.466024
 20
-1.266677
  0
VERTEX
  8
PLAN_1
 62
     2
  6
CONTINUOUS
 10
-0.468110
 20
-1.266677
  0
VERTEX
  8
PLAN_1
 62
     2
  6
CONTINUOUS
 10
-0.470193
 20
-1.267201
  0
VERTEX
  8
PLAN_1
 62
     2
  6
CONTINUOUS
 10
-0.472280
 20
-1.268240
  0
VERTEX
  8
PLAN_1
 62
     2
  6
CONTINUOUS
 10
-0.473843
 20
-1.268764
  0
VERTEX
  8
PLAN_1
 62
     2
  6
CONTINUOUS
 10
-0.476449
 20
-1.271370
  0
VERTEX
  8
PLAN_1
 62
     2
  6
CONTINUOUS
 10
-0.478531
 20
-1.274496
  0
VERTEX
  8
PLAN_1
 62
     2
  6
CONTINUOUS
 10
-0.480094
 20
-1.277622
  0
VERTEX
  8
PLAN_1
 62
     2
  6
CONTINUOUS
 10
-0.481138
 20
-1.281272
  0
VERTEX
  8
PLAN_1
 62
     2
  6
CONTINUOUS
 10
-0.481661
 20
-1.284398
  0
VERTEX
  8
PLAN_1
 62
     2
  6
CONTINUOUS
 10
-0.481661
 20
-1.287524
  0
VERTEX
  8
PLAN_1
 62
     2
  6
CONTINUOUS
 10
-0.481661
 20
-1.290654
  0
VERTEX
  8
PLAN_1
 62
     2
  6
CONTINUOUS
 10
-0.481138
 20
-1.293780
  0
VERTEX
  8
PLAN_1
 62
     2
  6
CONTINUOUS
 10
-0.480094
 20
-1.297429
  0
VERTEX
  8
PLAN_1
 62
     2
  6
CONTINUOUS
 10
-0.478531
 20
-1.300555
  0
VERTEX
  8
PLAN_1
 62
     2
  6
CONTINUOUS
 10
-0.476449
 20
-1.303681
  0
VERTEX
  8
PLAN_1
 62
     2
  6
CONTINUOUS
 10
-0.473843
 20
-1.306287
  0
VERTEX
  8
PLAN_1
 62
     2
  6
CONTINUOUS
 10
-0.472280
 20
-1.306807
  0
VERTEX
  8
PLAN_1
 62
     2
  6
CONTINUOUS
 10
-0.470193
 20
-1.307850
  0
VERTEX
  8
PLAN_1
 62
     2
  6
CONTINUOUS
 10
-0.468110
 20
-1.308370
  0
VERTEX
  8
PLAN_1
 62
     2
  6
CONTINUOUS
 10
-0.466024
 20
-1.308370
  0
SEQEND
  8
0
  0
POLYLINE
  8
PLAN_1
 62
     2
  6
CONTINUOUS
 66
     1
 40
0.003000
 41
0.003000
  0
VERTEX
  8
PLAN_1
 62
     2
  6
CONTINUOUS
 10
-0.419642
 20
-1.314626
  0
VERTEX
  8
PLAN_1
 62
     2
  6
CONTINUOUS
 10
-0.429024
 20
-1.314626
  0
VERTEX
  8
PLAN_1
 62
     2
  6
CONTINUOUS
 10
-0.429024
 20
-1.260425
  0
VERTEX
  8
PLAN_1
 62
     2
  6
CONTINUOUS
 10
-0.420161
 20
-1.260425
  0
VERTEX
  8
PLAN_1
 62
     2
  6
CONTINUOUS
 10
-0.420161
 20
-1.269283
  0
VERTEX
  8
PLAN_1
 62
     2
  6
CONTINUOUS
 10
-0.418598
 20
-1.267201
  0
VERTEX
  8
PLAN_1
 62
     2
  6
CONTINUOUS
 10
-0.417035
 20
-1.265114
  0
VERTEX
  8
PLAN_1
 62
     2
  6
CONTINUOUS
 10
-0.415472
 20
-1.263031
  0
VERTEX
  8
PLAN_1
 62
     2
  6
CONTINUOUS
 10
-0.413386
 20
-1.261469
  0
VERTEX
  8
PLAN_1
 62
     2
  6
CONTINUOUS
 10
-0.411823
 20
-1.260425
  0
VERTEX
  8
PLAN_1
 62
     2
  6
CONTINUOUS
 10
-0.409740
 20
-1.259382
  0
VERTEX
  8
PLAN_1
 62
     2
  6
CONTINUOUS
 10
-0.407134
 20
-1.258862
  0
VERTEX
  8
PLAN_1
 62
     2
  6
CONTINUOUS
 10
-0.404528
 20
-1.258862
  0
VERTEX
  8
PLAN_1
 62
     2
  6
CONTINUOUS
 10
-0.404008
 20
-1.258862
  0
VERTEX
  8
PLAN_1
 62
     2
  6
CONTINUOUS
 10
-0.403484
 20
-1.258862
  0
VERTEX
  8
PLAN_1
 62
     2
  6
CONTINUOUS
 10
-0.402965
 20
-1.258862
  0
VERTEX
  8
PLAN_1
 62
     2
  6
CONTINUOUS
 10
-0.402445
 20
-1.258862
  0
VERTEX
  8
PLAN_1
 62
     2
  6
CONTINUOUS
 10
-0.402445
 20
-1.268764
  0
VERTEX
  8
PLAN_1
 62
     2
  6
CONTINUOUS
 10
-0.405571
 20
-1.268764
  0
VERTEX
  8
PLAN_1
 62
     2
  6
CONTINUOUS
 10
-0.408697
 20
-1.268764
  0
VERTEX
  8
PLAN_1
 62
     2
  6
CONTINUOUS
 10
-0.411823
 20
-1.269807
  0
VERTEX
  8
PLAN_1
 62
     2
  6
CONTINUOUS
 10
-0.413909
 20
-1.270846
  0
VERTEX
  8
PLAN_1
 62
     2
  6
CONTINUOUS
 10
-0.415992
 20
-1.272933
  0
VERTEX
  8
PLAN_1
 62
     2
  6
CONTINUOUS
 10
-0.417555
 20
-1.275016
  0
VERTEX
  8
PLAN_1
 62
     2
  6
CONTINUOUS
 10
-0.418598
 20
-1.277622
  0
VERTEX
  8
PLAN_1
 62
     2
  6
CONTINUOUS
 10
-0.419642
 20
-1.280228
  0
VERTEX
  8
PLAN_1
 62
     2
  6
CONTINUOUS
 10
-0.419642
 20
-1.283354
  0
VERTEX
  8
PLAN_1
 62
     2
  6
CONTINUOUS
 10
-0.419642
 20
-1.314626
  0
SEQEND
  8
0
  0
SOLID
  8
PLAN_1
 62
     2
 10
-0.371173
 20
-1.253130
 11
-0.377949
 21
-1.253130
 12
-0.357622
 22
-1.238535
 13
-0.368567
 23
-1.238535
  0
POLYLINE
  8
PLAN_1
 62
     2
  6
CONTINUOUS
 66
     1
 40
0.003000
 41
0.003000
  0
VERTEX
  8
PLAN_1
 62
     2
  6
CONTINUOUS
 10
-0.371173
 20
-1.253130
  0
VERTEX
  8
PLAN_1
 62
     2
  6
CONTINUOUS
 10
-0.377949
 20
-1.253130
  0
VERTEX
  8
PLAN_1
 62
     2
  6
CONTINUOUS
 10
-0.368567
 20
-1.238535
  0
VERTEX
  8
PLAN_1
 62
     2
  6
CONTINUOUS
 10
-0.357622
 20
-1.238535
  0
VERTEX
  8
PLAN_1
 62
     2
  6
CONTINUOUS
 10
-0.371173
 20
-1.253130
  0
SEQEND
  8
0
  0
POLYLINE
  8
PLAN_1
 62
     2
  6
CONTINUOUS
 66
     1
 40
0.003000
 41
0.003000
  0
VERTEX
  8
PLAN_1
 62
     2
  6
CONTINUOUS
 10
-0.349283
 20
-1.297429
  0
VERTEX
  8
PLAN_1
 62
     2
  6
CONTINUOUS
 10
-0.349283
 20
-1.298992
  0
VERTEX
  8
PLAN_1
 62
     2
  6
CONTINUOUS
 10
-0.349807
 20
-1.300555
  0
VERTEX
  8
PLAN_1
 62
     2
  6
CONTINUOUS
 10
-0.350846
 20
-1.302118
  0
VERTEX
  8
PLAN_1
 62
     2
  6
CONTINUOUS
 10
-0.351890
 20
-1.304201
  0
VERTEX
  8
PLAN_1
 62
     2
  6
CONTINUOUS
 10
-0.352933
 20
-1.306287
  0
VERTEX
  8
PLAN_1
 62
     2
  6
CONTINUOUS
 10
-0.354496
 20
-1.308894
  0
VERTEX
  8
PLAN_1
 62
     2
  6
CONTINUOUS
 10
-0.356579
 20
-1.310457
  0
VERTEX
  8
PLAN_1
 62
     2
  6
CONTINUOUS
 10
-0.359185
 20
-1.312539
  0
VERTEX
  8
PLAN_1
 62
     2
  6
CONTINUOUS
 10
-0.359709
 20
-1.313063
  0
VERTEX
  8
PLAN_1
 62
     2
  6
CONTINUOUS
 10
-0.361272
 20
-1.314106
  0
VERTEX
  8
PLAN_1
 62
     2
  6
CONTINUOUS
 10
-0.362315
 20
-1.314626
  0
VERTEX
  8
PLAN_1
 62
     2
  6
CONTINUOUS
 10
-0.363878
 20
-1.315146
  0
VERTEX
  8
PLAN_1
 62
     2
  6
CONTINUOUS
 10
-0.365961
 20
-1.315669
  0
VERTEX
  8
PLAN_1
 62
     2
  6
CONTINUOUS
 10
-0.368047
 20
-1.316189
  0
VERTEX
  8
PLAN_1
 62
     2
  6
CONTINUOUS
 10
-0.370654
 20
-1.316189
  0
VERTEX
  8
PLAN_1
 62
     2
  6
CONTINUOUS
 10
-0.373780
 20
-1.316189
  0
VERTEX
  8
PLAN_1
 62
     2
  6
CONTINUOUS
 10
-0.376386
 20
-1.316189
  0
VERTEX
  8
PLAN_1
 62
     2
  6
CONTINUOUS
 10
-0.378992
 20
-1.315669
  0
VERTEX
  8
PLAN_1
 62
     2
  6
CONTINUOUS
 10
-0.381598
 20
-1.315146
  0
VERTEX
  8
PLAN_1
 62
     2
  6
CONTINUOUS
 10
-0.384201
 20
-1.314106
  0
VERTEX
  8
PLAN_1
 62
     2
  6
CONTINUOUS
 10
-0.386287
 20
-1.313063
  0
VERTEX
  8
PLAN_1
 62
     2
  6
CONTINUOUS
 10
-0.388370
 20
-1.312020
  0
VERTEX
  8
PLAN_1
 62
     2
  6
CONTINUOUS
 10
-0.389937
 20
-1.310457
  0
VERTEX
  8
PLAN_1
 62
     2
  6
CONTINUOUS
 10
-0.391500
 20
-1.308370
  0
VERTEX
  8
PLAN_1
 62
     2
  6
CONTINUOUS
 10
-0.394626
 20
-1.304724
  0
VERTEX
  8
PLAN_1
 62
     2
  6
CONTINUOUS
 10
-0.396189
 20
-1.300031
  0
VERTEX
  8
PLAN_1
 62
     2
  6
CONTINUOUS
 10
-0.397752
 20
-1.294823
  0
VERTEX
  8
PLAN_1
 62
     2
  6
CONTINUOUS
 10
-0.398276
 20
-1.289091
  0
VERTEX
  8
PLAN_1
 62
     2
  6
CONTINUOUS
 10
-0.397752
 20
-1.282835
  0
VERTEX
  8
PLAN_1
 62
     2
  6
CONTINUOUS
 10
-0.396709
 20
-1.277102
  0
VERTEX
  8
PLAN_1
 62
     2
  6
CONTINUOUS
 10
-0.395669
 20
-1.274496
  0
VERTEX
  8
PLAN_1
 62
     2
  6
CONTINUOUS
 10
-0.394626
 20
-1.271890
  0
VERTEX
  8
PLAN_1
 62
     2
  6
CONTINUOUS
 10
-0.393063
 20
-1.269807
  0
VERTEX
  8
PLAN_1
 62
     2
  6
CONTINUOUS
 10
-0.392020
 20
-1.267720
  0
VERTEX
  8
PLAN_1
 62
     2
  6
CONTINUOUS
 10
-0.389937
 20
-1.265638
  0
VERTEX
  8
PLAN_1
 62
     2
  6
CONTINUOUS
 10
-0.388370
 20
-1.264071
  0
VERTEX
  8
PLAN_1
 62
     2
  6
CONTINUOUS
 10
-0.385768
 20
-1.262508
  0
VERTEX
  8
PLAN_1
 62
     2
  6
CONTINUOUS
 10
-0.383681
 20
-1.260945
  0
VERTEX
  8
PLAN_1
 62
     2
  6
CONTINUOUS
 10
-0.381075
 20
-1.259902
  0
VERTEX
  8
PLAN_1
 62
     2
  6
CONTINUOUS
 10
-0.378469
 20
-1.259382
  0
VERTEX
  8
PLAN_1
 62
     2
  6
CONTINUOUS
 10
-0.375343
 20
-1.258862
  0
VERTEX
  8
PLAN_1
 62
     2
  6
CONTINUOUS
 10
-0.372217
 20
-1.258862
  0
VERTEX
  8
PLAN_1
 62
     2
  6
CONTINUOUS
 10
-0.369091
 20
-1.258862
  0
VERTEX
  8
PLAN_1
 62
     2
  6
CONTINUOUS
 10
-0.366484
 20
-1.259382
  0
VERTEX
  8
PLAN_1
 62
     2
  6
CONTINUOUS
 10
-0.363878
 20
-1.259902
  0
VERTEX
  8
PLAN_1
 62
     2
  6
CONTINUOUS
 10
-0.361791
 20
-1.260945
  0
VERTEX
  8
PLAN_1
 62
     2
  6
CONTINUOUS
 10
-0.359709
 20
-1.262508
  0
VERTEX
  8
PLAN_1
 62
     2
  6
CONTINUOUS
 10
-0.357622
 20
-1.263551
  0
VERTEX
  8
PLAN_1
 62
     2
  6
CONTINUOUS
 10
-0.356059
 20
-1.265638
  0
VERTEX
  8
PLAN_1
 62
     2
  6
CONTINUOUS
 10
-0.354496
 20
-1.267201
  0
VERTEX
  8
PLAN_1
 62
     2
  6
CONTINUOUS
 10
-0.351890
 20
-1.271890
  0
VERTEX
  8
PLAN_1
 62
     2
  6
CONTINUOUS
 10
-0.349807
 20
-1.277622
  0
VERTEX
  8
PLAN_1
 62
     2
  6
CONTINUOUS
 10
-0.348764
 20
-1.283878
  0
VERTEX
  8
PLAN_1
 62
     2
  6
CONTINUOUS
 10
-0.348764
 20
-1.290654
  0
VERTEX
  8
PLAN_1
 62
     2
  6
CONTINUOUS
 10
-0.388370
 20
-1.290654
  0
VERTEX
  8
PLAN_1
 62
     2
  6
CONTINUOUS
 10
-0.387850
 20
-1.294299
  0
VERTEX
  8
PLAN_1
 62
     2
  6
CONTINUOUS
 10
-0.387331
 20
-1.297949
  0
VERTEX
  8
PLAN_1
 62
     2
  6
CONTINUOUS
 10
-0.386287
 20
-1.301075
  0
VERTEX
  8
PLAN_1
 62
     2
  6
CONTINUOUS
 10
-0.384201
 20
-1.303681
  0
VERTEX
  8
PLAN_1
 62
     2
  6
CONTINUOUS
 10
-0.382118
 20
-1.305768
  0
VERTEX
  8
PLAN_1
 62
     2
  6
CONTINUOUS
 10
-0.379512
 20
-1.307331
  0
VERTEX
  8
PLAN_1
 62
     2
  6
CONTINUOUS
 10
-0.376386
 20
-1.307850
  0
VERTEX
  8
PLAN_1
 62
     2
  6
CONTINUOUS
 10
-0.372736
 20
-1.308370
  0
VERTEX
  8
PLAN_1
 62
     2
  6
CONTINUOUS
 10
-0.369610
 20
-1.308370
  0
VERTEX
  8
PLAN_1
 62
     2
  6
CONTINUOUS
 10
-0.366484
 20
-1.307331
  0
VERTEX
  8
PLAN_1
 62
     2
  6
CONTINUOUS
 10
-0.364398
 20
-1.306287
  0
VERTEX
  8
PLAN_1
 62
     2
  6
CONTINUOUS
 10
-0.362315
 20
-1.304724
  0
VERTEX
  8
PLAN_1
 62
     2
  6
CONTINUOUS
 10
-0.360752
 20
-1.302638
  0
VERTEX
  8
PLAN_1
 62
     2
  6
CONTINUOUS
 10
-0.359709
 20
-1.301075
  0
VERTEX
  8
PLAN_1
 62
     2
  6
CONTINUOUS
 10
-0.358665
 20
-1.299512
  0
VERTEX
  8
PLAN_1
 62
     2
  6
CONTINUOUS
 10
-0.358665
 20
-1.297429
  0
VERTEX
  8
PLAN_1
 62
     2
  6
CONTINUOUS
 10
-0.349283
 20
-1.297429
  0
SEQEND
  8
0
  0
POLYLINE
  8
PLAN_1
 62
     2
  6
CONTINUOUS
 66
     1
 40
0.003000
 41
0.003000
  0
VERTEX
  8
PLAN_1
 62
     2
  6
CONTINUOUS
 10
-0.358146
 20
-1.283354
  0
VERTEX
  8
PLAN_1
 62
     2
  6
CONTINUOUS
 10
-0.358146
 20
-1.280228
  0
VERTEX
  8
PLAN_1
 62
     2
  6
CONTINUOUS
 10
-0.359185
 20
-1.277102
  0
VERTEX
  8
PLAN_1
 62
     2
  6
CONTINUOUS
 10
-0.360228
 20
-1.274496
  0
VERTEX
  8
PLAN_1
 62
     2
  6
CONTINUOUS
 10
-0.361791
 20
-1.271890
  0
VERTEX
  8
PLAN_1
 62
     2
  6
CONTINUOUS
 10
-0.363878
 20
-1.269807
  0
VERTEX
  8
PLAN_1
 62
     2
  6
CONTINUOUS
 10
-0.365961
 20
-1.268240
  0
VERTEX
  8
PLAN_1
 62
     2
  6
CONTINUOUS
 10
-0.369610
 20
-1.267201
  0
VERTEX
  8
PLAN_1
 62
     2
  6
CONTINUOUS
 10
-0.373260
 20
-1.267201
  0
VERTEX
  8
PLAN_1
 62
     2
  6
CONTINUOUS
 10
-0.376386
 20
-1.267201
  0
VERTEX
  8
PLAN_1
 62
     2
  6
CONTINUOUS
 10
-0.378992
 20
-1.268240
  0
VERTEX
  8
PLAN_1
 62
     2
  6
CONTINUOUS
 10
-0.381598
 20
-1.269807
  0
VERTEX
  8
PLAN_1
 62
     2
  6
CONTINUOUS
 10
-0.383681
 20
-1.271890
  0
VERTEX
  8
PLAN_1
 62
     2
  6
CONTINUOUS
 10
-0.385768
 20
-1.274496
  0
VERTEX
  8
PLAN_1
 62
     2
  6
CONTINUOUS
 10
-0.387331
 20
-1.277102
  0
VERTEX
  8
PLAN_1
 62
     2
  6
CONTINUOUS
 10
-0.387850
 20
-1.280228
  0
VERTEX
  8
PLAN_1
 62
     2
  6
CONTINUOUS
 10
-0.388370
 20
-1.283354
  0
VERTEX
  8
PLAN_1
 62
     2
  6
CONTINUOUS
 10
-0.358146
 20
-1.283354
  0
SEQEND
  8
0
  0
POLYLINE
  8
PLAN_1
 62
     2
  6
CONTINUOUS
 66
     1
 40
0.003000
 41
0.003000
  0
VERTEX
  8
PLAN_1
 62
     2
  6
CONTINUOUS
 10
-0.856374
 20
1.399067
  0
VERTEX
  8
PLAN_1
 62
     2
  6
CONTINUOUS
 10
-0.856374
 20
1.389685
  0
VERTEX
  8
PLAN_1
 62
     2
  6
CONTINUOUS
 10
-0.907969
 20
1.389685
  0
VERTEX
  8
PLAN_1
 62
     2
  6
CONTINUOUS
 10
-0.907969
 20
1.372488
  0
VERTEX
  8
PLAN_1
 62
     2
  6
CONTINUOUS
 10
-0.915268
 20
1.372488
  0
VERTEX
  8
PLAN_1
 62
     2
  6
CONTINUOUS
 10
-0.915787
 20
1.376657
  0
VERTEX
  8
PLAN_1
 62
     2
  6
CONTINUOUS
 10
-0.916307
 20
1.380303
  0
VERTEX
  8
PLAN_1
 62
     2
  6
CONTINUOUS
 10
-0.916831
 20
1.382909
  0
VERTEX
  8
PLAN_1
 62
     2
  6
CONTINUOUS
 10
-0.918394
 20
1.385516
  0
VERTEX
  8
PLAN_1
 62
     2
  6
CONTINUOUS
 10
-0.919957
 20
1.387598
  0
VERTEX
  8
PLAN_1
 62
     2
  6
CONTINUOUS
 10
-0.922043
 20
1.389685
  0
VERTEX
  8
PLAN_1
 62
     2
  6
CONTINUOUS
 10
-0.925169
 20
1.390728
  0
VERTEX
  8
PLAN_1
 62
     2
  6
CONTINUOUS
 10
-0.929339
 20
1.392291
  0
VERTEX
  8
PLAN_1
 62
     2
  6
CONTINUOUS
 10
-0.929339
 20
1.399067
  0
VERTEX
  8
PLAN_1
 62
     2
  6
CONTINUOUS
 10
-0.856374
 20
1.399067
  0
SEQEND
  8
0
  0
POLYLINE
  8
PLAN_1
 62
     2
  6
CONTINUOUS
 66
     1
 40
0.003000
 41
0.003000
  0
VERTEX
  8
PLAN_1
 62
     2
  6
CONTINUOUS
 10
-0.856374
 20
1.457437
  0
VERTEX
  8
PLAN_1
 62
     2
  6
CONTINUOUS
 10
-0.856374
 20
1.447535
  0
VERTEX
  8
PLAN_1
 62
     2
  6
CONTINUOUS
 10
-0.907969
 20
1.447535
  0
VERTEX
  8
PLAN_1
 62
     2
  6
CONTINUOUS
 10
-0.907969
 20
1.430335
  0
VERTEX
  8
PLAN_1
 62
     2
  6
CONTINUOUS
 10
-0.915268
 20
1.430335
  0
VERTEX
  8
PLAN_1
 62
     2
  6
CONTINUOUS
 10
-0.915787
 20
1.434504
  0
VERTEX
  8
PLAN_1
 62
     2
  6
CONTINUOUS
 10
-0.916307
 20
1.438154
  0
VERTEX
  8
PLAN_1
 62
     2
  6
CONTINUOUS
 10
-0.916831
 20
1.440760
  0
VERTEX
  8
PLAN_1
 62
     2
  6
CONTINUOUS
 10
-0.918394
 20
1.443366
  0
VERTEX
  8
PLAN_1
 62
     2
  6
CONTINUOUS
 10
-0.919957
 20
1.445449
  0
VERTEX
  8
PLAN_1
 62
     2
  6
CONTINUOUS
 10
-0.922043
 20
1.447535
  0
VERTEX
  8
PLAN_1
 62
     2
  6
CONTINUOUS
 10
-0.925169
 20
1.448575
  0
VERTEX
  8
PLAN_1
 62
     2
  6
CONTINUOUS
 10
-0.929339
 20
1.450138
  0
VERTEX
  8
PLAN_1
 62
     2
  6
CONTINUOUS
 10
-0.929339
 20
1.457437
  0
VERTEX
  8
PLAN_1
 62
     2
  6
CONTINUOUS
 10
-0.856374
 20
1.457437
  0
SEQEND
  8
0
  0
POLYLINE
  8
PLAN_1
 62
     2
  6
CONTINUOUS
 66
     1
 40
0.003000
 41
0.003000
  0
VERTEX
  8
PLAN_1
 62
     2
  6
CONTINUOUS
 10
-0.898591
 20
1.492874
  0
VERTEX
  8
PLAN_1
 62
     2
  6
CONTINUOUS
 10
-0.899630
 20
1.494437
  0
VERTEX
  8
PLAN_1
 62
     2
  6
CONTINUOUS
 10
-0.900673
 20
1.495480
  0
VERTEX
  8
PLAN_1
 62
     2
  6
CONTINUOUS
 10
-0.901197
 20
1.497043
  0
VERTEX
  8
PLAN_1
 62
     2
  6
CONTINUOUS
 10
-0.901717
 20
1.498606
  0
VERTEX
  8
PLAN_1
 62
     2
  6
CONTINUOUS
 10
-0.902760
 20
1.500693
  0
VERTEX
  8
PLAN_1
 62
     2
  6
CONTINUOUS
 10
-0.902760
 20
1.502776
  0
VERTEX
  8
PLAN_1
 62
     2
  6
CONTINUOUS
 10
-0.903280
 20
1.504862
  0
VERTEX
  8
PLAN_1
 62
     2
  6
CONTINUOUS
 10
-0.903280
 20
1.506945
  0
VERTEX
  8
PLAN_1
 62
     2
  6
CONTINUOUS
 10
-0.902760
 20
1.511638
  0
VERTEX
  8
PLAN_1
 62
     2
  6
CONTINUOUS
 10
-0.901717
 20
1.515807
  0
VERTEX
  8
PLAN_1
 62
     2
  6
CONTINUOUS
 10
-0.900154
 20
1.519976
  0
VERTEX
  8
PLAN_1
 62
     2
  6
CONTINUOUS
 10
-0.897028
 20
1.523622
  0
VERTEX
  8
PLAN_1
 62
     2
  6
CONTINUOUS
 10
-0.893898
 20
1.526752
  0
VERTEX
  8
PLAN_1
 62
     2
  6
CONTINUOUS
 10
-0.889728
 20
1.529354
  0
VERTEX
  8
PLAN_1
 62
     2
  6
CONTINUOUS
 10
-0.887646
 20
1.529878
  0
VERTEX
  8
PLAN_1
 62
     2
  6
CONTINUOUS
 10
-0.885039
 20
1.530398
  0
VERTEX
  8
PLAN_1
 62
     2
  6
CONTINUOUS
 10
-0.882433
 20
1.530921
  0
VERTEX
  8
PLAN_1
 62
     2
  6
CONTINUOUS
 10
-0.879827
 20
1.531441
  0
VERTEX
  8
PLAN_1
 62
     2
  6
CONTINUOUS
 10
-0.876701
 20
1.530921
  0
VERTEX
  8
PLAN_1
 62
     2
  6
CONTINUOUS
 10
-0.872531
 20
1.530398
  0
VERTEX
  8
PLAN_1
 62
     2
  6
CONTINUOUS
 10
-0.868362
 20
1.528835
  0
VERTEX
  8
PLAN_1
 62
     2
  6
CONTINUOUS
 10
-0.864193
 20
1.526752
  0
VERTEX
  8
PLAN_1
 62
     2
  6
CONTINUOUS
 10
-0.862106
 20
1.525185
  0
VERTEX
  8
PLAN_1
 62
     2
  6
CONTINUOUS
 10
-0.860024
 20
1.523102
  0
VERTEX
  8
PLAN_1
 62
     2
  6
CONTINUOUS
 10
-0.858461
 20
1.521016
  0
VERTEX
  8
PLAN_1
 62
     2
  6
CONTINUOUS
 10
-0.856898
 20
1.518413
  0
VERTEX
  8
PLAN_1
 62
     2
  6
CONTINUOUS
 10
-0.855854
 20
1.515807
  0
VERTEX
  8
PLAN_1
 62
     2
  6
CONTINUOUS
 10
-0.854811
 20
1.512157
  0
VERTEX
  8
PLAN_1
 62
     2
  6
CONTINUOUS
 10
-0.854291
 20
1.508508
  0
VERTEX
  8
PLAN_1
 62
     2
  6
CONTINUOUS
 10
-0.854291
 20
1.504862
  0
VERTEX
  8
PLAN_1
 62
     2
  6
CONTINUOUS
 10
-0.854291
 20
1.501213
  0
VERTEX
  8
PLAN_1
 62
     2
  6
CONTINUOUS
 10
-0.855335
 20
1.497043
  0
VERTEX
  8
PLAN_1
 62
     2
  6
CONTINUOUS
 10
-0.856374
 20
1.493398
  0
VERTEX
  8
PLAN_1
 62
     2
  6
CONTINUOUS
 10
-0.857937
 20
1.489748
  0
VERTEX
  8
PLAN_1
 62
     2
  6
CONTINUOUS
 10
-0.861067
 20
1.486622
  0
VERTEX
  8
PLAN_1
 62
     2
  6
CONTINUOUS
 10
-0.864193
 20
1.484016
  0
VERTEX
  8
PLAN_1
 62
     2
  6
CONTINUOUS
 10
-0.866276
 20
1.482972
  0
VERTEX
  8
PLAN_1
 62
     2
  6
CONTINUOUS
 10
-0.868882
 20
1.481929
  0
VERTEX
  8
PLAN_1
 62
     2
  6
CONTINUOUS
 10
-0.871488
 20
1.481409
  0
VERTEX
  8
PLAN_1
 62
     2
  6
CONTINUOUS
 10
-0.874614
 20
1.480890
  0
VERTEX
  8
PLAN_1
 62
     2
  6
CONTINUOUS
 10
-0.874614
 20
1.490268
  0
VERTEX
  8
PLAN_1
 62
     2
  6
CONTINUOUS
 10
-0.871488
 20
1.491311
  0
VERTEX
  8
PLAN_1
 62
     2
  6
CONTINUOUS
 10
-0.868882
 20
1.492354
  0
VERTEX
  8
PLAN_1
 62
     2
  6
CONTINUOUS
 10
-0.866799
 20
1.493398
  0
VERTEX
  8
PLAN_1
 62
     2
  6
CONTINUOUS
 10
-0.865236
 20
1.495480
  0
VERTEX
  8
PLAN_1
 62
     2
  6
CONTINUOUS
 10
-0.863673
 20
1.497567
  0
VERTEX
  8
PLAN_1
 62
     2
  6
CONTINUOUS
 10
-0.862630
 20
1.500169
  0
VERTEX
  8
PLAN_1
 62
     2
  6
CONTINUOUS
 10
-0.862106
 20
1.502776
  0
VERTEX
  8
PLAN_1
 62
     2
  6
CONTINUOUS
 10
-0.862106
 20
1.505906
  0
VERTEX
  8
PLAN_1
 62
     2
  6
CONTINUOUS
 10
-0.862630
 20
1.509551
  0
VERTEX
  8
PLAN_1
 62
     2
  6
CONTINUOUS
 10
-0.863673
 20
1.512157
  0
VERTEX
  8
PLAN_1
 62
     2
  6
CONTINUOUS
 10
-0.865236
 20
1.515283
  0
VERTEX
  8
PLAN_1
 62
     2
  6
CONTINUOUS
 10
-0.867319
 20
1.517370
  0
VERTEX
  8
PLAN_1
 62
     2
  6
CONTINUOUS
 10
-0.869406
 20
1.518933
  0
VERTEX
  8
PLAN_1
 62
     2
  6
CONTINUOUS
 10
-0.872531
 20
1.520496
  0
VERTEX
  8
PLAN_1
 62
     2
  6
CONTINUOUS
 10
-0.875657
 20
1.521016
  0
VERTEX
  8
PLAN_1
 62
     2
  6
CONTINUOUS
 10
-0.878783
 20
1.521539
  0
VERTEX
  8
PLAN_1
 62
     2
  6
CONTINUOUS
 10
-0.882433
 20
1.521016
  0
VERTEX
  8
PLAN_1
 62
     2
  6
CONTINUOUS
 10
-0.886083
 20
1.519976
  0
VERTEX
  8
PLAN_1
 62
     2
  6
CONTINUOUS
 10
-0.888689
 20
1.518413
  0
VERTEX
  8
PLAN_1
 62
     2
  6
CONTINUOUS
 10
-0.890772
 20
1.516846
  0
VERTEX
  8
PLAN_1
 62
     2
  6
CONTINUOUS
 10
-0.892858
 20
1.514244
  0
VERTEX
  8
PLAN_1
 62
     2
  6
CONTINUOUS
 10
-0.893898
 20
1.511638
  0
VERTEX
  8
PLAN_1
 62
     2
  6
CONTINUOUS
 10
-0.894941
 20
1.508508
  0
VERTEX
  8
PLAN_1
 62
     2
  6
CONTINUOUS
 10
-0.894941
 20
1.505382
  0
VERTEX
  8
PLAN_1
 62
     2
  6
CONTINUOUS
 10
-0.894941
 20
1.503299
  0
VERTEX
  8
PLAN_1
 62
     2
  6
CONTINUOUS
 10
-0.894421
 20
1.501213
  0
VERTEX
  8
PLAN_1
 62
     2
  6
CONTINUOUS
 10
-0.893898
 20
1.499650
  0
VERTEX
  8
PLAN_1
 62
     2
  6
CONTINUOUS
 10
-0.893378
 20
1.497567
  0
VERTEX
  8
PLAN_1
 62
     2
  6
CONTINUOUS
 10
-0.892335
 20
1.496000
  0
VERTEX
  8
PLAN_1
 62
     2
  6
CONTINUOUS
 10
-0.891291
 20
1.494437
  0
VERTEX
  8
PLAN_1
 62
     2
  6
CONTINUOUS
 10
-0.889728
 20
1.492874
  0
VERTEX
  8
PLAN_1
 62
     2
  6
CONTINUOUS
 10
-0.888165
 20
1.491831
  0
VERTEX
  8
PLAN_1
 62
     2
  6
CONTINUOUS
 10
-0.888689
 20
1.483492
  0
VERTEX
  8
PLAN_1
 62
     2
  6
CONTINUOUS
 10
-0.927776
 20
1.489228
  0
VERTEX
  8
PLAN_1
 62
     2
  6
CONTINUOUS
 10
-0.927776
 20
1.527272
  0
VERTEX
  8
PLAN_1
 62
     2
  6
CONTINUOUS
 10
-0.918913
 20
1.527272
  0
VERTEX
  8
PLAN_1
 62
     2
  6
CONTINUOUS
 10
-0.918913
 20
1.496000
  0
VERTEX
  8
PLAN_1
 62
     2
  6
CONTINUOUS
 10
-0.898591
 20
1.492874
  0
SEQEND
  8
0
  0
POLYLINE
  8
PLAN_1
 62
     2
  6
CONTINUOUS
 66
     1
 40
0.003000
 41
0.003000
  0
VERTEX
  8
PLAN_1
 62
     2
  6
CONTINUOUS
 10
-0.867319
 20
1.544469
  0
VERTEX
  8
PLAN_1
 62
     2
  6
CONTINUOUS
 10
-0.867319
 20
1.555413
  0
VERTEX
  8
PLAN_1
 62
     2
  6
CONTINUOUS
 10
-0.856898
 20
1.555413
  0
VERTEX
  8
PLAN_1
 62
     2
  6
CONTINUOUS
 10
-0.852205
 20
1.554894
  0
VERTEX
  8
PLAN_1
 62
     2
  6
CONTINUOUS
 10
-0.848559
 20
1.553850
  0
VERTEX
  8
PLAN_1
 62
     2
  6
CONTINUOUS
 10
-0.845953
 20
1.552807
  0
VERTEX
  8
PLAN_1
 62
     2
  6
CONTINUOUS
 10
-0.843866
 20
1.550724
  0
VERTEX
  8
PLAN_1
 62
     2
  6
CONTINUOUS
 10
-0.842303
 20
1.549161
  0
VERTEX
  8
PLAN_1
 62
     2
  6
CONTINUOUS
 10
-0.841783
 20
1.547075
  0
VERTEX
  8
PLAN_1
 62
     2
  6
CONTINUOUS
 10
-0.841260
 20
1.545512
  0
VERTEX
  8
PLAN_1
 62
     2
  6
CONTINUOUS
 10
-0.840740
 20
1.544469
  0
VERTEX
  8
PLAN_1
 62
     2
  6
CONTINUOUS
 10
-0.845429
 20
1.544469
  0
VERTEX
  8
PLAN_1
 62
     2
  6
CONTINUOUS
 10
-0.845953
 20
1.546031
  0
VERTEX
  8
PLAN_1
 62
     2
  6
CONTINUOUS
 10
-0.846996
 20
1.547598
  0
VERTEX
  8
PLAN_1
 62
     2
  6
CONTINUOUS
 10
-0.848035
 20
1.548118
  0
VERTEX
  8
PLAN_1
 62
     2
  6
CONTINUOUS
 10
-0.849079
 20
1.549161
  0
VERTEX
  8
PLAN_1
 62
     2
  6
CONTINUOUS
 10
-0.850642
 20
1.549681
  0
VERTEX
  8
PLAN_1
 62
     2
  6
CONTINUOUS
 10
-0.852728
 20
1.549681
  0
VERTEX
  8
PLAN_1
 62
     2
  6
CONTINUOUS
 10
-0.854291
 20
1.550201
  0
VERTEX
  8
PLAN_1
 62
     2
  6
CONTINUOUS
 10
-0.856374
 20
1.550201
  0
VERTEX
  8
PLAN_1
 62
     2
  6
CONTINUOUS
 10
-0.856374
 20
1.544469
  0
VERTEX
  8
PLAN_1
 62
     2
  6
CONTINUOUS
 10
-0.867319
 20
1.544469
  0
SEQEND
  8
0
  0
POLYLINE
  8
PLAN_1
 62
     2
  6
CONTINUOUS
 66
     1
 40
0.003000
 41
0.003000
  0
VERTEX
  8
PLAN_1
 62
     2
  6
CONTINUOUS
 10
-0.898591
 20
1.579909
  0
VERTEX
  8
PLAN_1
 62
     2
  6
CONTINUOUS
 10
-0.899630
 20
1.580953
  0
VERTEX
  8
PLAN_1
 62
     2
  6
CONTINUOUS
 10
-0.900673
 20
1.582516
  0
VERTEX
  8
PLAN_1
 62
     2
  6
CONTINUOUS
 10
-0.901197
 20
1.584079
  0
VERTEX
  8
PLAN_1
 62
     2
  6
CONTINUOUS
 10
-0.901717
 20
1.585642
  0
VERTEX
  8
PLAN_1
 62
     2
  6
CONTINUOUS
 10
-0.902760
 20
1.587205
  0
VERTEX
  8
PLAN_1
 62
     2
  6
CONTINUOUS
 10
-0.902760
 20
1.589291
  0
VERTEX
  8
PLAN_1
 62
     2
  6
CONTINUOUS
 10
-0.903280
 20
1.591374
  0
VERTEX
  8
PLAN_1
 62
     2
  6
CONTINUOUS
 10
-0.903280
 20
1.593980
  0
VERTEX
  8
PLAN_1
 62
     2
  6
CONTINUOUS
 10
-0.902760
 20
1.598669
  0
VERTEX
  8
PLAN_1
 62
     2
  6
CONTINUOUS
 10
-0.901717
 20
1.602839
  0
VERTEX
  8
PLAN_1
 62
     2
  6
CONTINUOUS
 10
-0.900154
 20
1.607008
  0
VERTEX
  8
PLAN_1
 62
     2
  6
CONTINUOUS
 10
-0.897028
 20
1.610657
  0
VERTEX
  8
PLAN_1
 62
     2
  6
CONTINUOUS
 10
-0.893898
 20
1.613783
  0
VERTEX
  8
PLAN_1
 62
     2
  6
CONTINUOUS
 10
-0.889728
 20
1.615870
  0
VERTEX
  8
PLAN_1
 62
     2
  6
CONTINUOUS
 10
-0.887646
 20
1.616909
  0
VERTEX
  8
PLAN_1
 62
     2
  6
CONTINUOUS
 10
-0.885039
 20
1.617433
  0
VERTEX
  8
PLAN_1
 62
     2
  6
CONTINUOUS
 10
-0.882433
 20
1.617953
  0
VERTEX
  8
PLAN_1
 62
     2
  6
CONTINUOUS
 10
-0.879827
 20
1.617953
  0
VERTEX
  8
PLAN_1
 62
     2
  6
CONTINUOUS
 10
-0.876701
 20
1.617953
  0
VERTEX
  8
PLAN_1
 62
     2
  6
CONTINUOUS
 10
-0.872531
 20
1.616909
  0
VERTEX
  8
PLAN_1
 62
     2
  6
CONTINUOUS
 10
-0.868362
 20
1.615870
  0
VERTEX
  8
PLAN_1
 62
     2
  6
CONTINUOUS
 10
-0.864193
 20
1.613264
  0
VERTEX
  8
PLAN_1
 62
     2
  6
CONTINUOUS
 10
-0.862106
 20
1.611701
  0
VERTEX
  8
PLAN_1
 62
     2
  6
CONTINUOUS
 10
-0.860024
 20
1.610138
  0
VERTEX
  8
PLAN_1
 62
     2
  6
CONTINUOUS
 10
-0.858461
 20
1.607531
  0
VERTEX
  8
PLAN_1
 62
     2
  6
CONTINUOUS
 10
-0.856898
 20
1.605445
  0
VERTEX
  8
PLAN_1
 62
     2
  6
CONTINUOUS
 10
-0.855854
 20
1.602319
  0
VERTEX
  8
PLAN_1
 62
     2
  6
CONTINUOUS
 10
-0.854811
 20
1.599193
  0
VERTEX
  8
PLAN_1
 62
     2
  6
CONTINUOUS
 10
-0.854291
 20
1.595543
  0
VERTEX
  8
PLAN_1
 62
     2
  6
CONTINUOUS
 10
-0.854291
 20
1.591374
  0
VERTEX
  8
PLAN_1
 62
     2
  6
CONTINUOUS
 10
-0.854291
 20
1.587724
  0
VERTEX
  8
PLAN_1
 62
     2
  6
CONTINUOUS
 10
-0.855335
 20
1.584079
  0
VERTEX
  8
PLAN_1
 62
     2
  6
CONTINUOUS
 10
-0.856374
 20
1.580429
  0
VERTEX
  8
PLAN_1
 62
     2
  6
CONTINUOUS
 10
-0.857937
 20
1.576783
  0
VERTEX
  8
PLAN_1
 62
     2
  6
CONTINUOUS
 10
-0.861067
 20
1.573654
  0
VERTEX
  8
PLAN_1
 62
     2
  6
CONTINUOUS
 10
-0.864193
 20
1.571047
  0
VERTEX
  8
PLAN_1
 62
     2
  6
CONTINUOUS
 10
-0.866276
 20
1.570008
  0
VERTEX
  8
PLAN_1
 62
     2
  6
CONTINUOUS
 10
-0.868882
 20
1.568965
  0
VERTEX
  8
PLAN_1
 62
     2
  6
CONTINUOUS
 10
-0.871488
 20
1.568445
  0
VERTEX
  8
PLAN_1
 62
     2
  6
CONTINUOUS
 10
-0.874614
 20
1.567921
  0
VERTEX
  8
PLAN_1
 62
     2
  6
CONTINUOUS
 10
-0.874614
 20
1.577303
  0
VERTEX
  8
PLAN_1
 62
     2
  6
CONTINUOUS
 10
-0.871488
 20
1.577823
  0
VERTEX
  8
PLAN_1
 62
     2
  6
CONTINUOUS
 10
-0.868882
 20
1.578866
  0
VERTEX
  8
PLAN_1
 62
     2
  6
CONTINUOUS
 10
-0.866799
 20
1.580429
  0
VERTEX
  8
PLAN_1
 62
     2
  6
CONTINUOUS
 10
-0.865236
 20
1.582516
  0
VERTEX
  8
PLAN_1
 62
     2
  6
CONTINUOUS
 10
-0.863673
 20
1.584598
  0
VERTEX
  8
PLAN_1
 62
     2
  6
CONTINUOUS
 10
-0.862630
 20
1.587205
  0
VERTEX
  8
PLAN_1
 62
     2
  6
CONTINUOUS
 10
-0.862106
 20
1.589811
  0
VERTEX
  8
PLAN_1
 62
     2
  6
CONTINUOUS
 10
-0.862106
 20
1.592937
  0
VERTEX
  8
PLAN_1
 62
     2
  6
CONTINUOUS
 10
-0.862630
 20
1.596063
  0
VERTEX
  8
PLAN_1
 62
     2
  6
CONTINUOUS
 10
-0.863673
 20
1.599193
  0
VERTEX
  8
PLAN_1
 62
     2
  6
CONTINUOUS
 10
-0.865236
 20
1.601799
  0
VERTEX
  8
PLAN_1
 62
     2
  6
CONTINUOUS
 10
-0.867319
 20
1.603882
  0
VERTEX
  8
PLAN_1
 62
     2
  6
CONTINUOUS
 10
-0.869406
 20
1.605969
  0
VERTEX
  8
PLAN_1
 62
     2
  6
CONTINUOUS
 10
-0.872531
 20
1.607008
  0
VERTEX
  8
PLAN_1
 62
     2
  6
CONTINUOUS
 10
-0.875657
 20
1.608051
  0
VERTEX
  8
PLAN_1
 62
     2
  6
CONTINUOUS
 10
-0.878783
 20
1.608051
  0
VERTEX
  8
PLAN_1
 62
     2
  6
CONTINUOUS
 10
-0.882433
 20
1.608051
  0
VERTEX
  8
PLAN_1
 62
     2
  6
CONTINUOUS
 10
-0.886083
 20
1.607008
  0
VERTEX
  8
PLAN_1
 62
     2
  6
CONTINUOUS
 10
-0.888689
 20
1.605445
  0
VERTEX
  8
PLAN_1
 62
     2
  6
CONTINUOUS
 10
-0.890772
 20
1.603362
  0
VERTEX
  8
PLAN_1
 62
     2
  6
CONTINUOUS
 10
-0.892858
 20
1.601276
  0
VERTEX
  8
PLAN_1
 62
     2
  6
CONTINUOUS
 10
-0.893898
 20
1.598150
  0
VERTEX
  8
PLAN_1
 62
     2
  6
CONTINUOUS
 10
-0.894941
 20
1.595543
  0
VERTEX
  8
PLAN_1
 62
     2
  6
CONTINUOUS
 10
-0.894941
 20
1.591894
  0
VERTEX
  8
PLAN_1
 62
     2
  6
CONTINUOUS
 10
-0.894941
 20
1.589811
  0
VERTEX
  8
PLAN_1
 62
     2
  6
CONTINUOUS
 10
-0.894421
 20
1.588248
  0
VERTEX
  8
PLAN_1
 62
     2
  6
CONTINUOUS
 10
-0.893898
 20
1.586161
  0
VERTEX
  8
PLAN_1
 62
     2
  6
CONTINUOUS
 10
-0.893378
 20
1.584598
  0
VERTEX
  8
PLAN_1
 62
     2
  6
CONTINUOUS
 10
-0.892335
 20
1.583035
  0
VERTEX
  8
PLAN_1
 62
     2
  6
CONTINUOUS
 10
-0.891291
 20
1.581472
  0
VERTEX
  8
PLAN_1
 62
     2
  6
CONTINUOUS
 10
-0.889728
 20
1.579909
  0
VERTEX
  8
PLAN_1
 62
     2
  6
CONTINUOUS
 10
-0.888165
 20
1.578346
  0
VERTEX
  8
PLAN_1
 62
     2
  6
CONTINUOUS
 10
-0.888689
 20
1.570528
  0
VERTEX
  8
PLAN_1
 62
     2
  6
CONTINUOUS
 10
-0.927776
 20
1.576260
  0
VERTEX
  8
PLAN_1
 62
     2
  6
CONTINUOUS
 10
-0.927776
 20
1.613783
  0
VERTEX
  8
PLAN_1
 62
     2
  6
CONTINUOUS
 10
-0.918913
 20
1.613783
  0
VERTEX
  8
PLAN_1
 62
     2
  6
CONTINUOUS
 10
-0.918913
 20
1.583035
  0
VERTEX
  8
PLAN_1
 62
     2
  6
CONTINUOUS
 10
-0.898591
 20
1.579909
  0
SEQEND
  8
0
  0
POLYLINE
  8
PLAN_1
 62
     2
  6
CONTINUOUS
 66
     1
 40
0.004169
 41
0.004169
  0
VERTEX
  8
PLAN_1
 62
     2
  6
CONTINUOUS
 10
-0.808949
 20
-0.774701
  0
VERTEX
  8
PLAN_1
 62
     2
  6
CONTINUOUS
 10
-0.966339
 20
-0.774701
  0
SEQEND
  8
0
  0
POLYLINE
  8
PLAN_1
 62
     2
  6
CONTINUOUS
 66
     1
 40
0.004169
 41
0.004169
  0
VERTEX
  8
PLAN_1
 62
     2
  6
CONTINUOUS
 10
-0.988752
 20
2.144850
  0
VERTEX
  8
PLAN_1
 62
     2
  6
CONTINUOUS
 10
-0.988752
 20
4.095035
  0
SEQEND
  8
0
  0
POLYLINE
  8
PLAN_1
 62
     2
  6
CONTINUOUS
 66
     1
 40
0.004169
 41
0.004169
  0
VERTEX
  8
PLAN_1
 62
     2
  6
CONTINUOUS
 10
-0.808949
 20
3.758886
  0
VERTEX
  8
PLAN_1
 62
     2
  6
CONTINUOUS
 10
-0.965819
 20
3.758886
  0
SEQEND
  8
0
  0
POLYLINE
  8
PLAN_1
 62
     2
  6
CONTINUOUS
 66
     1
 40
0.004169
 41
0.004169
  0
VERTEX
  8
PLAN_1
 62
     2
  6
CONTINUOUS
 10
-1.012724
 20
3.758886
  0
VERTEX
  8
PLAN_1
 62
     2
  6
CONTINUOUS
 10
-1.427047
 20
3.758886
  0
SEQEND
  8
0
  0
ENDSEC
  0
EOF
