  0
SECTION
  2
HEADER
  9
$ACADVER
  1
AC1006
  9
$EXTMIN
 10
-2.397000
 20
-4.600610
  9
$EXTMAX
 10
2.394000
 20
4.604000
  9
$LTSCALE
 40
0.000394
  9
$PDMODE
 70
    35
  9
$PDSIZE
 40
0.000315
  0
ENDSEC
  0
SECTION
  2
TABLES
  0
TABLE
  2
LTYPE
 70
     9
  0
LTYPE
  2
CONTINUOUS
 70
    64
  3
Solid line
 72
    65
 73
     0
 40
0.000000
  0
LTYPE
  2
DASHED
 70
    64
  3
__ __ __ __ __ __ __ __ __ __ __ __ __ __ __
 72
    65
 73
     2
 40
0.000003
 49
0.000002
 49
-0.000001
  0
LTYPE
  2
HIDDEN
 70
    64
  3
 _ _ _ _ _ _ _ _ _ _ _ _ _ _ _ _ _ _ _ _ _ _
 72
    65
 73
     2
 40
0.000001
 49
0.000001
 49
-0.000000
  0
LTYPE
  2
CENTER
 70
    64
  3
____ _ ____ _ ____ _ ____ _ ____ _ ____ _ ____
 72
    65
 73
     4
 40
0.000008
 49
0.000005
 49
-0.000001
 49
0.000001
 49
-0.000001
  0
LTYPE
  2
PHANTOM
 70
    64
  3
_____ _ _ _____ _ _ _____ _ _ _____ _ _ ____
 72
    65
 73
     6
 40
0.000010
 49
0.000005
 49
-0.000001
 49
0.000001
 49
-0.000001
 49
0.000001
 49
-0.000001
  0
LTYPE
  2
DOT
 70
    64
  3
...............................................
 72
    65
 73
     2
 40
0.000001
 49
0.000000
 49
-0.000001
  0
LTYPE
  2
DASHDOT
 70
    64
  3
__ . __ . __ . __ . __ . __ . __ . __ . __ . __
 72
    65
 73
     4
 40
0.000004
 49
0.000002
 49
-0.000001
 49
0.000000
 49
-0.000001
  0
LTYPE
  2
BORDER
 70
    64
  3
__ __ . __ __ . __ __ . __ __ . __ __ . __ __
 72
    65
 73
     6
 40
0.000007
 49
0.000002
 49
-0.000001
 49
0.000002
 49
-0.000001
 49
0.000000
 49
-0.000001
  0
LTYPE
  2
DIVIDE
 70
    64
  3
__ . . __ . . __ . . __ . . __ . . __ . . __
 72
    65
 73
     6
 40
0.000005
 49
0.000002
 49
-0.000001
 49
0.000000
 49
-0.000001
 49
0.000000
 49
-0.000001
  0
LTYPE
  2
DOTDOT
 70
    64
  3
 . .  . .  . .  . .  . .  . . 
 72
    65
 73
     5
 40
0.000002
 49
-0.000001
 49
0.000000
 49
-0.000001
 49
0.000000
 49
-0.000001
  0
ENDTAB
  0
TABLE
  2
STYLE
 70
     0
  0
ENDTAB
  0
TABLE
  2
LAYER
 70
     3
  0
LAYER
  2
FOREGROUND
 70
    64
 62
     7
  6
CONTINUOUS
  0
LAYER
  2
BACKGROUND
 70
    65
 62
    -7
  6
CONTINUOUS
  0
LAYER
  2
PLAN_1
 70
    64
 62
     7
  6
CONTINUOUS
  0
ENDTAB
  0
ENDSEC
  0
SECTION
  2
ENTITIES
  0
POLYLINE
  8
PLAN_1
  6
CONTINUOUS
 66
     1
 40
0.003000
 41
0.003000
  0
VERTEX
  8
PLAN_1
  6
CONTINUOUS
 10
0.534669
 20
-4.595433
  0
VERTEX
  8
PLAN_1
  6
CONTINUOUS
 10
0.501303
 20
-4.595433
  0
VERTEX
  8
PLAN_1
  6
CONTINUOUS
 10
0.447799
 20
-4.513744
  0
VERTEX
  8
PLAN_1
  6
CONTINUOUS
 10
0.392571
 20
-4.595433
  0
VERTEX
  8
PLAN_1
  6
CONTINUOUS
 10
0.360354
 20
-4.595433
  0
VERTEX
  8
PLAN_1
  6
CONTINUOUS
 10
0.431693
 20
-4.493031
  0
VERTEX
  8
PLAN_1
  6
CONTINUOUS
 10
0.364382
 20
-4.395807
  0
VERTEX
  8
PLAN_1
  6
CONTINUOUS
 10
0.398327
 20
-4.395807
  0
VERTEX
  8
PLAN_1
  6
CONTINUOUS
 10
0.448949
 20
-4.472323
  0
VERTEX
  8
PLAN_1
  6
CONTINUOUS
 10
0.499575
 20
-4.395807
  0
VERTEX
  8
PLAN_1
  6
CONTINUOUS
 10
0.531791
 20
-4.395807
  0
VERTEX
  8
PLAN_1
  6
CONTINUOUS
 10
0.464484
 20
-4.493031
  0
VERTEX
  8
PLAN_1
  6
CONTINUOUS
 10
0.534669
 20
-4.595433
  0
SEQEND
  8
0
  0
POLYLINE
  8
PLAN_1
  6
CONTINUOUS
 66
     1
 40
0.003000
 41
0.003000
  0
VERTEX
  8
PLAN_1
  6
CONTINUOUS
 10
0.700925
 20
-4.456213
  0
VERTEX
  8
PLAN_1
  6
CONTINUOUS
 10
0.699201
 20
-4.449886
  0
VERTEX
  8
PLAN_1
  6
CONTINUOUS
 10
0.697476
 20
-4.444134
  0
VERTEX
  8
PLAN_1
  6
CONTINUOUS
 10
0.694598
 20
-4.438957
  0
VERTEX
  8
PLAN_1
  6
CONTINUOUS
 10
0.691720
 20
-4.434929
  0
VERTEX
  8
PLAN_1
  6
CONTINUOUS
 10
0.688846
 20
-4.430902
  0
VERTEX
  8
PLAN_1
  6
CONTINUOUS
 10
0.685394
 20
-4.427449
  0
VERTEX
  8
PLAN_1
  6
CONTINUOUS
 10
0.681366
 20
-4.424571
  0
VERTEX
  8
PLAN_1
  6
CONTINUOUS
 10
0.677339
 20
-4.422272
  0
VERTEX
  8
PLAN_1
  6
CONTINUOUS
 10
0.673315
 20
-4.419969
  0
VERTEX
  8
PLAN_1
  6
CONTINUOUS
 10
0.669287
 20
-4.418244
  0
VERTEX
  8
PLAN_1
  6
CONTINUOUS
 10
0.665260
 20
-4.417094
  0
VERTEX
  8
PLAN_1
  6
CONTINUOUS
 10
0.661232
 20
-4.415945
  0
VERTEX
  8
PLAN_1
  6
CONTINUOUS
 10
0.652602
 20
-4.414791
  0
VERTEX
  8
PLAN_1
  6
CONTINUOUS
 10
0.645122
 20
-4.414791
  0
VERTEX
  8
PLAN_1
  6
CONTINUOUS
 10
0.638795
 20
-4.414791
  0
VERTEX
  8
PLAN_1
  6
CONTINUOUS
 10
0.631894
 20
-4.415945
  0
VERTEX
  8
PLAN_1
  6
CONTINUOUS
 10
0.625563
 20
-4.417669
  0
VERTEX
  8
PLAN_1
  6
CONTINUOUS
 10
0.619811
 20
-4.419394
  0
VERTEX
  8
PLAN_1
  6
CONTINUOUS
 10
0.614059
 20
-4.422272
  0
VERTEX
  8
PLAN_1
  6
CONTINUOUS
 10
0.608882
 20
-4.425724
  0
VERTEX
  8
PLAN_1
  6
CONTINUOUS
 10
0.603705
 20
-4.429752
  0
VERTEX
  8
PLAN_1
  6
CONTINUOUS
 10
0.599102
 20
-4.434354
  0
VERTEX
  8
PLAN_1
  6
CONTINUOUS
 10
0.595075
 20
-4.439531
  0
VERTEX
  8
PLAN_1
  6
CONTINUOUS
 10
0.591047
 20
-4.445858
  0
VERTEX
  8
PLAN_1
  6
CONTINUOUS
 10
0.587594
 20
-4.452185
  0
VERTEX
  8
PLAN_1
  6
CONTINUOUS
 10
0.585295
 20
-4.459091
  0
VERTEX
  8
PLAN_1
  6
CONTINUOUS
 10
0.582992
 20
-4.467146
  0
VERTEX
  8
PLAN_1
  6
CONTINUOUS
 10
0.581268
 20
-4.475197
  0
VERTEX
  8
PLAN_1
  6
CONTINUOUS
 10
0.580118
 20
-4.484402
  0
VERTEX
  8
PLAN_1
  6
CONTINUOUS
 10
0.580118
 20
-4.493606
  0
VERTEX
  8
PLAN_1
  6
CONTINUOUS
 10
0.580118
 20
-4.502236
  0
VERTEX
  8
PLAN_1
  6
CONTINUOUS
 10
0.580693
 20
-4.510866
  0
VERTEX
  8
PLAN_1
  6
CONTINUOUS
 10
0.581843
 20
-4.518921
  0
VERTEX
  8
PLAN_1
  6
CONTINUOUS
 10
0.583567
 20
-4.526398
  0
VERTEX
  8
PLAN_1
  6
CONTINUOUS
 10
0.585295
 20
-4.533878
  0
VERTEX
  8
PLAN_1
  6
CONTINUOUS
 10
0.587594
 20
-4.540780
  0
VERTEX
  8
PLAN_1
  6
CONTINUOUS
 10
0.591047
 20
-4.547110
  0
VERTEX
  8
PLAN_1
  6
CONTINUOUS
 10
0.594500
 20
-4.552862
  0
VERTEX
  8
PLAN_1
  6
CONTINUOUS
 10
0.598524
 20
-4.558039
  0
VERTEX
  8
PLAN_1
  6
CONTINUOUS
 10
0.603705
 20
-4.562642
  0
VERTEX
  8
PLAN_1
  6
CONTINUOUS
 10
0.608882
 20
-4.566669
  0
VERTEX
  8
PLAN_1
  6
CONTINUOUS
 10
0.614634
 20
-4.570122
  0
VERTEX
  8
PLAN_1
  6
CONTINUOUS
 10
0.621535
 20
-4.572996
  0
VERTEX
  8
PLAN_1
  6
CONTINUOUS
 10
0.629016
 20
-4.575299
  0
VERTEX
  8
PLAN_1
  6
CONTINUOUS
 10
0.637071
 20
-4.576449
  0
VERTEX
  8
PLAN_1
  6
CONTINUOUS
 10
0.646276
 20
-4.577024
  0
VERTEX
  8
PLAN_1
  6
CONTINUOUS
 10
0.653177
 20
-4.576449
  0
VERTEX
  8
PLAN_1
  6
CONTINUOUS
 10
0.661232
 20
-4.574724
  0
VERTEX
  8
PLAN_1
  6
CONTINUOUS
 10
0.665260
 20
-4.573571
  0
VERTEX
  8
PLAN_1
  6
CONTINUOUS
 10
0.669287
 20
-4.571846
  0
VERTEX
  8
PLAN_1
  6
CONTINUOUS
 10
0.673315
 20
-4.569547
  0
VERTEX
  8
PLAN_1
  6
CONTINUOUS
 10
0.677913
 20
-4.566669
  0
VERTEX
  8
PLAN_1
  6
CONTINUOUS
 10
0.681941
 20
-4.563791
  0
VERTEX
  8
PLAN_1
  6
CONTINUOUS
 10
0.685394
 20
-4.559764
  0
VERTEX
  8
PLAN_1
  6
CONTINUOUS
 10
0.689421
 20
-4.555161
  0
VERTEX
  8
PLAN_1
  6
CONTINUOUS
 10
0.692874
 20
-4.549984
  0
VERTEX
  8
PLAN_1
  6
CONTINUOUS
 10
0.695748
 20
-4.544232
  0
VERTEX
  8
PLAN_1
  6
CONTINUOUS
 10
0.698626
 20
-4.537906
  0
VERTEX
  8
PLAN_1
  6
CONTINUOUS
 10
0.700925
 20
-4.530425
  0
VERTEX
  8
PLAN_1
  6
CONTINUOUS
 10
0.703228
 20
-4.521795
  0
VERTEX
  8
PLAN_1
  6
CONTINUOUS
 10
0.729114
 20
-4.521795
  0
VERTEX
  8
PLAN_1
  6
CONTINUOUS
 10
0.727965
 20
-4.528701
  0
VERTEX
  8
PLAN_1
  6
CONTINUOUS
 10
0.726240
 20
-4.535602
  0
VERTEX
  8
PLAN_1
  6
CONTINUOUS
 10
0.724512
 20
-4.541354
  0
VERTEX
  8
PLAN_1
  6
CONTINUOUS
 10
0.722787
 20
-4.547110
  0
VERTEX
  8
PLAN_1
  6
CONTINUOUS
 10
0.720488
 20
-4.552287
  0
VERTEX
  8
PLAN_1
  6
CONTINUOUS
 10
0.718185
 20
-4.557465
  0
VERTEX
  8
PLAN_1
  6
CONTINUOUS
 10
0.715311
 20
-4.562067
  0
VERTEX
  8
PLAN_1
  6
CONTINUOUS
 10
0.713008
 20
-4.566094
  0
VERTEX
  8
PLAN_1
  6
CONTINUOUS
 10
0.706681
 20
-4.573571
  0
VERTEX
  8
PLAN_1
  6
CONTINUOUS
 10
0.700350
 20
-4.579902
  0
VERTEX
  8
PLAN_1
  6
CONTINUOUS
 10
0.694024
 20
-4.585079
  0
VERTEX
  8
PLAN_1
  6
CONTINUOUS
 10
0.687118
 20
-4.589681
  0
VERTEX
  8
PLAN_1
  6
CONTINUOUS
 10
0.680217
 20
-4.593134
  0
VERTEX
  8
PLAN_1
  6
CONTINUOUS
 10
0.673315
 20
-4.595433
  0
VERTEX
  8
PLAN_1
  6
CONTINUOUS
 10
0.666409
 20
-4.597736
  0
VERTEX
  8
PLAN_1
  6
CONTINUOUS
 10
0.660083
 20
-4.598886
  0
VERTEX
  8
PLAN_1
  6
CONTINUOUS
 10
0.649724
 20
-4.600610
  0
VERTEX
  8
PLAN_1
  6
CONTINUOUS
 10
0.641673
 20
-4.600610
  0
VERTEX
  8
PLAN_1
  6
CONTINUOUS
 10
0.633618
 20
-4.600035
  0
VERTEX
  8
PLAN_1
  6
CONTINUOUS
 10
0.624988
 20
-4.599461
  0
VERTEX
  8
PLAN_1
  6
CONTINUOUS
 10
0.616933
 20
-4.597157
  0
VERTEX
  8
PLAN_1
  6
CONTINUOUS
 10
0.608882
 20
-4.594858
  0
VERTEX
  8
PLAN_1
  6
CONTINUOUS
 10
0.600827
 20
-4.591406
  0
VERTEX
  8
PLAN_1
  6
CONTINUOUS
 10
0.593925
 20
-4.587378
  0
VERTEX
  8
PLAN_1
  6
CONTINUOUS
 10
0.586445
 20
-4.582201
  0
VERTEX
  8
PLAN_1
  6
CONTINUOUS
 10
0.580118
 20
-4.576449
  0
VERTEX
  8
PLAN_1
  6
CONTINUOUS
 10
0.574362
 20
-4.569547
  0
VERTEX
  8
PLAN_1
  6
CONTINUOUS
 10
0.568610
 20
-4.562067
  0
VERTEX
  8
PLAN_1
  6
CONTINUOUS
 10
0.564008
 20
-4.552862
  0
VERTEX
  8
PLAN_1
  6
CONTINUOUS
 10
0.559980
 20
-4.543657
  0
VERTEX
  8
PLAN_1
  6
CONTINUOUS
 10
0.556531
 20
-4.532728
  0
VERTEX
  8
PLAN_1
  6
CONTINUOUS
 10
0.554228
 20
-4.521220
  0
VERTEX
  8
PLAN_1
  6
CONTINUOUS
 10
0.552504
 20
-4.508563
  0
VERTEX
  8
PLAN_1
  6
CONTINUOUS
 10
0.552504
 20
-4.494760
  0
VERTEX
  8
PLAN_1
  6
CONTINUOUS
 10
0.552504
 20
-4.483252
  0
VERTEX
  8
PLAN_1
  6
CONTINUOUS
 10
0.553654
 20
-4.472323
  0
VERTEX
  8
PLAN_1
  6
CONTINUOUS
 10
0.555953
 20
-4.461965
  0
VERTEX
  8
PLAN_1
  6
CONTINUOUS
 10
0.558831
 20
-4.452764
  0
VERTEX
  8
PLAN_1
  6
CONTINUOUS
 10
0.562283
 20
-4.443559
  0
VERTEX
  8
PLAN_1
  6
CONTINUOUS
 10
0.566311
 20
-4.434929
  0
VERTEX
  8
PLAN_1
  6
CONTINUOUS
 10
0.571488
 20
-4.426874
  0
VERTEX
  8
PLAN_1
  6
CONTINUOUS
 10
0.577240
 20
-4.419969
  0
VERTEX
  8
PLAN_1
  6
CONTINUOUS
 10
0.583567
 20
-4.413067
  0
VERTEX
  8
PLAN_1
  6
CONTINUOUS
 10
0.590472
 20
-4.407315
  0
VERTEX
  8
PLAN_1
  6
CONTINUOUS
 10
0.597949
 20
-4.402713
  0
VERTEX
  8
PLAN_1
  6
CONTINUOUS
 10
0.606004
 20
-4.398110
  0
VERTEX
  8
PLAN_1
  6
CONTINUOUS
 10
0.615209
 20
-4.395232
  0
VERTEX
  8
PLAN_1
  6
CONTINUOUS
 10
0.624413
 20
-4.392933
  0
VERTEX
  8
PLAN_1
  6
CONTINUOUS
 10
0.634768
 20
-4.391205
  0
VERTEX
  8
PLAN_1
  6
CONTINUOUS
 10
0.645122
 20
-4.390630
  0
VERTEX
  8
PLAN_1
  6
CONTINUOUS
 10
0.654327
 20
-4.391205
  0
VERTEX
  8
PLAN_1
  6
CONTINUOUS
 10
0.663531
 20
-4.392358
  0
VERTEX
  8
PLAN_1
  6
CONTINUOUS
 10
0.671587
 20
-4.394083
  0
VERTEX
  8
PLAN_1
  6
CONTINUOUS
 10
0.679067
 20
-4.396382
  0
VERTEX
  8
PLAN_1
  6
CONTINUOUS
 10
0.685969
 20
-4.399260
  0
VERTEX
  8
PLAN_1
  6
CONTINUOUS
 10
0.692874
 20
-4.402713
  0
VERTEX
  8
PLAN_1
  6
CONTINUOUS
 10
0.698626
 20
-4.406740
  0
VERTEX
  8
PLAN_1
  6
CONTINUOUS
 10
0.703803
 20
-4.410768
  0
VERTEX
  8
PLAN_1
  6
CONTINUOUS
 10
0.708980
 20
-4.415370
  0
VERTEX
  8
PLAN_1
  6
CONTINUOUS
 10
0.713008
 20
-4.420547
  0
VERTEX
  8
PLAN_1
  6
CONTINUOUS
 10
0.716461
 20
-4.426299
  0
VERTEX
  8
PLAN_1
  6
CONTINUOUS
 10
0.719909
 20
-4.432051
  0
VERTEX
  8
PLAN_1
  6
CONTINUOUS
 10
0.722787
 20
-4.437803
  0
VERTEX
  8
PLAN_1
  6
CONTINUOUS
 10
0.724512
 20
-4.443559
  0
VERTEX
  8
PLAN_1
  6
CONTINUOUS
 10
0.726240
 20
-4.449886
  0
VERTEX
  8
PLAN_1
  6
CONTINUOUS
 10
0.727390
 20
-4.456213
  0
VERTEX
  8
PLAN_1
  6
CONTINUOUS
 10
0.700925
 20
-4.456213
  0
SEQEND
  8
0
  0
POLYLINE
  8
PLAN_1
  6
CONTINUOUS
 66
     1
 40
0.003000
 41
0.003000
  0
VERTEX
  8
PLAN_1
  6
CONTINUOUS
 10
0.788370
 20
-4.595433
  0
VERTEX
  8
PLAN_1
  6
CONTINUOUS
 10
0.761331
 20
-4.595433
  0
VERTEX
  8
PLAN_1
  6
CONTINUOUS
 10
0.761331
 20
-4.395807
  0
VERTEX
  8
PLAN_1
  6
CONTINUOUS
 10
0.788370
 20
-4.395807
  0
VERTEX
  8
PLAN_1
  6
CONTINUOUS
 10
0.788370
 20
-4.492457
  0
VERTEX
  8
PLAN_1
  6
CONTINUOUS
 10
0.885020
 20
-4.395807
  0
VERTEX
  8
PLAN_1
  6
CONTINUOUS
 10
0.922413
 20
-4.395807
  0
VERTEX
  8
PLAN_1
  6
CONTINUOUS
 10
0.839571
 20
-4.476350
  0
VERTEX
  8
PLAN_1
  6
CONTINUOUS
 10
0.924713
 20
-4.595433
  0
VERTEX
  8
PLAN_1
  6
CONTINUOUS
 10
0.889622
 20
-4.595433
  0
VERTEX
  8
PLAN_1
  6
CONTINUOUS
 10
0.820012
 20
-4.495335
  0
VERTEX
  8
PLAN_1
  6
CONTINUOUS
 10
0.788370
 20
-4.525248
  0
VERTEX
  8
PLAN_1
  6
CONTINUOUS
 10
0.788370
 20
-4.595433
  0
SEQEND
  8
0
  0
POLYLINE
  8
PLAN_1
  6
CONTINUOUS
 66
     1
 40
0.003000
 41
0.003000
  0
VERTEX
  8
PLAN_1
  6
CONTINUOUS
 10
0.955780
 20
-4.531000
  0
VERTEX
  8
PLAN_1
  6
CONTINUOUS
 10
0.955780
 20
-4.545382
  0
VERTEX
  8
PLAN_1
  6
CONTINUOUS
 10
0.955780
 20
-4.549409
  0
VERTEX
  8
PLAN_1
  6
CONTINUOUS
 10
0.956354
 20
-4.553437
  0
VERTEX
  8
PLAN_1
  6
CONTINUOUS
 10
0.956929
 20
-4.556890
  0
VERTEX
  8
PLAN_1
  6
CONTINUOUS
 10
0.957504
 20
-4.560343
  0
VERTEX
  8
PLAN_1
  6
CONTINUOUS
 10
0.958657
 20
-4.563217
  0
VERTEX
  8
PLAN_1
  6
CONTINUOUS
 10
0.960382
 20
-4.566094
  0
VERTEX
  8
PLAN_1
  6
CONTINUOUS
 10
0.962106
 20
-4.568394
  0
VERTEX
  8
PLAN_1
  6
CONTINUOUS
 10
0.963835
 20
-4.570122
  0
VERTEX
  8
PLAN_1
  6
CONTINUOUS
 10
0.965559
 20
-4.571846
  0
VERTEX
  8
PLAN_1
  6
CONTINUOUS
 10
0.967862
 20
-4.573571
  0
VERTEX
  8
PLAN_1
  6
CONTINUOUS
 10
0.970736
 20
-4.574724
  0
VERTEX
  8
PLAN_1
  6
CONTINUOUS
 10
0.973039
 20
-4.575874
  0
VERTEX
  8
PLAN_1
  6
CONTINUOUS
 10
0.978791
 20
-4.577024
  0
VERTEX
  8
PLAN_1
  6
CONTINUOUS
 10
0.985693
 20
-4.577598
  0
VERTEX
  8
PLAN_1
  6
CONTINUOUS
 10
0.990295
 20
-4.577598
  0
VERTEX
  8
PLAN_1
  6
CONTINUOUS
 10
0.994323
 20
-4.577024
  0
VERTEX
  8
PLAN_1
  6
CONTINUOUS
 10
0.997776
 20
-4.575874
  0
VERTEX
  8
PLAN_1
  6
CONTINUOUS
 10
1.001228
 20
-4.574724
  0
VERTEX
  8
PLAN_1
  6
CONTINUOUS
 10
1.004102
 20
-4.573571
  0
VERTEX
  8
PLAN_1
  6
CONTINUOUS
 10
1.006980
 20
-4.571846
  0
VERTEX
  8
PLAN_1
  6
CONTINUOUS
 10
1.009280
 20
-4.570122
  0
VERTEX
  8
PLAN_1
  6
CONTINUOUS
 10
1.011008
 20
-4.567819
  0
VERTEX
  8
PLAN_1
  6
CONTINUOUS
 10
1.012732
 20
-4.564945
  0
VERTEX
  8
PLAN_1
  6
CONTINUOUS
 10
1.013882
 20
-4.562642
  0
VERTEX
  8
PLAN_1
  6
CONTINUOUS
 10
1.015035
 20
-4.559764
  0
VERTEX
  8
PLAN_1
  6
CONTINUOUS
 10
1.016185
 20
-4.556890
  0
VERTEX
  8
PLAN_1
  6
CONTINUOUS
 10
1.017335
 20
-4.549984
  0
VERTEX
  8
PLAN_1
  6
CONTINUOUS
 10
1.017335
 20
-4.543083
  0
VERTEX
  8
PLAN_1
  6
CONTINUOUS
 10
1.017335
 20
-4.395807
  0
VERTEX
  8
PLAN_1
  6
CONTINUOUS
 10
1.044374
 20
-4.395807
  0
VERTEX
  8
PLAN_1
  6
CONTINUOUS
 10
1.044374
 20
-4.541354
  0
VERTEX
  8
PLAN_1
  6
CONTINUOUS
 10
1.044374
 20
-4.549984
  0
VERTEX
  8
PLAN_1
  6
CONTINUOUS
 10
1.043224
 20
-4.557465
  0
VERTEX
  8
PLAN_1
  6
CONTINUOUS
 10
1.041496
 20
-4.564366
  0
VERTEX
  8
PLAN_1
  6
CONTINUOUS
 10
1.039197
 20
-4.570122
  0
VERTEX
  8
PLAN_1
  6
CONTINUOUS
 10
1.036894
 20
-4.575874
  0
VERTEX
  8
PLAN_1
  6
CONTINUOUS
 10
1.033445
 20
-4.580476
  0
VERTEX
  8
PLAN_1
  6
CONTINUOUS
 10
1.029992
 20
-4.585079
  0
VERTEX
  8
PLAN_1
  6
CONTINUOUS
 10
1.025965
 20
-4.588531
  0
VERTEX
  8
PLAN_1
  6
CONTINUOUS
 10
1.021362
 20
-4.591406
  0
VERTEX
  8
PLAN_1
  6
CONTINUOUS
 10
1.017335
 20
-4.594283
  0
VERTEX
  8
PLAN_1
  6
CONTINUOUS
 10
1.012157
 20
-4.596583
  0
VERTEX
  8
PLAN_1
  6
CONTINUOUS
 10
1.007555
 20
-4.597736
  0
VERTEX
  8
PLAN_1
  6
CONTINUOUS
 10
1.002378
 20
-4.598886
  0
VERTEX
  8
PLAN_1
  6
CONTINUOUS
 10
0.997201
 20
-4.600035
  0
VERTEX
  8
PLAN_1
  6
CONTINUOUS
 10
0.992024
 20
-4.600610
  0
VERTEX
  8
PLAN_1
  6
CONTINUOUS
 10
0.986846
 20
-4.600610
  0
VERTEX
  8
PLAN_1
  6
CONTINUOUS
 10
0.978791
 20
-4.600035
  0
VERTEX
  8
PLAN_1
  6
CONTINUOUS
 10
0.971311
 20
-4.599461
  0
VERTEX
  8
PLAN_1
  6
CONTINUOUS
 10
0.964409
 20
-4.597736
  0
VERTEX
  8
PLAN_1
  6
CONTINUOUS
 10
0.958657
 20
-4.595433
  0
VERTEX
  8
PLAN_1
  6
CONTINUOUS
 10
0.953480
 20
-4.592555
  0
VERTEX
  8
PLAN_1
  6
CONTINUOUS
 10
0.948878
 20
-4.589681
  0
VERTEX
  8
PLAN_1
  6
CONTINUOUS
 10
0.944850
 20
-4.586228
  0
VERTEX
  8
PLAN_1
  6
CONTINUOUS
 10
0.941398
 20
-4.582776
  0
VERTEX
  8
PLAN_1
  6
CONTINUOUS
 10
0.938520
 20
-4.578752
  0
VERTEX
  8
PLAN_1
  6
CONTINUOUS
 10
0.936220
 20
-4.574724
  0
VERTEX
  8
PLAN_1
  6
CONTINUOUS
 10
0.934492
 20
-4.570697
  0
VERTEX
  8
PLAN_1
  6
CONTINUOUS
 10
0.932768
 20
-4.566669
  0
VERTEX
  8
PLAN_1
  6
CONTINUOUS
 10
0.931618
 20
-4.562642
  0
VERTEX
  8
PLAN_1
  6
CONTINUOUS
 10
0.931043
 20
-4.558614
  0
VERTEX
  8
PLAN_1
  6
CONTINUOUS
 10
0.930469
 20
-4.554587
  0
VERTEX
  8
PLAN_1
  6
CONTINUOUS
 10
0.930469
 20
-4.551138
  0
VERTEX
  8
PLAN_1
  6
CONTINUOUS
 10
0.930469
 20
-4.531000
  0
VERTEX
  8
PLAN_1
  6
CONTINUOUS
 10
0.955780
 20
-4.531000
  0
SEQEND
  8
0
  0
POLYLINE
  8
PLAN_1
  6
CONTINUOUS
 66
     1
 40
0.003000
 41
0.003000
  0
VERTEX
  8
PLAN_1
  6
CONTINUOUS
 10
1.164035
 20
-4.595433
  0
VERTEX
  8
PLAN_1
  6
CONTINUOUS
 10
1.138146
 20
-4.595433
  0
VERTEX
  8
PLAN_1
  6
CONTINUOUS
 10
1.138146
 20
-4.456787
  0
VERTEX
  8
PLAN_1
  6
CONTINUOUS
 10
1.092697
 20
-4.456787
  0
VERTEX
  8
PLAN_1
  6
CONTINUOUS
 10
1.092697
 20
-4.437228
  0
VERTEX
  8
PLAN_1
  6
CONTINUOUS
 10
1.103630
 20
-4.436654
  0
VERTEX
  8
PLAN_1
  6
CONTINUOUS
 10
1.112835
 20
-4.434929
  0
VERTEX
  8
PLAN_1
  6
CONTINUOUS
 10
1.117437
 20
-4.434354
  0
VERTEX
  8
PLAN_1
  6
CONTINUOUS
 10
1.120886
 20
-4.433201
  0
VERTEX
  8
PLAN_1
  6
CONTINUOUS
 10
1.124339
 20
-4.431476
  0
VERTEX
  8
PLAN_1
  6
CONTINUOUS
 10
1.127791
 20
-4.429752
  0
VERTEX
  8
PLAN_1
  6
CONTINUOUS
 10
1.130665
 20
-4.428024
  0
VERTEX
  8
PLAN_1
  6
CONTINUOUS
 10
1.133543
 20
-4.425724
  0
VERTEX
  8
PLAN_1
  6
CONTINUOUS
 10
1.135846
 20
-4.422272
  0
VERTEX
  8
PLAN_1
  6
CONTINUOUS
 10
1.138146
 20
-4.419394
  0
VERTEX
  8
PLAN_1
  6
CONTINUOUS
 10
1.139870
 20
-4.415370
  0
VERTEX
  8
PLAN_1
  6
CONTINUOUS
 10
1.142173
 20
-4.410768
  0
VERTEX
  8
PLAN_1
  6
CONTINUOUS
 10
1.143323
 20
-4.406165
  0
VERTEX
  8
PLAN_1
  6
CONTINUOUS
 10
1.145051
 20
-4.400409
  0
VERTEX
  8
PLAN_1
  6
CONTINUOUS
 10
1.164035
 20
-4.400409
  0
VERTEX
  8
PLAN_1
  6
CONTINUOUS
 10
1.164035
 20
-4.595433
  0
SEQEND
  8
0
  0
POLYLINE
  8
PLAN_1
  6
CONTINUOUS
 66
     1
 40
0.003000
 41
0.003000
  0
VERTEX
  8
PLAN_1
  6
CONTINUOUS
 10
1.371138
 20
-4.395807
  0
VERTEX
  8
PLAN_1
  6
CONTINUOUS
 10
1.398177
 20
-4.395807
  0
VERTEX
  8
PLAN_1
  6
CONTINUOUS
 10
1.398177
 20
-4.595433
  0
VERTEX
  8
PLAN_1
  6
CONTINUOUS
 10
1.371138
 20
-4.595433
  0
VERTEX
  8
PLAN_1
  6
CONTINUOUS
 10
1.371138
 20
-4.502236
  0
VERTEX
  8
PLAN_1
  6
CONTINUOUS
 10
1.267012
 20
-4.502236
  0
VERTEX
  8
PLAN_1
  6
CONTINUOUS
 10
1.267012
 20
-4.595433
  0
VERTEX
  8
PLAN_1
  6
CONTINUOUS
 10
1.240547
 20
-4.595433
  0
VERTEX
  8
PLAN_1
  6
CONTINUOUS
 10
1.240547
 20
-4.395807
  0
VERTEX
  8
PLAN_1
  6
CONTINUOUS
 10
1.267012
 20
-4.395807
  0
VERTEX
  8
PLAN_1
  6
CONTINUOUS
 10
1.267012
 20
-4.478650
  0
VERTEX
  8
PLAN_1
  6
CONTINUOUS
 10
1.371138
 20
-4.478650
  0
VERTEX
  8
PLAN_1
  6
CONTINUOUS
 10
1.371138
 20
-4.395807
  0
SEQEND
  8
0
  0
POLYLINE
  8
PLAN_1
  6
CONTINUOUS
 66
     1
 40
0.003000
 41
0.003000
  0
VERTEX
  8
PLAN_1
  6
CONTINUOUS
 10
1.518988
 20
-4.595433
  0
VERTEX
  8
PLAN_1
  6
CONTINUOUS
 10
1.493098
 20
-4.595433
  0
VERTEX
  8
PLAN_1
  6
CONTINUOUS
 10
1.493098
 20
-4.456787
  0
VERTEX
  8
PLAN_1
  6
CONTINUOUS
 10
1.447650
 20
-4.456787
  0
VERTEX
  8
PLAN_1
  6
CONTINUOUS
 10
1.447650
 20
-4.437228
  0
VERTEX
  8
PLAN_1
  6
CONTINUOUS
 10
1.458583
 20
-4.436654
  0
VERTEX
  8
PLAN_1
  6
CONTINUOUS
 10
1.467787
 20
-4.434929
  0
VERTEX
  8
PLAN_1
  6
CONTINUOUS
 10
1.472390
 20
-4.434354
  0
VERTEX
  8
PLAN_1
  6
CONTINUOUS
 10
1.475839
 20
-4.433201
  0
VERTEX
  8
PLAN_1
  6
CONTINUOUS
 10
1.479291
 20
-4.431476
  0
VERTEX
  8
PLAN_1
  6
CONTINUOUS
 10
1.482744
 20
-4.429752
  0
VERTEX
  8
PLAN_1
  6
CONTINUOUS
 10
1.485618
 20
-4.428024
  0
VERTEX
  8
PLAN_1
  6
CONTINUOUS
 10
1.488496
 20
-4.425724
  0
VERTEX
  8
PLAN_1
  6
CONTINUOUS
 10
1.490799
 20
-4.422272
  0
VERTEX
  8
PLAN_1
  6
CONTINUOUS
 10
1.493098
 20
-4.419394
  0
VERTEX
  8
PLAN_1
  6
CONTINUOUS
 10
1.494823
 20
-4.415370
  0
VERTEX
  8
PLAN_1
  6
CONTINUOUS
 10
1.496551
 20
-4.410768
  0
VERTEX
  8
PLAN_1
  6
CONTINUOUS
 10
1.498276
 20
-4.406165
  0
VERTEX
  8
PLAN_1
  6
CONTINUOUS
 10
1.500004
 20
-4.400409
  0
VERTEX
  8
PLAN_1
  6
CONTINUOUS
 10
1.518988
 20
-4.400409
  0
VERTEX
  8
PLAN_1
  6
CONTINUOUS
 10
1.518988
 20
-4.595433
  0
SEQEND
  8
0
  0
POLYLINE
  8
PLAN_1
  6
CONTINUOUS
 66
     1
 40
0.003000
 41
0.003000
  0
VERTEX
  8
PLAN_1
  6
CONTINUOUS
 10
1.625413
 20
-4.595433
  0
VERTEX
  8
PLAN_1
  6
CONTINUOUS
 10
1.598378
 20
-4.595433
  0
VERTEX
  8
PLAN_1
  6
CONTINUOUS
 10
1.598378
 20
-4.395807
  0
VERTEX
  8
PLAN_1
  6
CONTINUOUS
 10
1.690421
 20
-4.395807
  0
VERTEX
  8
PLAN_1
  6
CONTINUOUS
 10
1.696752
 20
-4.396382
  0
VERTEX
  8
PLAN_1
  6
CONTINUOUS
 10
1.702504
 20
-4.396382
  0
VERTEX
  8
PLAN_1
  6
CONTINUOUS
 10
1.708831
 20
-4.397535
  0
VERTEX
  8
PLAN_1
  6
CONTINUOUS
 10
1.714587
 20
-4.398685
  0
VERTEX
  8
PLAN_1
  6
CONTINUOUS
 10
1.720339
 20
-4.399835
  0
VERTEX
  8
PLAN_1
  6
CONTINUOUS
 10
1.725516
 20
-4.402138
  0
VERTEX
  8
PLAN_1
  6
CONTINUOUS
 10
1.730693
 20
-4.404437
  0
VERTEX
  8
PLAN_1
  6
CONTINUOUS
 10
1.735295
 20
-4.406740
  0
VERTEX
  8
PLAN_1
  6
CONTINUOUS
 10
1.739898
 20
-4.410189
  0
VERTEX
  8
PLAN_1
  6
CONTINUOUS
 10
1.743925
 20
-4.414217
  0
VERTEX
  8
PLAN_1
  6
CONTINUOUS
 10
1.747378
 20
-4.418244
  0
VERTEX
  8
PLAN_1
  6
CONTINUOUS
 10
1.750252
 20
-4.423421
  0
VERTEX
  8
PLAN_1
  6
CONTINUOUS
 10
1.752555
 20
-4.429173
  0
VERTEX
  8
PLAN_1
  6
CONTINUOUS
 10
1.754280
 20
-4.434929
  0
VERTEX
  8
PLAN_1
  6
CONTINUOUS
 10
1.755429
 20
-4.441831
  0
VERTEX
  8
PLAN_1
  6
CONTINUOUS
 10
1.756004
 20
-4.449886
  0
VERTEX
  8
PLAN_1
  6
CONTINUOUS
 10
1.756004
 20
-4.455063
  0
VERTEX
  8
PLAN_1
  6
CONTINUOUS
 10
1.755429
 20
-4.459665
  0
VERTEX
  8
PLAN_1
  6
CONTINUOUS
 10
1.754280
 20
-4.464268
  0
VERTEX
  8
PLAN_1
  6
CONTINUOUS
 10
1.753130
 20
-4.468295
  0
VERTEX
  8
PLAN_1
  6
CONTINUOUS
 10
1.751980
 20
-4.472323
  0
VERTEX
  8
PLAN_1
  6
CONTINUOUS
 10
1.750252
 20
-4.475772
  0
VERTEX
  8
PLAN_1
  6
CONTINUOUS
 10
1.748528
 20
-4.478650
  0
VERTEX
  8
PLAN_1
  6
CONTINUOUS
 10
1.746799
 20
-4.481528
  0
VERTEX
  8
PLAN_1
  6
CONTINUOUS
 10
1.742776
 20
-4.486705
  0
VERTEX
  8
PLAN_1
  6
CONTINUOUS
 10
1.737594
 20
-4.490732
  0
VERTEX
  8
PLAN_1
  6
CONTINUOUS
 10
1.732992
 20
-4.494181
  0
VERTEX
  8
PLAN_1
  6
CONTINUOUS
 10
1.728390
 20
-4.497634
  0
VERTEX
  8
PLAN_1
  6
CONTINUOUS
 10
1.732417
 20
-4.499358
  0
VERTEX
  8
PLAN_1
  6
CONTINUOUS
 10
1.736445
 20
-4.501087
  0
VERTEX
  8
PLAN_1
  6
CONTINUOUS
 10
1.740472
 20
-4.503961
  0
VERTEX
  8
PLAN_1
  6
CONTINUOUS
 10
1.743925
 20
-4.507413
  0
VERTEX
  8
PLAN_1
  6
CONTINUOUS
 10
1.745650
 20
-4.509717
  0
VERTEX
  8
PLAN_1
  6
CONTINUOUS
 10
1.746799
 20
-4.512016
  0
VERTEX
  8
PLAN_1
  6
CONTINUOUS
 10
1.748528
 20
-4.514894
  0
VERTEX
  8
PLAN_1
  6
CONTINUOUS
 10
1.749677
 20
-4.517768
  0
VERTEX
  8
PLAN_1
  6
CONTINUOUS
 10
1.751402
 20
-4.525248
  0
VERTEX
  8
PLAN_1
  6
CONTINUOUS
 10
1.751980
 20
-4.535028
  0
VERTEX
  8
PLAN_1
  6
CONTINUOUS
 10
1.753705
 20
-4.570697
  0
VERTEX
  8
PLAN_1
  6
CONTINUOUS
 10
1.753705
 20
-4.574724
  0
VERTEX
  8
PLAN_1
  6
CONTINUOUS
 10
1.754280
 20
-4.578173
  0
VERTEX
  8
PLAN_1
  6
CONTINUOUS
 10
1.754854
 20
-4.581051
  0
VERTEX
  8
PLAN_1
  6
CONTINUOUS
 10
1.755429
 20
-4.583350
  0
VERTEX
  8
PLAN_1
  6
CONTINUOUS
 10
1.757157
 20
-4.585654
  0
VERTEX
  8
PLAN_1
  6
CONTINUOUS
 10
1.758882
 20
-4.587378
  0
VERTEX
  8
PLAN_1
  6
CONTINUOUS
 10
1.760606
 20
-4.589106
  0
VERTEX
  8
PLAN_1
  6
CONTINUOUS
 10
1.763484
 20
-4.590831
  0
VERTEX
  8
PLAN_1
  6
CONTINUOUS
 10
1.763484
 20
-4.595433
  0
VERTEX
  8
PLAN_1
  6
CONTINUOUS
 10
1.730693
 20
-4.595433
  0
VERTEX
  8
PLAN_1
  6
CONTINUOUS
 10
1.729543
 20
-4.590256
  0
VERTEX
  8
PLAN_1
  6
CONTINUOUS
 10
1.728390
 20
-4.583350
  0
VERTEX
  8
PLAN_1
  6
CONTINUOUS
 10
1.727240
 20
-4.575874
  0
VERTEX
  8
PLAN_1
  6
CONTINUOUS
 10
1.726665
 20
-4.568394
  0
VERTEX
  8
PLAN_1
  6
CONTINUOUS
 10
1.726665
 20
-4.561492
  0
VERTEX
  8
PLAN_1
  6
CONTINUOUS
 10
1.726091
 20
-4.554587
  0
VERTEX
  8
PLAN_1
  6
CONTINUOUS
 10
1.726091
 20
-4.549409
  0
VERTEX
  8
PLAN_1
  6
CONTINUOUS
 10
1.726091
 20
-4.545382
  0
VERTEX
  8
PLAN_1
  6
CONTINUOUS
 10
1.725516
 20
-4.539055
  0
VERTEX
  8
PLAN_1
  6
CONTINUOUS
 10
1.724941
 20
-4.532728
  0
VERTEX
  8
PLAN_1
  6
CONTINUOUS
 10
1.724366
 20
-4.529850
  0
VERTEX
  8
PLAN_1
  6
CONTINUOUS
 10
1.723213
 20
-4.526972
  0
VERTEX
  8
PLAN_1
  6
CONTINUOUS
 10
1.722063
 20
-4.524098
  0
VERTEX
  8
PLAN_1
  6
CONTINUOUS
 10
1.720339
 20
-4.521220
  0
VERTEX
  8
PLAN_1
  6
CONTINUOUS
 10
1.718035
 20
-4.518921
  0
VERTEX
  8
PLAN_1
  6
CONTINUOUS
 10
1.715736
 20
-4.516618
  0
VERTEX
  8
PLAN_1
  6
CONTINUOUS
 10
1.712858
 20
-4.514894
  0
VERTEX
  8
PLAN_1
  6
CONTINUOUS
 10
1.709406
 20
-4.513165
  0
VERTEX
  8
PLAN_1
  6
CONTINUOUS
 10
1.705382
 20
-4.512016
  0
VERTEX
  8
PLAN_1
  6
CONTINUOUS
 10
1.701354
 20
-4.510866
  0
VERTEX
  8
PLAN_1
  6
CONTINUOUS
 10
1.696177
 20
-4.510291
  0
VERTEX
  8
PLAN_1
  6
CONTINUOUS
 10
1.690421
 20
-4.509717
  0
VERTEX
  8
PLAN_1
  6
CONTINUOUS
 10
1.625413
 20
-4.509717
  0
VERTEX
  8
PLAN_1
  6
CONTINUOUS
 10
1.625413
 20
-4.595433
  0
SEQEND
  8
0
  0
POLYLINE
  8
PLAN_1
  6
CONTINUOUS
 66
     1
 40
0.003000
 41
0.003000
  0
VERTEX
  8
PLAN_1
  6
CONTINUOUS
 10
1.625413
 20
-4.486705
  0
VERTEX
  8
PLAN_1
  6
CONTINUOUS
 10
1.687547
 20
-4.486705
  0
VERTEX
  8
PLAN_1
  6
CONTINUOUS
 10
1.695024
 20
-4.486705
  0
VERTEX
  8
PLAN_1
  6
CONTINUOUS
 10
1.702504
 20
-4.485555
  0
VERTEX
  8
PLAN_1
  6
CONTINUOUS
 10
1.705957
 20
-4.484976
  0
VERTEX
  8
PLAN_1
  6
CONTINUOUS
 10
1.708831
 20
-4.483827
  0
VERTEX
  8
PLAN_1
  6
CONTINUOUS
 10
1.712283
 20
-4.482102
  0
VERTEX
  8
PLAN_1
  6
CONTINUOUS
 10
1.715161
 20
-4.480374
  0
VERTEX
  8
PLAN_1
  6
CONTINUOUS
 10
1.718035
 20
-4.478650
  0
VERTEX
  8
PLAN_1
  6
CONTINUOUS
 10
1.720339
 20
-4.476350
  0
VERTEX
  8
PLAN_1
  6
CONTINUOUS
 10
1.722638
 20
-4.473472
  0
VERTEX
  8
PLAN_1
  6
CONTINUOUS
 10
1.724366
 20
-4.470020
  0
VERTEX
  8
PLAN_1
  6
CONTINUOUS
 10
1.726091
 20
-4.466567
  0
VERTEX
  8
PLAN_1
  6
CONTINUOUS
 10
1.727240
 20
-4.462543
  0
VERTEX
  8
PLAN_1
  6
CONTINUOUS
 10
1.727815
 20
-4.457366
  0
VERTEX
  8
PLAN_1
  6
CONTINUOUS
 10
1.728390
 20
-4.452185
  0
VERTEX
  8
PLAN_1
  6
CONTINUOUS
 10
1.727815
 20
-4.447008
  0
VERTEX
  8
PLAN_1
  6
CONTINUOUS
 10
1.727240
 20
-4.442406
  0
VERTEX
  8
PLAN_1
  6
CONTINUOUS
 10
1.726091
 20
-4.437803
  0
VERTEX
  8
PLAN_1
  6
CONTINUOUS
 10
1.724366
 20
-4.434354
  0
VERTEX
  8
PLAN_1
  6
CONTINUOUS
 10
1.722638
 20
-4.430902
  0
VERTEX
  8
PLAN_1
  6
CONTINUOUS
 10
1.720339
 20
-4.428598
  0
VERTEX
  8
PLAN_1
  6
CONTINUOUS
 10
1.718035
 20
-4.426299
  0
VERTEX
  8
PLAN_1
  6
CONTINUOUS
 10
1.715161
 20
-4.423996
  0
VERTEX
  8
PLAN_1
  6
CONTINUOUS
 10
1.712283
 20
-4.422846
  0
VERTEX
  8
PLAN_1
  6
CONTINUOUS
 10
1.709406
 20
-4.421697
  0
VERTEX
  8
PLAN_1
  6
CONTINUOUS
 10
1.706531
 20
-4.420547
  0
VERTEX
  8
PLAN_1
  6
CONTINUOUS
 10
1.703654
 20
-4.419969
  0
VERTEX
  8
PLAN_1
  6
CONTINUOUS
 10
1.697902
 20
-4.419394
  0
VERTEX
  8
PLAN_1
  6
CONTINUOUS
 10
1.692150
 20
-4.418819
  0
VERTEX
  8
PLAN_1
  6
CONTINUOUS
 10
1.625413
 20
-4.418819
  0
VERTEX
  8
PLAN_1
  6
CONTINUOUS
 10
1.625413
 20
-4.486705
  0
SEQEND
  8
0
  0
SOLID
  8
PLAN_1
 10
1.827343
 20
-4.595433
 11
1.798575
 21
-4.595433
 12
1.827343
 22
-4.566094
 13
1.798575
 23
-4.566094
  0
POLYLINE
  8
PLAN_1
  6
CONTINUOUS
 66
     1
 40
0.003000
 41
0.003000
  0
VERTEX
  8
PLAN_1
  6
CONTINUOUS
 10
1.827343
 20
-4.595433
  0
VERTEX
  8
PLAN_1
  6
CONTINUOUS
 10
1.798575
 20
-4.595433
  0
VERTEX
  8
PLAN_1
  6
CONTINUOUS
 10
1.798575
 20
-4.566094
  0
VERTEX
  8
PLAN_1
  6
CONTINUOUS
 10
1.827343
 20
-4.566094
  0
VERTEX
  8
PLAN_1
  6
CONTINUOUS
 10
1.827343
 20
-4.595433
  0
SEQEND
  8
0
  0
POLYLINE
  8
PLAN_1
  6
CONTINUOUS
 66
     1
 40
0.003000
 41
0.003000
  0
VERTEX
  8
PLAN_1
  6
CONTINUOUS
 10
2.022362
 20
-4.595433
  0
VERTEX
  8
PLAN_1
  6
CONTINUOUS
 10
1.875091
 20
-4.595433
  0
VERTEX
  8
PLAN_1
  6
CONTINUOUS
 10
1.875091
 20
-4.395807
  0
VERTEX
  8
PLAN_1
  6
CONTINUOUS
 10
2.020638
 20
-4.395807
  0
VERTEX
  8
PLAN_1
  6
CONTINUOUS
 10
2.020638
 20
-4.419969
  0
VERTEX
  8
PLAN_1
  6
CONTINUOUS
 10
1.902130
 20
-4.419969
  0
VERTEX
  8
PLAN_1
  6
CONTINUOUS
 10
1.902130
 20
-4.480953
  0
VERTEX
  8
PLAN_1
  6
CONTINUOUS
 10
2.011433
 20
-4.480953
  0
VERTEX
  8
PLAN_1
  6
CONTINUOUS
 10
2.011433
 20
-4.505114
  0
VERTEX
  8
PLAN_1
  6
CONTINUOUS
 10
1.902130
 20
-4.505114
  0
VERTEX
  8
PLAN_1
  6
CONTINUOUS
 10
1.902130
 20
-4.571272
  0
VERTEX
  8
PLAN_1
  6
CONTINUOUS
 10
2.022362
 20
-4.571272
  0
VERTEX
  8
PLAN_1
  6
CONTINUOUS
 10
2.022362
 20
-4.595433
  0
SEQEND
  8
0
  0
POLYLINE
  8
PLAN_1
  6
CONTINUOUS
 66
     1
 40
0.003000
 41
0.003000
  0
VERTEX
  8
PLAN_1
  6
CONTINUOUS
 10
2.087370
 20
-4.595433
  0
VERTEX
  8
PLAN_1
  6
CONTINUOUS
 10
2.060335
 20
-4.595433
  0
VERTEX
  8
PLAN_1
  6
CONTINUOUS
 10
2.060335
 20
-4.395807
  0
VERTEX
  8
PLAN_1
  6
CONTINUOUS
 10
2.150079
 20
-4.395807
  0
VERTEX
  8
PLAN_1
  6
CONTINUOUS
 10
2.156980
 20
-4.396382
  0
VERTEX
  8
PLAN_1
  6
CONTINUOUS
 10
2.163311
 20
-4.396961
  0
VERTEX
  8
PLAN_1
  6
CONTINUOUS
 10
2.169638
 20
-4.398685
  0
VERTEX
  8
PLAN_1
  6
CONTINUOUS
 10
2.174815
 20
-4.400409
  0
VERTEX
  8
PLAN_1
  6
CONTINUOUS
 10
2.179992
 20
-4.402713
  0
VERTEX
  8
PLAN_1
  6
CONTINUOUS
 10
2.185169
 20
-4.405587
  0
VERTEX
  8
PLAN_1
  6
CONTINUOUS
 10
2.189772
 20
-4.408465
  0
VERTEX
  8
PLAN_1
  6
CONTINUOUS
 10
2.193799
 20
-4.411917
  0
VERTEX
  8
PLAN_1
  6
CONTINUOUS
 10
2.197252
 20
-4.415945
  0
VERTEX
  8
PLAN_1
  6
CONTINUOUS
 10
2.200126
 20
-4.419969
  0
VERTEX
  8
PLAN_1
  6
CONTINUOUS
 10
2.203004
 20
-4.424571
  0
VERTEX
  8
PLAN_1
  6
CONTINUOUS
 10
2.205307
 20
-4.429752
  0
VERTEX
  8
PLAN_1
  6
CONTINUOUS
 10
2.207031
 20
-4.434929
  0
VERTEX
  8
PLAN_1
  6
CONTINUOUS
 10
2.208181
 20
-4.440681
  0
VERTEX
  8
PLAN_1
  6
CONTINUOUS
 10
2.209331
 20
-4.446433
  0
VERTEX
  8
PLAN_1
  6
CONTINUOUS
 10
2.209331
 20
-4.452185
  0
VERTEX
  8
PLAN_1
  6
CONTINUOUS
 10
2.209331
 20
-4.457366
  0
VERTEX
  8
PLAN_1
  6
CONTINUOUS
 10
2.208756
 20
-4.462543
  0
VERTEX
  8
PLAN_1
  6
CONTINUOUS
 10
2.207606
 20
-4.467720
  0
VERTEX
  8
PLAN_1
  6
CONTINUOUS
 10
2.206457
 20
-4.472898
  0
VERTEX
  8
PLAN_1
  6
CONTINUOUS
 10
2.204154
 20
-4.478075
  0
VERTEX
  8
PLAN_1
  6
CONTINUOUS
 10
2.201854
 20
-4.483252
  0
VERTEX
  8
PLAN_1
  6
CONTINUOUS
 10
2.199551
 20
-4.487854
  0
VERTEX
  8
PLAN_1
  6
CONTINUOUS
 10
2.196102
 20
-4.491882
  0
VERTEX
  8
PLAN_1
  6
CONTINUOUS
 10
2.192075
 20
-4.495909
  0
VERTEX
  8
PLAN_1
  6
CONTINUOUS
 10
2.188047
 20
-4.499937
  0
VERTEX
  8
PLAN_1
  6
CONTINUOUS
 10
2.182870
 20
-4.503386
  0
VERTEX
  8
PLAN_1
  6
CONTINUOUS
 10
2.177693
 20
-4.505689
  0
VERTEX
  8
PLAN_1
  6
CONTINUOUS
 10
2.171937
 20
-4.507988
  0
VERTEX
  8
PLAN_1
  6
CONTINUOUS
 10
2.165035
 20
-4.509717
  0
VERTEX
  8
PLAN_1
  6
CONTINUOUS
 10
2.158130
 20
-4.510866
  0
VERTEX
  8
PLAN_1
  6
CONTINUOUS
 10
2.150079
 20
-4.511441
  0
VERTEX
  8
PLAN_1
  6
CONTINUOUS
 10
2.087370
 20
-4.511441
  0
VERTEX
  8
PLAN_1
  6
CONTINUOUS
 10
2.087370
 20
-4.595433
  0
SEQEND
  8
0
  0
POLYLINE
  8
PLAN_1
  6
CONTINUOUS
 66
     1
 40
0.003000
 41
0.003000
  0
VERTEX
  8
PLAN_1
  6
CONTINUOUS
 10
2.087370
 20
-4.488429
  0
VERTEX
  8
PLAN_1
  6
CONTINUOUS
 10
2.140874
 20
-4.488429
  0
VERTEX
  8
PLAN_1
  6
CONTINUOUS
 10
2.149504
 20
-4.487854
  0
VERTEX
  8
PLAN_1
  6
CONTINUOUS
 10
2.157555
 20
-4.486130
  0
VERTEX
  8
PLAN_1
  6
CONTINUOUS
 10
2.161008
 20
-4.485555
  0
VERTEX
  8
PLAN_1
  6
CONTINUOUS
 10
2.164461
 20
-4.483827
  0
VERTEX
  8
PLAN_1
  6
CONTINUOUS
 10
2.167335
 20
-4.482102
  0
VERTEX
  8
PLAN_1
  6
CONTINUOUS
 10
2.170213
 20
-4.480374
  0
VERTEX
  8
PLAN_1
  6
CONTINUOUS
 10
2.173091
 20
-4.478075
  0
VERTEX
  8
PLAN_1
  6
CONTINUOUS
 10
2.175390
 20
-4.475772
  0
VERTEX
  8
PLAN_1
  6
CONTINUOUS
 10
2.177118
 20
-4.472898
  0
VERTEX
  8
PLAN_1
  6
CONTINUOUS
 10
2.178843
 20
-4.469445
  0
VERTEX
  8
PLAN_1
  6
CONTINUOUS
 10
2.179992
 20
-4.465992
  0
VERTEX
  8
PLAN_1
  6
CONTINUOUS
 10
2.180567
 20
-4.461390
  0
VERTEX
  8
PLAN_1
  6
CONTINUOUS
 10
2.181142
 20
-4.457366
  0
VERTEX
  8
PLAN_1
  6
CONTINUOUS
 10
2.181720
 20
-4.452185
  0
VERTEX
  8
PLAN_1
  6
CONTINUOUS
 10
2.181142
 20
-4.447583
  0
VERTEX
  8
PLAN_1
  6
CONTINUOUS
 10
2.180567
 20
-4.443559
  0
VERTEX
  8
PLAN_1
  6
CONTINUOUS
 10
2.179992
 20
-4.440106
  0
VERTEX
  8
PLAN_1
  6
CONTINUOUS
 10
2.178268
 20
-4.436654
  0
VERTEX
  8
PLAN_1
  6
CONTINUOUS
 10
2.177118
 20
-4.433776
  0
VERTEX
  8
PLAN_1
  6
CONTINUOUS
 10
2.174815
 20
-4.430902
  0
VERTEX
  8
PLAN_1
  6
CONTINUOUS
 10
2.172516
 20
-4.428598
  0
VERTEX
  8
PLAN_1
  6
CONTINUOUS
 10
2.170213
 20
-4.426299
  0
VERTEX
  8
PLAN_1
  6
CONTINUOUS
 10
2.167335
 20
-4.424571
  0
VERTEX
  8
PLAN_1
  6
CONTINUOUS
 10
2.164461
 20
-4.422846
  0
VERTEX
  8
PLAN_1
  6
CONTINUOUS
 10
2.161008
 20
-4.421697
  0
VERTEX
  8
PLAN_1
  6
CONTINUOUS
 10
2.157555
 20
-4.420547
  0
VERTEX
  8
PLAN_1
  6
CONTINUOUS
 10
2.150079
 20
-4.419394
  0
VERTEX
  8
PLAN_1
  6
CONTINUOUS
 10
2.142024
 20
-4.418819
  0
VERTEX
  8
PLAN_1
  6
CONTINUOUS
 10
2.087370
 20
-4.418819
  0
VERTEX
  8
PLAN_1
  6
CONTINUOUS
 10
2.087370
 20
-4.488429
  0
SEQEND
  8
0
  0
POLYLINE
  8
PLAN_1
  6
CONTINUOUS
 66
     1
 40
0.003000
 41
0.003000
  0
VERTEX
  8
PLAN_1
  6
CONTINUOUS
 10
2.362933
 20
-4.454488
  0
VERTEX
  8
PLAN_1
  6
CONTINUOUS
 10
2.362933
 20
-4.448736
  0
VERTEX
  8
PLAN_1
  6
CONTINUOUS
 10
2.361783
 20
-4.443559
  0
VERTEX
  8
PLAN_1
  6
CONTINUOUS
 10
2.360059
 20
-4.438957
  0
VERTEX
  8
PLAN_1
  6
CONTINUOUS
 10
2.357756
 20
-4.434929
  0
VERTEX
  8
PLAN_1
  6
CONTINUOUS
 10
2.355457
 20
-4.431476
  0
VERTEX
  8
PLAN_1
  6
CONTINUOUS
 10
2.353154
 20
-4.428024
  0
VERTEX
  8
PLAN_1
  6
CONTINUOUS
 10
2.349705
 20
-4.425150
  0
VERTEX
  8
PLAN_1
  6
CONTINUOUS
 10
2.346252
 20
-4.422272
  0
VERTEX
  8
PLAN_1
  6
CONTINUOUS
 10
2.342799
 20
-4.420547
  0
VERTEX
  8
PLAN_1
  6
CONTINUOUS
 10
2.338772
 20
-4.418244
  0
VERTEX
  8
PLAN_1
  6
CONTINUOUS
 10
2.334744
 20
-4.417094
  0
VERTEX
  8
PLAN_1
  6
CONTINUOUS
 10
2.330717
 20
-4.415945
  0
VERTEX
  8
PLAN_1
  6
CONTINUOUS
 10
2.322091
 20
-4.414217
  0
VERTEX
  8
PLAN_1
  6
CONTINUOUS
 10
2.314035
 20
-4.413642
  0
VERTEX
  8
PLAN_1
  6
CONTINUOUS
 10
2.307130
 20
-4.414217
  0
VERTEX
  8
PLAN_1
  6
CONTINUOUS
 10
2.299654
 20
-4.414791
  0
VERTEX
  8
PLAN_1
  6
CONTINUOUS
 10
2.295626
 20
-4.415945
  0
VERTEX
  8
PLAN_1
  6
CONTINUOUS
 10
2.292173
 20
-4.417094
  0
VERTEX
  8
PLAN_1
  6
CONTINUOUS
 10
2.288146
 20
-4.418244
  0
VERTEX
  8
PLAN_1
  6
CONTINUOUS
 10
2.284697
 20
-4.419969
  0
VERTEX
  8
PLAN_1
  6
CONTINUOUS
 10
2.281244
 20
-4.422272
  0
VERTEX
  8
PLAN_1
  6
CONTINUOUS
 10
2.278366
 20
-4.424571
  0
VERTEX
  8
PLAN_1
  6
CONTINUOUS
 10
2.275492
 20
-4.427449
  0
VERTEX
  8
PLAN_1
  6
CONTINUOUS
 10
2.273189
 20
-4.430327
  0
VERTEX
  8
PLAN_1
  6
CONTINUOUS
 10
2.270890
 20
-4.434354
  0
VERTEX
  8
PLAN_1
  6
CONTINUOUS
 10
2.269736
 20
-4.438378
  0
VERTEX
  8
PLAN_1
  6
CONTINUOUS
 10
2.268587
 20
-4.443559
  0
VERTEX
  8
PLAN_1
  6
CONTINUOUS
 10
2.268012
 20
-4.448736
  0
VERTEX
  8
PLAN_1
  6
CONTINUOUS
 10
2.268587
 20
-4.454488
  0
VERTEX
  8
PLAN_1
  6
CONTINUOUS
 10
2.270315
 20
-4.459665
  0
VERTEX
  8
PLAN_1
  6
CONTINUOUS
 10
2.272614
 20
-4.463693
  0
VERTEX
  8
PLAN_1
  6
CONTINUOUS
 10
2.275492
 20
-4.466567
  0
VERTEX
  8
PLAN_1
  6
CONTINUOUS
 10
2.279516
 20
-4.469445
  0
VERTEX
  8
PLAN_1
  6
CONTINUOUS
 10
2.282969
 20
-4.471169
  0
VERTEX
  8
PLAN_1
  6
CONTINUOUS
 10
2.287571
 20
-4.472898
  0
VERTEX
  8
PLAN_1
  6
CONTINUOUS
 10
2.291598
 20
-4.474047
  0
VERTEX
  8
PLAN_1
  6
CONTINUOUS
 10
2.348551
 20
-4.487280
  0
VERTEX
  8
PLAN_1
  6
CONTINUOUS
 10
2.353728
 20
-4.488429
  0
VERTEX
  8
PLAN_1
  6
CONTINUOUS
 10
2.358331
 20
-4.489579
  0
VERTEX
  8
PLAN_1
  6
CONTINUOUS
 10
2.362358
 20
-4.491307
  0
VERTEX
  8
PLAN_1
  6
CONTINUOUS
 10
2.366961
 20
-4.493606
  0
VERTEX
  8
PLAN_1
  6
CONTINUOUS
 10
2.370413
 20
-4.495909
  0
VERTEX
  8
PLAN_1
  6
CONTINUOUS
 10
2.374441
 20
-4.498209
  0
VERTEX
  8
PLAN_1
  6
CONTINUOUS
 10
2.377894
 20
-4.501087
  0
VERTEX
  8
PLAN_1
  6
CONTINUOUS
 10
2.381343
 20
-4.503961
  0
VERTEX
  8
PLAN_1
  6
CONTINUOUS
 10
2.383646
 20
-4.507413
  0
VERTEX
  8
PLAN_1
  6
CONTINUOUS
 10
2.386520
 20
-4.511441
  0
VERTEX
  8
PLAN_1
  6
CONTINUOUS
 10
2.388823
 20
-4.515469
  0
VERTEX
  8
PLAN_1
  6
CONTINUOUS
 10
2.390547
 20
-4.519496
  0
VERTEX
  8
PLAN_1
  6
CONTINUOUS
 10
2.392276
 20
-4.524098
  0
VERTEX
  8
PLAN_1
  6
CONTINUOUS
 10
2.392850
 20
-4.529276
  0
VERTEX
  8
PLAN_1
  6
CONTINUOUS
 10
2.394000
 20
-4.534453
  0
VERTEX
  8
PLAN_1
  6
CONTINUOUS
 10
2.394000
 20
-4.540205
  0
VERTEX
  8
PLAN_1
  6
CONTINUOUS
 10
2.393425
 20
-4.548835
  0
VERTEX
  8
PLAN_1
  6
CONTINUOUS
 10
2.392276
 20
-4.556315
  0
VERTEX
  8
PLAN_1
  6
CONTINUOUS
 10
2.389972
 20
-4.563217
  0
VERTEX
  8
PLAN_1
  6
CONTINUOUS
 10
2.386520
 20
-4.569547
  0
VERTEX
  8
PLAN_1
  6
CONTINUOUS
 10
2.383071
 20
-4.575299
  0
VERTEX
  8
PLAN_1
  6
CONTINUOUS
 10
2.378469
 20
-4.579902
  0
VERTEX
  8
PLAN_1
  6
CONTINUOUS
 10
2.373291
 20
-4.584504
  0
VERTEX
  8
PLAN_1
  6
CONTINUOUS
 10
2.367535
 20
-4.587953
  0
VERTEX
  8
PLAN_1
  6
CONTINUOUS
 10
2.361783
 20
-4.591406
  0
VERTEX
  8
PLAN_1
  6
CONTINUOUS
 10
2.355457
 20
-4.594283
  0
VERTEX
  8
PLAN_1
  6
CONTINUOUS
 10
2.349126
 20
-4.596008
  0
VERTEX
  8
PLAN_1
  6
CONTINUOUS
 10
2.342799
 20
-4.597736
  0
VERTEX
  8
PLAN_1
  6
CONTINUOUS
 10
2.335898
 20
-4.598886
  0
VERTEX
  8
PLAN_1
  6
CONTINUOUS
 10
2.328992
 20
-4.600035
  0
VERTEX
  8
PLAN_1
  6
CONTINUOUS
 10
2.322665
 20
-4.600610
  0
VERTEX
  8
PLAN_1
  6
CONTINUOUS
 10
2.315760
 20
-4.600610
  0
VERTEX
  8
PLAN_1
  6
CONTINUOUS
 10
2.303106
 20
-4.600035
  0
VERTEX
  8
PLAN_1
  6
CONTINUOUS
 10
2.292173
 20
-4.598886
  0
VERTEX
  8
PLAN_1
  6
CONTINUOUS
 10
2.282969
 20
-4.596583
  0
VERTEX
  8
PLAN_1
  6
CONTINUOUS
 10
2.275492
 20
-4.594283
  0
VERTEX
  8
PLAN_1
  6
CONTINUOUS
 10
2.269161
 20
-4.590831
  0
VERTEX
  8
PLAN_1
  6
CONTINUOUS
 10
2.263984
 20
-4.587953
  0
VERTEX
  8
PLAN_1
  6
CONTINUOUS
 10
2.259382
 20
-4.584504
  0
VERTEX
  8
PLAN_1
  6
CONTINUOUS
 10
2.255929
 20
-4.581626
  0
VERTEX
  8
PLAN_1
  6
CONTINUOUS
 10
2.250177
 20
-4.575874
  0
VERTEX
  8
PLAN_1
  6
CONTINUOUS
 10
2.245575
 20
-4.569547
  0
VERTEX
  8
PLAN_1
  6
CONTINUOUS
 10
2.242122
 20
-4.563791
  0
VERTEX
  8
PLAN_1
  6
CONTINUOUS
 10
2.239248
 20
-4.557465
  0
VERTEX
  8
PLAN_1
  6
CONTINUOUS
 10
2.237520
 20
-4.551138
  0
VERTEX
  8
PLAN_1
  6
CONTINUOUS
 10
2.236370
 20
-4.544807
  0
VERTEX
  8
PLAN_1
  6
CONTINUOUS
 10
2.235795
 20
-4.537906
  0
VERTEX
  8
PLAN_1
  6
CONTINUOUS
 10
2.235795
 20
-4.531000
  0
VERTEX
  8
PLAN_1
  6
CONTINUOUS
 10
2.260531
 20
-4.531000
  0
VERTEX
  8
PLAN_1
  6
CONTINUOUS
 10
2.261110
 20
-4.537331
  0
VERTEX
  8
PLAN_1
  6
CONTINUOUS
 10
2.262260
 20
-4.543083
  0
VERTEX
  8
PLAN_1
  6
CONTINUOUS
 10
2.263409
 20
-4.548835
  0
VERTEX
  8
PLAN_1
  6
CONTINUOUS
 10
2.265713
 20
-4.553437
  0
VERTEX
  8
PLAN_1
  6
CONTINUOUS
 10
2.268587
 20
-4.558039
  0
VERTEX
  8
PLAN_1
  6
CONTINUOUS
 10
2.271465
 20
-4.561492
  0
VERTEX
  8
PLAN_1
  6
CONTINUOUS
 10
2.274913
 20
-4.564945
  0
VERTEX
  8
PLAN_1
  6
CONTINUOUS
 10
2.278941
 20
-4.567819
  0
VERTEX
  8
PLAN_1
  6
CONTINUOUS
 10
2.282969
 20
-4.570122
  0
VERTEX
  8
PLAN_1
  6
CONTINUOUS
 10
2.286996
 20
-4.572421
  0
VERTEX
  8
PLAN_1
  6
CONTINUOUS
 10
2.291598
 20
-4.574150
  0
VERTEX
  8
PLAN_1
  6
CONTINUOUS
 10
2.296201
 20
-4.575299
  0
VERTEX
  8
PLAN_1
  6
CONTINUOUS
 10
2.301378
 20
-4.576449
  0
VERTEX
  8
PLAN_1
  6
CONTINUOUS
 10
2.305980
 20
-4.577024
  0
VERTEX
  8
PLAN_1
  6
CONTINUOUS
 10
2.311157
 20
-4.577598
  0
VERTEX
  8
PLAN_1
  6
CONTINUOUS
 10
2.315760
 20
-4.577598
  0
VERTEX
  8
PLAN_1
  6
CONTINUOUS
 10
2.323815
 20
-4.577024
  0
VERTEX
  8
PLAN_1
  6
CONTINUOUS
 10
2.331870
 20
-4.576449
  0
VERTEX
  8
PLAN_1
  6
CONTINUOUS
 10
2.336472
 20
-4.575299
  0
VERTEX
  8
PLAN_1
  6
CONTINUOUS
 10
2.340500
 20
-4.574724
  0
VERTEX
  8
PLAN_1
  6
CONTINUOUS
 10
2.345102
 20
-4.572996
  0
VERTEX
  8
PLAN_1
  6
CONTINUOUS
 10
2.349126
 20
-4.571272
  0
VERTEX
  8
PLAN_1
  6
CONTINUOUS
 10
2.353154
 20
-4.569547
  0
VERTEX
  8
PLAN_1
  6
CONTINUOUS
 10
2.356606
 20
-4.567244
  0
VERTEX
  8
PLAN_1
  6
CONTINUOUS
 10
2.359484
 20
-4.564366
  0
VERTEX
  8
PLAN_1
  6
CONTINUOUS
 10
2.362358
 20
-4.561492
  0
VERTEX
  8
PLAN_1
  6
CONTINUOUS
 10
2.364661
 20
-4.557465
  0
VERTEX
  8
PLAN_1
  6
CONTINUOUS
 10
2.366386
 20
-4.553437
  0
VERTEX
  8
PLAN_1
  6
CONTINUOUS
 10
2.367535
 20
-4.548835
  0
VERTEX
  8
PLAN_1
  6
CONTINUOUS
 10
2.368110
 20
-4.544232
  0
VERTEX
  8
PLAN_1
  6
CONTINUOUS
 10
2.367535
 20
-4.540205
  0
VERTEX
  8
PLAN_1
  6
CONTINUOUS
 10
2.367535
 20
-4.536756
  0
VERTEX
  8
PLAN_1
  6
CONTINUOUS
 10
2.366961
 20
-4.533878
  0
VERTEX
  8
PLAN_1
  6
CONTINUOUS
 10
2.365811
 20
-4.531000
  0
VERTEX
  8
PLAN_1
  6
CONTINUOUS
 10
2.364661
 20
-4.528126
  0
VERTEX
  8
PLAN_1
  6
CONTINUOUS
 10
2.362933
 20
-4.525823
  0
VERTEX
  8
PLAN_1
  6
CONTINUOUS
 10
2.361209
 20
-4.523524
  0
VERTEX
  8
PLAN_1
  6
CONTINUOUS
 10
2.358906
 20
-4.521220
  0
VERTEX
  8
PLAN_1
  6
CONTINUOUS
 10
2.356031
 20
-4.519496
  0
VERTEX
  8
PLAN_1
  6
CONTINUOUS
 10
2.353154
 20
-4.517768
  0
VERTEX
  8
PLAN_1
  6
CONTINUOUS
 10
2.349705
 20
-4.516043
  0
VERTEX
  8
PLAN_1
  6
CONTINUOUS
 10
2.345677
 20
-4.514319
  0
VERTEX
  8
PLAN_1
  6
CONTINUOUS
 10
2.336472
 20
-4.511441
  0
VERTEX
  8
PLAN_1
  6
CONTINUOUS
 10
2.325539
 20
-4.508563
  0
VERTEX
  8
PLAN_1
  6
CONTINUOUS
 10
2.284697
 20
-4.499358
  0
VERTEX
  8
PLAN_1
  6
CONTINUOUS
 10
2.278941
 20
-4.497634
  0
VERTEX
  8
PLAN_1
  6
CONTINUOUS
 10
2.272614
 20
-4.495335
  0
VERTEX
  8
PLAN_1
  6
CONTINUOUS
 10
2.265713
 20
-4.492457
  0
VERTEX
  8
PLAN_1
  6
CONTINUOUS
 10
2.258807
 20
-4.487854
  0
VERTEX
  8
PLAN_1
  6
CONTINUOUS
 10
2.255354
 20
-4.484976
  0
VERTEX
  8
PLAN_1
  6
CONTINUOUS
 10
2.251906
 20
-4.481528
  0
VERTEX
  8
PLAN_1
  6
CONTINUOUS
 10
2.249602
 20
-4.478075
  0
VERTEX
  8
PLAN_1
  6
CONTINUOUS
 10
2.246724
 20
-4.474047
  0
VERTEX
  8
PLAN_1
  6
CONTINUOUS
 10
2.245000
 20
-4.469445
  0
VERTEX
  8
PLAN_1
  6
CONTINUOUS
 10
2.243276
 20
-4.464268
  0
VERTEX
  8
PLAN_1
  6
CONTINUOUS
 10
2.242701
 20
-4.458516
  0
VERTEX
  8
PLAN_1
  6
CONTINUOUS
 10
2.242122
 20
-4.452185
  0
VERTEX
  8
PLAN_1
  6
CONTINUOUS
 10
2.242701
 20
-4.446433
  0
VERTEX
  8
PLAN_1
  6
CONTINUOUS
 10
2.243276
 20
-4.440681
  0
VERTEX
  8
PLAN_1
  6
CONTINUOUS
 10
2.244425
 20
-4.434929
  0
VERTEX
  8
PLAN_1
  6
CONTINUOUS
 10
2.246150
 20
-4.429752
  0
VERTEX
  8
PLAN_1
  6
CONTINUOUS
 10
2.248453
 20
-4.424571
  0
VERTEX
  8
PLAN_1
  6
CONTINUOUS
 10
2.251327
 20
-4.419394
  0
VERTEX
  8
PLAN_1
  6
CONTINUOUS
 10
2.254205
 20
-4.414217
  0
VERTEX
  8
PLAN_1
  6
CONTINUOUS
 10
2.258232
 20
-4.410189
  0
VERTEX
  8
PLAN_1
  6
CONTINUOUS
 10
2.262835
 20
-4.405587
  0
VERTEX
  8
PLAN_1
  6
CONTINUOUS
 10
2.268012
 20
-4.402138
  0
VERTEX
  8
PLAN_1
  6
CONTINUOUS
 10
2.273189
 20
-4.398685
  0
VERTEX
  8
PLAN_1
  6
CONTINUOUS
 10
2.279516
 20
-4.395807
  0
VERTEX
  8
PLAN_1
  6
CONTINUOUS
 10
2.286421
 20
-4.394083
  0
VERTEX
  8
PLAN_1
  6
CONTINUOUS
 10
2.293902
 20
-4.392358
  0
VERTEX
  8
PLAN_1
  6
CONTINUOUS
 10
2.301953
 20
-4.391205
  0
VERTEX
  8
PLAN_1
  6
CONTINUOUS
 10
2.310583
 20
-4.390630
  0
VERTEX
  8
PLAN_1
  6
CONTINUOUS
 10
2.323240
 20
-4.391205
  0
VERTEX
  8
PLAN_1
  6
CONTINUOUS
 10
2.334169
 20
-4.392358
  0
VERTEX
  8
PLAN_1
  6
CONTINUOUS
 10
2.343949
 20
-4.394657
  0
VERTEX
  8
PLAN_1
  6
CONTINUOUS
 10
2.352004
 20
-4.397535
  0
VERTEX
  8
PLAN_1
  6
CONTINUOUS
 10
2.359484
 20
-4.400984
  0
VERTEX
  8
PLAN_1
  6
CONTINUOUS
 10
2.365811
 20
-4.405012
  0
VERTEX
  8
PLAN_1
  6
CONTINUOUS
 10
2.370988
 20
-4.409614
  0
VERTEX
  8
PLAN_1
  6
CONTINUOUS
 10
2.375016
 20
-4.414217
  0
VERTEX
  8
PLAN_1
  6
CONTINUOUS
 10
2.379043
 20
-4.419394
  0
VERTEX
  8
PLAN_1
  6
CONTINUOUS
 10
2.381917
 20
-4.424571
  0
VERTEX
  8
PLAN_1
  6
CONTINUOUS
 10
2.384220
 20
-4.429752
  0
VERTEX
  8
PLAN_1
  6
CONTINUOUS
 10
2.385370
 20
-4.434929
  0
VERTEX
  8
PLAN_1
  6
CONTINUOUS
 10
2.387673
 20
-4.445283
  0
VERTEX
  8
PLAN_1
  6
CONTINUOUS
 10
2.388248
 20
-4.454488
  0
VERTEX
  8
PLAN_1
  6
CONTINUOUS
 10
2.362933
 20
-4.454488
  0
SEQEND
  8
0
  0
POLYLINE
  8
PLAN_1
  6
CONTINUOUS
 66
     1
 40
0.008051
 41
0.008051
  0
VERTEX
  8
PLAN_1
  6
CONTINUOUS
 10
0.087094
 20
0.479185
  0
VERTEX
  8
PLAN_1
  6
CONTINUOUS
 10
0.124488
 20
0.479185
  0
VERTEX
  8
PLAN_1
  6
CONTINUOUS
 10
0.124488
 20
0.991189
  0
VERTEX
  8
PLAN_1
  6
CONTINUOUS
 10
0.086520
 20
0.991189
  0
SEQEND
  8
0
  0
POLYLINE
  8
PLAN_1
  6
CONTINUOUS
 66
     1
 40
0.008051
 41
0.008051
  0
VERTEX
  8
PLAN_1
  6
CONTINUOUS
 10
0.087094
 20
-1.927248
  0
VERTEX
  8
PLAN_1
  6
CONTINUOUS
 10
0.124488
 20
-1.927248
  0
VERTEX
  8
PLAN_1
  6
CONTINUOUS
 10
0.124488
 20
-1.558488
  0
VERTEX
  8
PLAN_1
  6
CONTINUOUS
 10
0.087094
 20
-1.558488
  0
SEQEND
  8
0
  0
POLYLINE
  8
PLAN_1
  6
CONTINUOUS
 66
     1
 40
0.008051
 41
0.008051
  0
VERTEX
  8
PLAN_1
  6
CONTINUOUS
 10
-1.326390
 20
0.586764
  0
VERTEX
  8
PLAN_1
  6
CONTINUOUS
 10
-1.450075
 20
0.586764
  0
VERTEX
  8
PLAN_1
  6
CONTINUOUS
 10
-1.450075
 20
-2.508862
  0
VERTEX
  8
PLAN_1
  6
CONTINUOUS
 10
0.086520
 20
-2.508862
  0
SEQEND
  8
0
  0
POLYLINE
  8
PLAN_1
  6
CONTINUOUS
 66
     1
 40
0.008051
 41
0.008051
  0
VERTEX
  8
PLAN_1
  6
CONTINUOUS
 10
0.086520
 20
-2.508862
  0
VERTEX
  8
PLAN_1
  6
CONTINUOUS
 10
0.086520
 20
-2.357563
  0
VERTEX
  8
PLAN_1
  6
CONTINUOUS
 10
0.086520
 20
-1.961189
  0
VERTEX
  8
PLAN_1
  6
CONTINUOUS
 10
0.086520
 20
-1.401433
  0
VERTEX
  8
PLAN_1
  6
CONTINUOUS
 10
0.086520
 20
-0.759413
  0
VERTEX
  8
PLAN_1
  6
CONTINUOUS
 10
0.086520
 20
-0.117390
  0
VERTEX
  8
PLAN_1
  6
CONTINUOUS
 10
0.086520
 20
0.442366
  0
VERTEX
  8
PLAN_1
  6
CONTINUOUS
 10
0.086520
 20
0.838740
  0
VERTEX
  8
PLAN_1
  6
CONTINUOUS
 10
0.086520
 20
0.988890
  0
SEQEND
  8
0
  0
POLYLINE
  8
PLAN_1
  6
CONTINUOUS
 66
     1
 40
0.008051
 41
0.008051
  0
VERTEX
  8
PLAN_1
  6
CONTINUOUS
 10
0.086520
 20
0.988890
  0
VERTEX
  8
PLAN_1
  6
CONTINUOUS
 10
-1.326390
 20
0.988890
  0
VERTEX
  8
PLAN_1
  6
CONTINUOUS
 10
-1.326390
 20
0.586764
  0
SEQEND
  8
0
  0
POLYLINE
  8
PLAN_1
  6
CONTINUOUS
 66
     1
 40
0.008051
 41
0.008051
  0
VERTEX
  8
PLAN_1
  6
CONTINUOUS
 10
-1.284969
 20
-1.575744
  0
VERTEX
  8
PLAN_1
  6
CONTINUOUS
 10
-1.423614
 20
-1.575744
  0
VERTEX
  8
PLAN_1
  6
CONTINUOUS
 10
-1.423614
 20
-1.936453
  0
VERTEX
  8
PLAN_1
  6
CONTINUOUS
 10
-1.284969
 20
-1.936453
  0
SEQEND
  8
0
  0
POLYLINE
  8
PLAN_1
  6
CONTINUOUS
 66
     1
 40
0.008051
 41
0.008051
  0
VERTEX
  8
PLAN_1
  6
CONTINUOUS
 10
-1.423614
 20
-1.901358
  0
VERTEX
  8
PLAN_1
  6
CONTINUOUS
 10
-1.350551
 20
-1.901358
  0
VERTEX
  8
PLAN_1
  6
CONTINUOUS
 10
-1.350551
 20
-1.872020
  0
VERTEX
  8
PLAN_1
  6
CONTINUOUS
 10
-1.423614
 20
-1.872020
  0
SEQEND
  8
0
  0
POLYLINE
  8
PLAN_1
  6
CONTINUOUS
 66
     1
 40
0.008051
 41
0.008051
  0
VERTEX
  8
PLAN_1
  6
CONTINUOUS
 10
-1.449500
 20
-1.963488
  0
VERTEX
  8
PLAN_1
  6
CONTINUOUS
 10
-1.283819
 20
-1.963488
  0
VERTEX
  8
PLAN_1
  6
CONTINUOUS
 10
-1.283819
 20
-1.546406
  0
VERTEX
  8
PLAN_1
  6
CONTINUOUS
 10
-1.449500
 20
-1.546406
  0
SEQEND
  8
0
  0
POLYLINE
  8
PLAN_1
  6
CONTINUOUS
 66
     1
 40
0.008051
 41
0.008051
  0
VERTEX
  8
PLAN_1
  6
CONTINUOUS
 10
-0.553776
 20
-1.711512
  0
VERTEX
  8
PLAN_1
  6
CONTINUOUS
 10
-0.599224
 20
-1.711512
  0
VERTEX
  8
PLAN_1
  6
CONTINUOUS
 10
-0.599224
 20
0.583311
  0
SEQEND
  8
0
  0
POLYLINE
  8
PLAN_1
  6
CONTINUOUS
 66
     1
 40
0.008051
 41
0.008051
  0
VERTEX
  8
PLAN_1
  6
CONTINUOUS
 10
-0.553776
 20
-2.507713
  0
VERTEX
  8
PLAN_1
  6
CONTINUOUS
 10
-0.553776
 20
0.586764
  0
VERTEX
  8
PLAN_1
  6
CONTINUOUS
 10
-1.326390
 20
0.586764
  0
SEQEND
  8
0
  0
POLYLINE
  8
PLAN_1
  6
CONTINUOUS
 66
     1
 40
0.008051
 41
0.008051
  0
VERTEX
  8
PLAN_1
  6
CONTINUOUS
 10
-0.899524
 20
0.586189
  0
VERTEX
  8
PLAN_1
  6
CONTINUOUS
 10
-0.899524
 20
0.991189
  0
SEQEND
  8
0
  0
POLYLINE
  8
PLAN_1
  6
CONTINUOUS
 66
     1
 40
0.008051
 41
0.008051
  0
VERTEX
  8
PLAN_1
  6
CONTINUOUS
 10
-1.326965
 20
1.251220
  0
VERTEX
  8
PLAN_1
  6
CONTINUOUS
 10
-1.437996
 20
1.251220
  0
VERTEX
  8
PLAN_1
  6
CONTINUOUS
 10
-1.703201
 20
1.286315
  0
VERTEX
  8
PLAN_1
  6
CONTINUOUS
 10
-1.703201
 20
2.076185
  0
VERTEX
  8
PLAN_1
  6
CONTINUOUS
 10
-1.447776
 20
2.119906
  0
VERTEX
  8
PLAN_1
  6
CONTINUOUS
 10
0.092846
 20
2.120480
  0
VERTEX
  8
PLAN_1
  6
CONTINUOUS
 10
0.092846
 20
0.988890
  0
VERTEX
  8
PLAN_1
  6
CONTINUOUS
 10
-1.326965
 20
0.988890
  0
VERTEX
  8
PLAN_1
  6
CONTINUOUS
 10
-1.326965
 20
1.251220
  0
SEQEND
  8
0
  0
POLYLINE
  8
PLAN_1
  6
CONTINUOUS
 66
     1
 40
0.008051
 41
0.008051
  0
VERTEX
  8
PLAN_1
  6
CONTINUOUS
 10
-1.326965
 20
2.120480
  0
VERTEX
  8
PLAN_1
  6
CONTINUOUS
 10
-1.326965
 20
1.252370
  0
SEQEND
  8
0
  0
POLYLINE
  8
PLAN_1
  6
CONTINUOUS
 66
     1
 40
0.008051
 41
0.008051
  0
VERTEX
  8
PLAN_1
  6
CONTINUOUS
 10
-1.436843
 20
2.119906
  0
VERTEX
  8
PLAN_1
  6
CONTINUOUS
 10
-1.436843
 20
1.260425
  0
SEQEND
  8
0
  0
POLYLINE
  8
PLAN_1
  6
CONTINUOUS
 66
     1
 40
0.008051
 41
0.008051
  0
VERTEX
  8
PLAN_1
  6
CONTINUOUS
 10
-2.111083
 20
1.472130
  0
VERTEX
  8
PLAN_1
  6
CONTINUOUS
 10
-2.111083
 20
1.951921
  0
VERTEX
  8
PLAN_1
  6
CONTINUOUS
 10
-2.224988
 20
1.951921
  0
VERTEX
  8
PLAN_1
  6
CONTINUOUS
 10
-2.224988
 20
1.472130
  0
VERTEX
  8
PLAN_1
  6
CONTINUOUS
 10
-2.111083
 20
1.472130
  0
SEQEND
  8
0
  0
POLYLINE
  8
PLAN_1
  6
CONTINUOUS
 66
     1
 40
0.008051
 41
0.008051
  0
VERTEX
  8
PLAN_1
  6
CONTINUOUS
 10
-2.223839
 20
1.829386
  0
VERTEX
  8
PLAN_1
  6
CONTINUOUS
 10
-2.114535
 20
1.829386
  0
SEQEND
  8
0
  0
POLYLINE
  8
PLAN_1
  6
CONTINUOUS
 66
     1
 40
0.008051
 41
0.008051
  0
VERTEX
  8
PLAN_1
  6
CONTINUOUS
 10
-2.223839
 20
1.594091
  0
VERTEX
  8
PLAN_1
  6
CONTINUOUS
 10
-2.114535
 20
1.594091
  0
SEQEND
  8
0
  0
POLYLINE
  8
PLAN_1
  6
CONTINUOUS
 66
     1
 40
0.008051
 41
0.008051
  0
VERTEX
  8
PLAN_1
  6
CONTINUOUS
 10
-2.211181
 20
1.951346
  0
VERTEX
  8
PLAN_1
  6
CONTINUOUS
 10
-2.212331
 20
1.949043
  0
VERTEX
  8
PLAN_1
  6
CONTINUOUS
 10
-2.215783
 20
1.940992
  0
VERTEX
  8
PLAN_1
  6
CONTINUOUS
 10
-2.217512
 20
1.935236
  0
VERTEX
  8
PLAN_1
  6
CONTINUOUS
 10
-2.219811
 20
1.928909
  0
VERTEX
  8
PLAN_1
  6
CONTINUOUS
 10
-2.221535
 20
1.921433
  0
VERTEX
  8
PLAN_1
  6
CONTINUOUS
 10
-2.222689
 20
1.912803
  0
VERTEX
  8
PLAN_1
  6
CONTINUOUS
 10
-2.223839
 20
1.904173
  0
VERTEX
  8
PLAN_1
  6
CONTINUOUS
 10
-2.224988
 20
1.894394
  0
VERTEX
  8
PLAN_1
  6
CONTINUOUS
 10
-2.224413
 20
1.884039
  0
VERTEX
  8
PLAN_1
  6
CONTINUOUS
 10
-2.223839
 20
1.873681
  0
VERTEX
  8
PLAN_1
  6
CONTINUOUS
 10
-2.221535
 20
1.862752
  0
VERTEX
  8
PLAN_1
  6
CONTINUOUS
 10
-2.218661
 20
1.851823
  0
VERTEX
  8
PLAN_1
  6
CONTINUOUS
 10
-2.216933
 20
1.846067
  0
VERTEX
  8
PLAN_1
  6
CONTINUOUS
 10
-2.214634
 20
1.840315
  0
VERTEX
  8
PLAN_1
  6
CONTINUOUS
 10
-2.211756
 20
1.834563
  0
VERTEX
  8
PLAN_1
  6
CONTINUOUS
 10
-2.208307
 20
1.828811
  0
VERTEX
  8
PLAN_1
  6
CONTINUOUS
 10
-2.210031
 20
1.824783
  0
VERTEX
  8
PLAN_1
  6
CONTINUOUS
 10
-2.213484
 20
1.812126
  0
VERTEX
  8
PLAN_1
  6
CONTINUOUS
 10
-2.215783
 20
1.802921
  0
VERTEX
  8
PLAN_1
  6
CONTINUOUS
 10
-2.218087
 20
1.791417
  0
VERTEX
  8
PLAN_1
  6
CONTINUOUS
 10
-2.219811
 20
1.778760
  0
VERTEX
  8
PLAN_1
  6
CONTINUOUS
 10
-2.222114
 20
1.764378
  0
VERTEX
  8
PLAN_1
  6
CONTINUOUS
 10
-2.223264
 20
1.747693
  0
VERTEX
  8
PLAN_1
  6
CONTINUOUS
 10
-2.224413
 20
1.729858
  0
VERTEX
  8
PLAN_1
  6
CONTINUOUS
 10
-2.224988
 20
1.710874
  0
VERTEX
  8
PLAN_1
  6
CONTINUOUS
 10
-2.224413
 20
1.690165
  0
VERTEX
  8
PLAN_1
  6
CONTINUOUS
 10
-2.223264
 20
1.667728
  0
VERTEX
  8
PLAN_1
  6
CONTINUOUS
 10
-2.220386
 20
1.644717
  0
VERTEX
  8
PLAN_1
  6
CONTINUOUS
 10
-2.218661
 20
1.632063
  0
VERTEX
  8
PLAN_1
  6
CONTINUOUS
 10
-2.216933
 20
1.619980
  0
VERTEX
  8
PLAN_1
  6
CONTINUOUS
 10
-2.214059
 20
1.607323
  0
VERTEX
  8
PLAN_1
  6
CONTINUOUS
 10
-2.211756
 20
1.594091
  0
VERTEX
  8
PLAN_1
  6
CONTINUOUS
 10
-2.212909
 20
1.591217
  0
VERTEX
  8
PLAN_1
  6
CONTINUOUS
 10
-2.215783
 20
1.583736
  0
VERTEX
  8
PLAN_1
  6
CONTINUOUS
 10
-2.218087
 20
1.577984
  0
VERTEX
  8
PLAN_1
  6
CONTINUOUS
 10
-2.219811
 20
1.571657
  0
VERTEX
  8
PLAN_1
  6
CONTINUOUS
 10
-2.221535
 20
1.564177
  0
VERTEX
  8
PLAN_1
  6
CONTINUOUS
 10
-2.223264
 20
1.556122
  0
VERTEX
  8
PLAN_1
  6
CONTINUOUS
 10
-2.224413
 20
1.547492
  0
VERTEX
  8
PLAN_1
  6
CONTINUOUS
 10
-2.224988
 20
1.537713
  0
VERTEX
  8
PLAN_1
  6
CONTINUOUS
 10
-2.224988
 20
1.527933
  0
VERTEX
  8
PLAN_1
  6
CONTINUOUS
 10
-2.224413
 20
1.517579
  0
VERTEX
  8
PLAN_1
  6
CONTINUOUS
 10
-2.222114
 20
1.506650
  0
VERTEX
  8
PLAN_1
  6
CONTINUOUS
 10
-2.219236
 20
1.495717
  0
VERTEX
  8
PLAN_1
  6
CONTINUOUS
 10
-2.216933
 20
1.489965
  0
VERTEX
  8
PLAN_1
  6
CONTINUOUS
 10
-2.214634
 20
1.484213
  0
VERTEX
  8
PLAN_1
  6
CONTINUOUS
 10
-2.212331
 20
1.479035
  0
VERTEX
  8
PLAN_1
  6
CONTINUOUS
 10
-2.208882
 20
1.473283
  0
SEQEND
  8
0
  0
POLYLINE
  8
PLAN_1
  6
CONTINUOUS
 66
     1
 40
0.008051
 41
0.008051
  0
VERTEX
  8
PLAN_1
  6
CONTINUOUS
 10
-2.277913
 20
1.846646
  0
VERTEX
  8
PLAN_1
  6
CONTINUOUS
 10
-2.277913
 20
1.573957
  0
SEQEND
  8
0
  0
POLYLINE
  8
PLAN_1
  6
CONTINUOUS
 66
     1
 40
0.008051
 41
0.008051
  0
VERTEX
  8
PLAN_1
  6
CONTINUOUS
 10
-2.277913
 20
1.573957
  0
VERTEX
  8
PLAN_1
  6
CONTINUOUS
 10
-2.287118
 20
1.583736
  0
VERTEX
  8
PLAN_1
  6
CONTINUOUS
 10
-2.287118
 20
1.836287
  0
VERTEX
  8
PLAN_1
  6
CONTINUOUS
 10
-2.277913
 20
1.845492
  0
VERTEX
  8
PLAN_1
  6
CONTINUOUS
 10
-2.224988
 20
1.846646
  0
VERTEX
  8
PLAN_1
  6
CONTINUOUS
 10
-2.224988
 20
1.573957
  0
VERTEX
  8
PLAN_1
  6
CONTINUOUS
 10
-2.277913
 20
1.573957
  0
SEQEND
  8
0
  0
POLYLINE
  8
PLAN_1
  6
CONTINUOUS
 66
     1
 40
0.008051
 41
0.008051
  0
VERTEX
  8
PLAN_1
  6
CONTINUOUS
 10
-2.036295
 20
3.336063
  0
VERTEX
  8
PLAN_1
  6
CONTINUOUS
 10
-2.036295
 20
4.147795
  0
VERTEX
  8
PLAN_1
  6
CONTINUOUS
 10
-2.216358
 20
4.147795
  0
VERTEX
  8
PLAN_1
  6
CONTINUOUS
 10
-2.216358
 20
3.336063
  0
VERTEX
  8
PLAN_1
  6
CONTINUOUS
 10
-2.036295
 20
3.336063
  0
SEQEND
  8
0
  0
POLYLINE
  8
PLAN_1
  6
CONTINUOUS
 66
     1
 40
0.008051
 41
0.008051
  0
VERTEX
  8
PLAN_1
  6
CONTINUOUS
 10
-2.244547
 20
3.512102
  0
VERTEX
  8
PLAN_1
  6
CONTINUOUS
 10
-2.244547
 20
3.962555
  0
VERTEX
  8
PLAN_1
  6
CONTINUOUS
 10
-2.350976
 20
3.962555
  0
VERTEX
  8
PLAN_1
  6
CONTINUOUS
 10
-2.350976
 20
3.512102
  0
VERTEX
  8
PLAN_1
  6
CONTINUOUS
 10
-2.244547
 20
3.512102
  0
SEQEND
  8
0
  0
POLYLINE
  8
PLAN_1
  6
CONTINUOUS
 66
     1
 40
0.008051
 41
0.008051
  0
VERTEX
  8
PLAN_1
  6
CONTINUOUS
 10
-2.350402
 20
3.847496
  0
VERTEX
  8
PLAN_1
  6
CONTINUOUS
 10
-2.247425
 20
3.847496
  0
SEQEND
  8
0
  0
POLYLINE
  8
PLAN_1
  6
CONTINUOUS
 66
     1
 40
0.008051
 41
0.008051
  0
VERTEX
  8
PLAN_1
  6
CONTINUOUS
 10
-2.350402
 20
3.627161
  0
VERTEX
  8
PLAN_1
  6
CONTINUOUS
 10
-2.247425
 20
3.627161
  0
SEQEND
  8
0
  0
POLYLINE
  8
PLAN_1
  6
CONTINUOUS
 66
     1
 40
0.008051
 41
0.008051
  0
VERTEX
  8
PLAN_1
  6
CONTINUOUS
 10
-2.245122
 20
3.550071
  0
VERTEX
  8
PLAN_1
  6
CONTINUOUS
 10
-2.245122
 20
3.930339
  0
VERTEX
  8
PLAN_1
  6
CONTINUOUS
 10
-2.216358
 20
3.930339
  0
VERTEX
  8
PLAN_1
  6
CONTINUOUS
 10
-2.216358
 20
3.550071
  0
VERTEX
  8
PLAN_1
  6
CONTINUOUS
 10
-2.245122
 20
3.550071
  0
SEQEND
  8
0
  0
POLYLINE
  8
PLAN_1
  6
CONTINUOUS
 66
     1
 40
0.008051
 41
0.008051
  0
VERTEX
  8
PLAN_1
  6
CONTINUOUS
 10
-2.036295
 20
3.549496
  0
VERTEX
  8
PLAN_1
  6
CONTINUOUS
 10
-2.036295
 20
3.929764
  0
VERTEX
  8
PLAN_1
  6
CONTINUOUS
 10
-1.968984
 20
3.929764
  0
VERTEX
  8
PLAN_1
  6
CONTINUOUS
 10
-1.968984
 20
3.549496
  0
VERTEX
  8
PLAN_1
  6
CONTINUOUS
 10
-2.036295
 20
3.549496
  0
SEQEND
  8
0
  0
POLYLINE
  8
PLAN_1
  6
CONTINUOUS
 66
     1
 40
0.008051
 41
0.008051
  0
VERTEX
  8
PLAN_1
  6
CONTINUOUS
 10
-2.338319
 20
3.962555
  0
VERTEX
  8
PLAN_1
  6
CONTINUOUS
 10
-2.339472
 20
3.959677
  0
VERTEX
  8
PLAN_1
  6
CONTINUOUS
 10
-2.342346
 20
3.952197
  0
VERTEX
  8
PLAN_1
  6
CONTINUOUS
 10
-2.344075
 20
3.947020
  0
VERTEX
  8
PLAN_1
  6
CONTINUOUS
 10
-2.346374
 20
3.940693
  0
VERTEX
  8
PLAN_1
  6
CONTINUOUS
 10
-2.348102
 20
3.933787
  0
VERTEX
  8
PLAN_1
  6
CONTINUOUS
 10
-2.349252
 20
3.926311
  0
VERTEX
  8
PLAN_1
  6
CONTINUOUS
 10
-2.350402
 20
3.917681
  0
VERTEX
  8
PLAN_1
  6
CONTINUOUS
 10
-2.350976
 20
3.908476
  0
VERTEX
  8
PLAN_1
  6
CONTINUOUS
 10
-2.350976
 20
3.899272
  0
VERTEX
  8
PLAN_1
  6
CONTINUOUS
 10
-2.349827
 20
3.889492
  0
VERTEX
  8
PLAN_1
  6
CONTINUOUS
 10
-2.348102
 20
3.879138
  0
VERTEX
  8
PLAN_1
  6
CONTINUOUS
 10
-2.345224
 20
3.868783
  0
VERTEX
  8
PLAN_1
  6
CONTINUOUS
 10
-2.343500
 20
3.863028
  0
VERTEX
  8
PLAN_1
  6
CONTINUOUS
 10
-2.341197
 20
3.857850
  0
VERTEX
  8
PLAN_1
  6
CONTINUOUS
 10
-2.338898
 20
3.852673
  0
VERTEX
  8
PLAN_1
  6
CONTINUOUS
 10
-2.336020
 20
3.847496
  0
VERTEX
  8
PLAN_1
  6
CONTINUOUS
 10
-2.337169
 20
3.843469
  0
VERTEX
  8
PLAN_1
  6
CONTINUOUS
 10
-2.340622
 20
3.831390
  0
VERTEX
  8
PLAN_1
  6
CONTINUOUS
 10
-2.342346
 20
3.822760
  0
VERTEX
  8
PLAN_1
  6
CONTINUOUS
 10
-2.344650
 20
3.812402
  0
VERTEX
  8
PLAN_1
  6
CONTINUOUS
 10
-2.346374
 20
3.800323
  0
VERTEX
  8
PLAN_1
  6
CONTINUOUS
 10
-2.348677
 20
3.786516
  0
VERTEX
  8
PLAN_1
  6
CONTINUOUS
 10
-2.349827
 20
3.770984
  0
VERTEX
  8
PLAN_1
  6
CONTINUOUS
 10
-2.350976
 20
3.754299
  0
VERTEX
  8
PLAN_1
  6
CONTINUOUS
 10
-2.350976
 20
3.736465
  0
VERTEX
  8
PLAN_1
  6
CONTINUOUS
 10
-2.350976
 20
3.716906
  0
VERTEX
  8
PLAN_1
  6
CONTINUOUS
 10
-2.349252
 20
3.696197
  0
VERTEX
  8
PLAN_1
  6
CONTINUOUS
 10
-2.346949
 20
3.674335
  0
VERTEX
  8
PLAN_1
  6
CONTINUOUS
 10
-2.343500
 20
3.651323
  0
VERTEX
  8
PLAN_1
  6
CONTINUOUS
 10
-2.338898
 20
3.626587
  0
VERTEX
  8
PLAN_1
  6
CONTINUOUS
 10
-2.340047
 20
3.624283
  0
VERTEX
  8
PLAN_1
  6
CONTINUOUS
 10
-2.342921
 20
3.617382
  0
VERTEX
  8
PLAN_1
  6
CONTINUOUS
 10
-2.344650
 20
3.612205
  0
VERTEX
  8
PLAN_1
  6
CONTINUOUS
 10
-2.346374
 20
3.605874
  0
VERTEX
  8
PLAN_1
  6
CONTINUOUS
 10
-2.348102
 20
3.598972
  0
VERTEX
  8
PLAN_1
  6
CONTINUOUS
 10
-2.349827
 20
3.591492
  0
VERTEX
  8
PLAN_1
  6
CONTINUOUS
 10
-2.350976
 20
3.582862
  0
VERTEX
  8
PLAN_1
  6
CONTINUOUS
 10
-2.351551
 20
3.574232
  0
VERTEX
  8
PLAN_1
  6
CONTINUOUS
 10
-2.351551
 20
3.565031
  0
VERTEX
  8
PLAN_1
  6
CONTINUOUS
 10
-2.350402
 20
3.555248
  0
VERTEX
  8
PLAN_1
  6
CONTINUOUS
 10
-2.348677
 20
3.544894
  0
VERTEX
  8
PLAN_1
  6
CONTINUOUS
 10
-2.345799
 20
3.534539
  0
VERTEX
  8
PLAN_1
  6
CONTINUOUS
 10
-2.344075
 20
3.529362
  0
VERTEX
  8
PLAN_1
  6
CONTINUOUS
 10
-2.341772
 20
3.524185
  0
VERTEX
  8
PLAN_1
  6
CONTINUOUS
 10
-2.339472
 20
3.519008
  0
VERTEX
  8
PLAN_1
  6
CONTINUOUS
 10
-2.336020
 20
3.513252
  0
SEQEND
  8
0
  0
POLYLINE
  8
PLAN_1
  6
CONTINUOUS
 66
     1
 40
0.008051
 41
0.008051
  0
VERTEX
  8
PLAN_1
  6
CONTINUOUS
 10
-1.815961
 20
3.611051
  0
VERTEX
  8
PLAN_1
  6
CONTINUOUS
 10
-1.815961
 20
3.926311
  0
VERTEX
  8
PLAN_1
  6
CONTINUOUS
 10
-1.890748
 20
3.926311
  0
VERTEX
  8
PLAN_1
  6
CONTINUOUS
 10
-1.890748
 20
3.611051
  0
VERTEX
  8
PLAN_1
  6
CONTINUOUS
 10
-1.815961
 20
3.611051
  0
SEQEND
  8
0
  0
POLYLINE
  8
PLAN_1
  6
CONTINUOUS
 66
     1
 40
0.008051
 41
0.008051
  0
VERTEX
  8
PLAN_1
  6
CONTINUOUS
 10
-1.890169
 20
3.844043
  0
VERTEX
  8
PLAN_1
  6
CONTINUOUS
 10
-1.815961
 20
3.844043
  0
SEQEND
  8
0
  0
POLYLINE
  8
PLAN_1
  6
CONTINUOUS
 66
     1
 40
0.008051
 41
0.008051
  0
VERTEX
  8
PLAN_1
  6
CONTINUOUS
 10
-1.890169
 20
3.693894
  0
VERTEX
  8
PLAN_1
  6
CONTINUOUS
 10
-1.815961
 20
3.693894
  0
SEQEND
  8
0
  0
POLYLINE
  8
PLAN_1
  6
CONTINUOUS
 66
     1
 40
0.008051
 41
0.008051
  0
VERTEX
  8
PLAN_1
  6
CONTINUOUS
 10
-1.881543
 20
3.925736
  0
VERTEX
  8
PLAN_1
  6
CONTINUOUS
 10
-1.882118
 20
3.924008
  0
VERTEX
  8
PLAN_1
  6
CONTINUOUS
 10
-1.884417
 20
3.918831
  0
VERTEX
  8
PLAN_1
  6
CONTINUOUS
 10
-1.886720
 20
3.910780
  0
VERTEX
  8
PLAN_1
  6
CONTINUOUS
 10
-1.889020
 20
3.900421
  0
VERTEX
  8
PLAN_1
  6
CONTINUOUS
 10
-1.889594
 20
3.894669
  0
VERTEX
  8
PLAN_1
  6
CONTINUOUS
 10
-1.890169
 20
3.888343
  0
VERTEX
  8
PLAN_1
  6
CONTINUOUS
 10
-1.890169
 20
3.881437
  0
VERTEX
  8
PLAN_1
  6
CONTINUOUS
 10
-1.890169
 20
3.874535
  0
VERTEX
  8
PLAN_1
  6
CONTINUOUS
 10
-1.889020
 20
3.867055
  0
VERTEX
  8
PLAN_1
  6
CONTINUOUS
 10
-1.887295
 20
3.859579
  0
VERTEX
  8
PLAN_1
  6
CONTINUOUS
 10
-1.884992
 20
3.852098
  0
VERTEX
  8
PLAN_1
  6
CONTINUOUS
 10
-1.881543
 20
3.844618
  0
VERTEX
  8
PLAN_1
  6
CONTINUOUS
 10
-1.882118
 20
3.841169
  0
VERTEX
  8
PLAN_1
  6
CONTINUOUS
 10
-1.884417
 20
3.831965
  0
VERTEX
  8
PLAN_1
  6
CONTINUOUS
 10
-1.886720
 20
3.817583
  0
VERTEX
  8
PLAN_1
  6
CONTINUOUS
 10
-1.889020
 20
3.798598
  0
VERTEX
  8
PLAN_1
  6
CONTINUOUS
 10
-1.889594
 20
3.787665
  0
VERTEX
  8
PLAN_1
  6
CONTINUOUS
 10
-1.890169
 20
3.776161
  0
VERTEX
  8
PLAN_1
  6
CONTINUOUS
 10
-1.890169
 20
3.763504
  0
VERTEX
  8
PLAN_1
  6
CONTINUOUS
 10
-1.889594
 20
3.750272
  0
VERTEX
  8
PLAN_1
  6
CONTINUOUS
 10
-1.888445
 20
3.736465
  0
VERTEX
  8
PLAN_1
  6
CONTINUOUS
 10
-1.886720
 20
3.722083
  0
VERTEX
  8
PLAN_1
  6
CONTINUOUS
 10
-1.884417
 20
3.707701
  0
VERTEX
  8
PLAN_1
  6
CONTINUOUS
 10
-1.880965
 20
3.692744
  0
VERTEX
  8
PLAN_1
  6
CONTINUOUS
 10
-1.882118
 20
3.691016
  0
VERTEX
  8
PLAN_1
  6
CONTINUOUS
 10
-1.883843
 20
3.685839
  0
VERTEX
  8
PLAN_1
  6
CONTINUOUS
 10
-1.886146
 20
3.677787
  0
VERTEX
  8
PLAN_1
  6
CONTINUOUS
 10
-1.888445
 20
3.666854
  0
VERTEX
  8
PLAN_1
  6
CONTINUOUS
 10
-1.889594
 20
3.661102
  0
VERTEX
  8
PLAN_1
  6
CONTINUOUS
 10
-1.889594
 20
3.654776
  0
VERTEX
  8
PLAN_1
  6
CONTINUOUS
 10
-1.889594
 20
3.647870
  0
VERTEX
  8
PLAN_1
  6
CONTINUOUS
 10
-1.889594
 20
3.640969
  0
VERTEX
  8
PLAN_1
  6
CONTINUOUS
 10
-1.888445
 20
3.633488
  0
VERTEX
  8
PLAN_1
  6
CONTINUOUS
 10
-1.886720
 20
3.626012
  0
VERTEX
  8
PLAN_1
  6
CONTINUOUS
 10
-1.884417
 20
3.618531
  0
VERTEX
  8
PLAN_1
  6
CONTINUOUS
 10
-1.880965
 20
3.611051
  0
SEQEND
  8
0
  0
POLYLINE
  8
PLAN_1
  6
CONTINUOUS
 66
     1
 40
0.008051
 41
0.008051
  0
VERTEX
  8
PLAN_1
  6
CONTINUOUS
 10
-1.825165
 20
3.612205
  0
VERTEX
  8
PLAN_1
  6
CONTINUOUS
 10
-1.824012
 20
3.613929
  0
VERTEX
  8
PLAN_1
  6
CONTINUOUS
 10
-1.822287
 20
3.619106
  0
VERTEX
  8
PLAN_1
  6
CONTINUOUS
 10
-1.819984
 20
3.627161
  0
VERTEX
  8
PLAN_1
  6
CONTINUOUS
 10
-1.817685
 20
3.637516
  0
VERTEX
  8
PLAN_1
  6
CONTINUOUS
 10
-1.817110
 20
3.643268
  0
VERTEX
  8
PLAN_1
  6
CONTINUOUS
 10
-1.816535
 20
3.650173
  0
VERTEX
  8
PLAN_1
  6
CONTINUOUS
 10
-1.816535
 20
3.656500
  0
VERTEX
  8
PLAN_1
  6
CONTINUOUS
 10
-1.816535
 20
3.663406
  0
VERTEX
  8
PLAN_1
  6
CONTINUOUS
 10
-1.817685
 20
3.670882
  0
VERTEX
  8
PLAN_1
  6
CONTINUOUS
 10
-1.819409
 20
3.678362
  0
VERTEX
  8
PLAN_1
  6
CONTINUOUS
 10
-1.821713
 20
3.685839
  0
VERTEX
  8
PLAN_1
  6
CONTINUOUS
 10
-1.825165
 20
3.693319
  0
SEQEND
  8
0
  0
POLYLINE
  8
PLAN_1
  6
CONTINUOUS
 66
     1
 40
0.008051
 41
0.008051
  0
VERTEX
  8
PLAN_1
  6
CONTINUOUS
 10
-1.824012
 20
3.844618
  0
VERTEX
  8
PLAN_1
  6
CONTINUOUS
 10
-1.823437
 20
3.846346
  0
VERTEX
  8
PLAN_1
  6
CONTINUOUS
 10
-1.821713
 20
3.851524
  0
VERTEX
  8
PLAN_1
  6
CONTINUOUS
 10
-1.818835
 20
3.859579
  0
VERTEX
  8
PLAN_1
  6
CONTINUOUS
 10
-1.817110
 20
3.869933
  0
VERTEX
  8
PLAN_1
  6
CONTINUOUS
 10
-1.815961
 20
3.875685
  0
VERTEX
  8
PLAN_1
  6
CONTINUOUS
 10
-1.815382
 20
3.882591
  0
VERTEX
  8
PLAN_1
  6
CONTINUOUS
 10
-1.815382
 20
3.888917
  0
VERTEX
  8
PLAN_1
  6
CONTINUOUS
 10
-1.815961
 20
3.895819
  0
VERTEX
  8
PLAN_1
  6
CONTINUOUS
 10
-1.817110
 20
3.903299
  0
VERTEX
  8
PLAN_1
  6
CONTINUOUS
 10
-1.818835
 20
3.910780
  0
VERTEX
  8
PLAN_1
  6
CONTINUOUS
 10
-1.821138
 20
3.918256
  0
VERTEX
  8
PLAN_1
  6
CONTINUOUS
 10
-1.824012
 20
3.925736
  0
SEQEND
  8
0
  0
POLYLINE
  8
PLAN_1
  6
CONTINUOUS
 66
     1
 40
0.008051
 41
0.008051
  0
VERTEX
  8
PLAN_1
  6
CONTINUOUS
 10
-1.824587
 20
3.693319
  0
VERTEX
  8
PLAN_1
  6
CONTINUOUS
 10
-1.824012
 20
3.696772
  0
VERTEX
  8
PLAN_1
  6
CONTINUOUS
 10
-1.821713
 20
3.705976
  0
VERTEX
  8
PLAN_1
  6
CONTINUOUS
 10
-1.819409
 20
3.720358
  0
VERTEX
  8
PLAN_1
  6
CONTINUOUS
 10
-1.817110
 20
3.739343
  0
VERTEX
  8
PLAN_1
  6
CONTINUOUS
 10
-1.816535
 20
3.749697
  0
VERTEX
  8
PLAN_1
  6
CONTINUOUS
 10
-1.815961
 20
3.761780
  0
VERTEX
  8
PLAN_1
  6
CONTINUOUS
 10
-1.815961
 20
3.774433
  0
VERTEX
  8
PLAN_1
  6
CONTINUOUS
 10
-1.816535
 20
3.787665
  0
VERTEX
  8
PLAN_1
  6
CONTINUOUS
 10
-1.817685
 20
3.801472
  0
VERTEX
  8
PLAN_1
  6
CONTINUOUS
 10
-1.819409
 20
3.815280
  0
VERTEX
  8
PLAN_1
  6
CONTINUOUS
 10
-1.821713
 20
3.830236
  0
VERTEX
  8
PLAN_1
  6
CONTINUOUS
 10
-1.825165
 20
3.845197
  0
SEQEND
  8
0
  0
POLYLINE
  8
PLAN_1
  6
CONTINUOUS
 66
     1
 40
0.008051
 41
0.008051
  0
VERTEX
  8
PLAN_1
  6
CONTINUOUS
 10
-1.890748
 20
2.055472
  0
VERTEX
  8
PLAN_1
  6
CONTINUOUS
 10
-1.891323
 20
2.055472
  0
SEQEND
  8
0
  0
POLYLINE
  8
PLAN_1
  6
CONTINUOUS
 66
     1
 40
0.008051
 41
0.008051
  0
VERTEX
  8
PLAN_1
  6
CONTINUOUS
 10
-1.817110
 20
1.304146
  0
VERTEX
  8
PLAN_1
  6
CONTINUOUS
 10
-1.703201
 20
1.304146
  0
VERTEX
  8
PLAN_1
  6
CONTINUOUS
 10
-1.703201
 20
2.055472
  0
VERTEX
  8
PLAN_1
  6
CONTINUOUS
 10
-1.817110
 20
2.055472
  0
SEQEND
  8
0
  0
POLYLINE
  8
PLAN_1
  6
CONTINUOUS
 66
     1
 40
0.008051
 41
0.008051
  0
VERTEX
  8
PLAN_1
  6
CONTINUOUS
 10
-1.891323
 20
1.304146
  0
VERTEX
  8
PLAN_1
  6
CONTINUOUS
 10
-1.890748
 20
1.304146
  0
SEQEND
  8
0
  0
POLYLINE
  8
PLAN_1
  6
CONTINUOUS
 66
     1
 40
0.008051
 41
0.008051
  0
VERTEX
  8
PLAN_1
  6
CONTINUOUS
 10
-1.965535
 20
2.055472
  0
VERTEX
  8
PLAN_1
  6
CONTINUOUS
 10
-2.047799
 20
2.055472
  0
VERTEX
  8
PLAN_1
  6
CONTINUOUS
 10
-2.047799
 20
1.304146
  0
VERTEX
  8
PLAN_1
  6
CONTINUOUS
 10
-1.965535
 20
1.304146
  0
SEQEND
  8
0
  0
POLYLINE
  8
PLAN_1
  6
CONTINUOUS
 66
     1
 40
0.008051
 41
0.008051
  0
VERTEX
  8
PLAN_1
  6
CONTINUOUS
 10
-1.965535
 20
2.055472
  0
VERTEX
  8
PLAN_1
  6
CONTINUOUS
 10
-1.965535
 20
1.304146
  0
SEQEND
  8
0
  0
POLYLINE
  8
PLAN_1
  6
CONTINUOUS
 66
     1
 40
0.008051
 41
0.008051
  0
VERTEX
  8
PLAN_1
  6
CONTINUOUS
 10
-1.891323
 20
2.055472
  0
VERTEX
  8
PLAN_1
  6
CONTINUOUS
 10
-1.891323
 20
1.304146
  0
SEQEND
  8
0
  0
POLYLINE
  8
PLAN_1
  6
CONTINUOUS
 66
     1
 40
0.008051
 41
0.008051
  0
VERTEX
  8
PLAN_1
  6
CONTINUOUS
 10
-1.965535
 20
1.304146
  0
VERTEX
  8
PLAN_1
  6
CONTINUOUS
 10
-1.965535
 20
0.256547
  0
VERTEX
  8
PLAN_1
  6
CONTINUOUS
 10
-1.891323
 20
0.256547
  0
VERTEX
  8
PLAN_1
  6
CONTINUOUS
 10
-1.891323
 20
1.304146
  0
SEQEND
  8
0
  0
POLYLINE
  8
PLAN_1
  6
CONTINUOUS
 66
     1
 40
0.008051
 41
0.008051
  0
VERTEX
  8
PLAN_1
  6
CONTINUOUS
 10
-1.965535
 20
2.055472
  0
VERTEX
  8
PLAN_1
  6
CONTINUOUS
 10
-1.965535
 20
3.938969
  0
VERTEX
  8
PLAN_1
  6
CONTINUOUS
 10
-1.891323
 20
3.938969
  0
VERTEX
  8
PLAN_1
  6
CONTINUOUS
 10
-1.891323
 20
2.055472
  0
SEQEND
  8
0
  0
POLYLINE
  8
PLAN_1
  6
CONTINUOUS
 66
     1
 40
0.008051
 41
0.008051
  0
VERTEX
  8
PLAN_1
  6
CONTINUOUS
 10
-1.890748
 20
1.304146
  0
VERTEX
  8
PLAN_1
  6
CONTINUOUS
 10
-1.890748
 20
1.228783
  0
VERTEX
  8
PLAN_1
  6
CONTINUOUS
 10
-1.817110
 20
1.228783
  0
VERTEX
  8
PLAN_1
  6
CONTINUOUS
 10
-1.817110
 20
1.304146
  0
SEQEND
  8
0
  0
POLYLINE
  8
PLAN_1
  6
CONTINUOUS
 66
     1
 40
0.008051
 41
0.008051
  0
VERTEX
  8
PLAN_1
  6
CONTINUOUS
 10
-1.890748
 20
2.055472
  0
VERTEX
  8
PLAN_1
  6
CONTINUOUS
 10
-1.890748
 20
1.304146
  0
SEQEND
  8
0
  0
POLYLINE
  8
PLAN_1
  6
CONTINUOUS
 66
     1
 40
0.008051
 41
0.008051
  0
VERTEX
  8
PLAN_1
  6
CONTINUOUS
 10
-1.817110
 20
2.055472
  0
VERTEX
  8
PLAN_1
  6
CONTINUOUS
 10
-1.817110
 20
1.304146
  0
SEQEND
  8
0
  0
POLYLINE
  8
PLAN_1
  6
CONTINUOUS
 66
     1
 40
0.008051
 41
0.008051
  0
VERTEX
  8
PLAN_1
  6
CONTINUOUS
 10
-1.817110
 20
2.055472
  0
VERTEX
  8
PLAN_1
  6
CONTINUOUS
 10
-1.817110
 20
2.147520
  0
VERTEX
  8
PLAN_1
  6
CONTINUOUS
 10
-1.890748
 20
2.147520
  0
VERTEX
  8
PLAN_1
  6
CONTINUOUS
 10
-1.890748
 20
2.055472
  0
SEQEND
  8
0
  0
POLYLINE
  8
PLAN_1
  6
CONTINUOUS
 66
     1
 40
0.008051
 41
0.008051
  0
VERTEX
  8
PLAN_1
  6
CONTINUOUS
 10
-2.331417
 20
2.065827
  0
VERTEX
  8
PLAN_1
  6
CONTINUOUS
 10
-2.331417
 20
2.124508
  0
VERTEX
  8
PLAN_1
  6
CONTINUOUS
 10
-1.968984
 20
2.124508
  0
VERTEX
  8
PLAN_1
  6
CONTINUOUS
 10
-1.968984
 20
2.065827
  0
VERTEX
  8
PLAN_1
  6
CONTINUOUS
 10
-2.331417
 20
2.065827
  0
SEQEND
  8
0
  0
POLYLINE
  8
PLAN_1
  6
CONTINUOUS
 66
     1
 40
0.008051
 41
0.008051
  0
VERTEX
  8
PLAN_1
  6
CONTINUOUS
 10
-2.047799
 20
1.351319
  0
VERTEX
  8
PLAN_1
  6
CONTINUOUS
 10
-2.047799
 20
2.035339
  0
VERTEX
  8
PLAN_1
  6
CONTINUOUS
 10
-2.109354
 20
2.035339
  0
VERTEX
  8
PLAN_1
  6
CONTINUOUS
 10
-2.109354
 20
1.351319
  0
VERTEX
  8
PLAN_1
  6
CONTINUOUS
 10
-2.047799
 20
1.351319
  0
SEQEND
  8
0
  0
POLYLINE
  8
PLAN_1
 62
     5
  6
CONTINUOUS
 66
     1
 40
0.003000
 41
0.003000
  0
VERTEX
  8
PLAN_1
 62
     5
  6
CONTINUOUS
 10
-1.604827
 20
3.513252
  0
VERTEX
  8
PLAN_1
 62
     5
  6
CONTINUOUS
 10
-1.596776
 20
3.513252
  0
SEQEND
  8
0
  0
POLYLINE
  8
PLAN_1
 62
     5
  6
CONTINUOUS
 66
     1
 40
0.003000
 41
0.003000
  0
VERTEX
  8
PLAN_1
 62
     5
  6
CONTINUOUS
 10
-1.588146
 20
3.513252
  0
VERTEX
  8
PLAN_1
 62
     5
  6
CONTINUOUS
 10
-1.580091
 20
3.513252
  0
SEQEND
  8
0
  0
POLYLINE
  8
PLAN_1
 62
     5
  6
CONTINUOUS
 66
     1
 40
0.003000
 41
0.003000
  0
VERTEX
  8
PLAN_1
 62
     5
  6
CONTINUOUS
 10
-1.571461
 20
3.513252
  0
VERTEX
  8
PLAN_1
 62
     5
  6
CONTINUOUS
 10
-1.563406
 20
3.513252
  0
SEQEND
  8
0
  0
POLYLINE
  8
PLAN_1
 62
     5
  6
CONTINUOUS
 66
     1
 40
0.003000
 41
0.003000
  0
VERTEX
  8
PLAN_1
 62
     5
  6
CONTINUOUS
 10
-1.554780
 20
3.513252
  0
VERTEX
  8
PLAN_1
 62
     5
  6
CONTINUOUS
 10
-1.546724
 20
3.513252
  0
SEQEND
  8
0
  0
POLYLINE
  8
PLAN_1
 62
     5
  6
CONTINUOUS
 66
     1
 40
0.003000
 41
0.003000
  0
VERTEX
  8
PLAN_1
 62
     5
  6
CONTINUOUS
 10
-1.538669
 20
3.513252
  0
VERTEX
  8
PLAN_1
 62
     5
  6
CONTINUOUS
 10
-1.530039
 20
3.513252
  0
SEQEND
  8
0
  0
POLYLINE
  8
PLAN_1
 62
     5
  6
CONTINUOUS
 66
     1
 40
0.003000
 41
0.003000
  0
VERTEX
  8
PLAN_1
 62
     5
  6
CONTINUOUS
 10
-1.521988
 20
3.513252
  0
VERTEX
  8
PLAN_1
 62
     5
  6
CONTINUOUS
 10
-1.513358
 20
3.513252
  0
SEQEND
  8
0
  0
POLYLINE
  8
PLAN_1
 62
     5
  6
CONTINUOUS
 66
     1
 40
0.003000
 41
0.003000
  0
VERTEX
  8
PLAN_1
 62
     5
  6
CONTINUOUS
 10
-1.505303
 20
3.513252
  0
VERTEX
  8
PLAN_1
 62
     5
  6
CONTINUOUS
 10
-1.498402
 20
3.513252
  0
VERTEX
  8
PLAN_1
 62
     5
  6
CONTINUOUS
 10
-1.498402
 20
3.514406
  0
SEQEND
  8
0
  0
POLYLINE
  8
PLAN_1
 62
     5
  6
CONTINUOUS
 66
     1
 40
0.003000
 41
0.003000
  0
VERTEX
  8
PLAN_1
 62
     5
  6
CONTINUOUS
 10
-1.498402
 20
3.523035
  0
VERTEX
  8
PLAN_1
 62
     5
  6
CONTINUOUS
 10
-1.498402
 20
3.531087
  0
SEQEND
  8
0
  0
POLYLINE
  8
PLAN_1
 62
     5
  6
CONTINUOUS
 66
     1
 40
0.003000
 41
0.003000
  0
VERTEX
  8
PLAN_1
 62
     5
  6
CONTINUOUS
 10
-1.498402
 20
3.539717
  0
VERTEX
  8
PLAN_1
 62
     5
  6
CONTINUOUS
 10
-1.498402
 20
3.547772
  0
SEQEND
  8
0
  0
POLYLINE
  8
PLAN_1
 62
     5
  6
CONTINUOUS
 66
     1
 40
0.003000
 41
0.003000
  0
VERTEX
  8
PLAN_1
 62
     5
  6
CONTINUOUS
 10
-1.498402
 20
3.556402
  0
VERTEX
  8
PLAN_1
 62
     5
  6
CONTINUOUS
 10
-1.498402
 20
3.564453
  0
SEQEND
  8
0
  0
POLYLINE
  8
PLAN_1
 62
     5
  6
CONTINUOUS
 66
     1
 40
0.003000
 41
0.003000
  0
VERTEX
  8
PLAN_1
 62
     5
  6
CONTINUOUS
 10
-1.498402
 20
3.573083
  0
VERTEX
  8
PLAN_1
 62
     5
  6
CONTINUOUS
 10
-1.498402
 20
3.581138
  0
SEQEND
  8
0
  0
POLYLINE
  8
PLAN_1
 62
     5
  6
CONTINUOUS
 66
     1
 40
0.003000
 41
0.003000
  0
VERTEX
  8
PLAN_1
 62
     5
  6
CONTINUOUS
 10
-1.498402
 20
3.589768
  0
VERTEX
  8
PLAN_1
 62
     5
  6
CONTINUOUS
 10
-1.498402
 20
3.597823
  0
SEQEND
  8
0
  0
POLYLINE
  8
PLAN_1
 62
     5
  6
CONTINUOUS
 66
     1
 40
0.003000
 41
0.003000
  0
VERTEX
  8
PLAN_1
 62
     5
  6
CONTINUOUS
 10
-1.498402
 20
3.606449
  0
VERTEX
  8
PLAN_1
 62
     5
  6
CONTINUOUS
 10
-1.498402
 20
3.614504
  0
SEQEND
  8
0
  0
POLYLINE
  8
PLAN_1
 62
     5
  6
CONTINUOUS
 66
     1
 40
0.003000
 41
0.003000
  0
VERTEX
  8
PLAN_1
 62
     5
  6
CONTINUOUS
 10
-1.498402
 20
3.623134
  0
VERTEX
  8
PLAN_1
 62
     5
  6
CONTINUOUS
 10
-1.498402
 20
3.631189
  0
SEQEND
  8
0
  0
POLYLINE
  8
PLAN_1
 62
     5
  6
CONTINUOUS
 66
     1
 40
0.003000
 41
0.003000
  0
VERTEX
  8
PLAN_1
 62
     5
  6
CONTINUOUS
 10
-1.498402
 20
3.639819
  0
VERTEX
  8
PLAN_1
 62
     5
  6
CONTINUOUS
 10
-1.498402
 20
3.647870
  0
SEQEND
  8
0
  0
POLYLINE
  8
PLAN_1
 62
     5
  6
CONTINUOUS
 66
     1
 40
0.003000
 41
0.003000
  0
VERTEX
  8
PLAN_1
 62
     5
  6
CONTINUOUS
 10
-1.498402
 20
3.656500
  0
VERTEX
  8
PLAN_1
 62
     5
  6
CONTINUOUS
 10
-1.498402
 20
3.664555
  0
SEQEND
  8
0
  0
POLYLINE
  8
PLAN_1
 62
     5
  6
CONTINUOUS
 66
     1
 40
0.003000
 41
0.003000
  0
VERTEX
  8
PLAN_1
 62
     5
  6
CONTINUOUS
 10
-1.498402
 20
3.673185
  0
VERTEX
  8
PLAN_1
 62
     5
  6
CONTINUOUS
 10
-1.498402
 20
3.681236
  0
SEQEND
  8
0
  0
POLYLINE
  8
PLAN_1
 62
     5
  6
CONTINUOUS
 66
     1
 40
0.003000
 41
0.003000
  0
VERTEX
  8
PLAN_1
 62
     5
  6
CONTINUOUS
 10
-1.498402
 20
3.689291
  0
VERTEX
  8
PLAN_1
 62
     5
  6
CONTINUOUS
 10
-1.498402
 20
3.697921
  0
SEQEND
  8
0
  0
POLYLINE
  8
PLAN_1
 62
     5
  6
CONTINUOUS
 66
     1
 40
0.003000
 41
0.003000
  0
VERTEX
  8
PLAN_1
 62
     5
  6
CONTINUOUS
 10
-1.498402
 20
3.705976
  0
VERTEX
  8
PLAN_1
 62
     5
  6
CONTINUOUS
 10
-1.498402
 20
3.714606
  0
SEQEND
  8
0
  0
POLYLINE
  8
PLAN_1
 62
     5
  6
CONTINUOUS
 66
     1
 40
0.003000
 41
0.003000
  0
VERTEX
  8
PLAN_1
 62
     5
  6
CONTINUOUS
 10
-1.498402
 20
3.722657
  0
VERTEX
  8
PLAN_1
 62
     5
  6
CONTINUOUS
 10
-1.498402
 20
3.731287
  0
SEQEND
  8
0
  0
POLYLINE
  8
PLAN_1
 62
     5
  6
CONTINUOUS
 66
     1
 40
0.003000
 41
0.003000
  0
VERTEX
  8
PLAN_1
 62
     5
  6
CONTINUOUS
 10
-1.498402
 20
3.739343
  0
VERTEX
  8
PLAN_1
 62
     5
  6
CONTINUOUS
 10
-1.498402
 20
3.747972
  0
SEQEND
  8
0
  0
POLYLINE
  8
PLAN_1
 62
     5
  6
CONTINUOUS
 66
     1
 40
0.003000
 41
0.003000
  0
VERTEX
  8
PLAN_1
 62
     5
  6
CONTINUOUS
 10
-1.498402
 20
3.756024
  0
VERTEX
  8
PLAN_1
 62
     5
  6
CONTINUOUS
 10
-1.498402
 20
3.764654
  0
SEQEND
  8
0
  0
POLYLINE
  8
PLAN_1
 62
     5
  6
CONTINUOUS
 66
     1
 40
0.003000
 41
0.003000
  0
VERTEX
  8
PLAN_1
 62
     5
  6
CONTINUOUS
 10
-1.498402
 20
3.772709
  0
VERTEX
  8
PLAN_1
 62
     5
  6
CONTINUOUS
 10
-1.498402
 20
3.781339
  0
SEQEND
  8
0
  0
POLYLINE
  8
PLAN_1
 62
     5
  6
CONTINUOUS
 66
     1
 40
0.003000
 41
0.003000
  0
VERTEX
  8
PLAN_1
 62
     5
  6
CONTINUOUS
 10
-1.498402
 20
3.789394
  0
VERTEX
  8
PLAN_1
 62
     5
  6
CONTINUOUS
 10
-1.498402
 20
3.798020
  0
SEQEND
  8
0
  0
POLYLINE
  8
PLAN_1
 62
     5
  6
CONTINUOUS
 66
     1
 40
0.003000
 41
0.003000
  0
VERTEX
  8
PLAN_1
 62
     5
  6
CONTINUOUS
 10
-1.498402
 20
3.806075
  0
VERTEX
  8
PLAN_1
 62
     5
  6
CONTINUOUS
 10
-1.498402
 20
3.814705
  0
SEQEND
  8
0
  0
POLYLINE
  8
PLAN_1
 62
     5
  6
CONTINUOUS
 66
     1
 40
0.003000
 41
0.003000
  0
VERTEX
  8
PLAN_1
 62
     5
  6
CONTINUOUS
 10
-1.498402
 20
3.822760
  0
VERTEX
  8
PLAN_1
 62
     5
  6
CONTINUOUS
 10
-1.498402
 20
3.831390
  0
SEQEND
  8
0
  0
POLYLINE
  8
PLAN_1
 62
     5
  6
CONTINUOUS
 66
     1
 40
0.003000
 41
0.003000
  0
VERTEX
  8
PLAN_1
 62
     5
  6
CONTINUOUS
 10
-1.498402
 20
3.839441
  0
VERTEX
  8
PLAN_1
 62
     5
  6
CONTINUOUS
 10
-1.498402
 20
3.848071
  0
SEQEND
  8
0
  0
POLYLINE
  8
PLAN_1
 62
     5
  6
CONTINUOUS
 66
     1
 40
0.003000
 41
0.003000
  0
VERTEX
  8
PLAN_1
 62
     5
  6
CONTINUOUS
 10
-1.498402
 20
3.856126
  0
VERTEX
  8
PLAN_1
 62
     5
  6
CONTINUOUS
 10
-1.498402
 20
3.864181
  0
SEQEND
  8
0
  0
POLYLINE
  8
PLAN_1
 62
     5
  6
CONTINUOUS
 66
     1
 40
0.003000
 41
0.003000
  0
VERTEX
  8
PLAN_1
 62
     5
  6
CONTINUOUS
 10
-1.498402
 20
3.872807
  0
VERTEX
  8
PLAN_1
 62
     5
  6
CONTINUOUS
 10
-1.498402
 20
3.880862
  0
SEQEND
  8
0
  0
POLYLINE
  8
PLAN_1
 62
     5
  6
CONTINUOUS
 66
     1
 40
0.003000
 41
0.003000
  0
VERTEX
  8
PLAN_1
 62
     5
  6
CONTINUOUS
 10
-1.498402
 20
3.889492
  0
VERTEX
  8
PLAN_1
 62
     5
  6
CONTINUOUS
 10
-1.498402
 20
3.897547
  0
SEQEND
  8
0
  0
POLYLINE
  8
PLAN_1
 62
     5
  6
CONTINUOUS
 66
     1
 40
0.003000
 41
0.003000
  0
VERTEX
  8
PLAN_1
 62
     5
  6
CONTINUOUS
 10
-1.498402
 20
3.906177
  0
VERTEX
  8
PLAN_1
 62
     5
  6
CONTINUOUS
 10
-1.498402
 20
3.914228
  0
SEQEND
  8
0
  0
POLYLINE
  8
PLAN_1
 62
     5
  6
CONTINUOUS
 66
     1
 40
0.003000
 41
0.003000
  0
VERTEX
  8
PLAN_1
 62
     5
  6
CONTINUOUS
 10
-1.498402
 20
3.922858
  0
VERTEX
  8
PLAN_1
 62
     5
  6
CONTINUOUS
 10
-1.498402
 20
3.930913
  0
SEQEND
  8
0
  0
POLYLINE
  8
PLAN_1
 62
     5
  6
CONTINUOUS
 66
     1
 40
0.003000
 41
0.003000
  0
VERTEX
  8
PLAN_1
 62
     5
  6
CONTINUOUS
 10
-1.498402
 20
3.939543
  0
VERTEX
  8
PLAN_1
 62
     5
  6
CONTINUOUS
 10
-1.498402
 20
3.947594
  0
SEQEND
  8
0
  0
POLYLINE
  8
PLAN_1
 62
     5
  6
CONTINUOUS
 66
     1
 40
0.003000
 41
0.003000
  0
VERTEX
  8
PLAN_1
 62
     5
  6
CONTINUOUS
 10
-1.498402
 20
3.956224
  0
VERTEX
  8
PLAN_1
 62
     5
  6
CONTINUOUS
 10
-1.498402
 20
3.963705
  0
VERTEX
  8
PLAN_1
 62
     5
  6
CONTINUOUS
 10
-1.498976
 20
3.963705
  0
SEQEND
  8
0
  0
POLYLINE
  8
PLAN_1
 62
     5
  6
CONTINUOUS
 66
     1
 40
0.003000
 41
0.003000
  0
VERTEX
  8
PLAN_1
 62
     5
  6
CONTINUOUS
 10
-1.507606
 20
3.963705
  0
VERTEX
  8
PLAN_1
 62
     5
  6
CONTINUOUS
 10
-1.515657
 20
3.963705
  0
SEQEND
  8
0
  0
POLYLINE
  8
PLAN_1
 62
     5
  6
CONTINUOUS
 66
     1
 40
0.003000
 41
0.003000
  0
VERTEX
  8
PLAN_1
 62
     5
  6
CONTINUOUS
 10
-1.523713
 20
3.963705
  0
VERTEX
  8
PLAN_1
 62
     5
  6
CONTINUOUS
 10
-1.532343
 20
3.963705
  0
SEQEND
  8
0
  0
POLYLINE
  8
PLAN_1
 62
     5
  6
CONTINUOUS
 66
     1
 40
0.003000
 41
0.003000
  0
VERTEX
  8
PLAN_1
 62
     5
  6
CONTINUOUS
 10
-1.540398
 20
3.963705
  0
VERTEX
  8
PLAN_1
 62
     5
  6
CONTINUOUS
 10
-1.549024
 20
3.963705
  0
SEQEND
  8
0
  0
POLYLINE
  8
PLAN_1
 62
     5
  6
CONTINUOUS
 66
     1
 40
0.003000
 41
0.003000
  0
VERTEX
  8
PLAN_1
 62
     5
  6
CONTINUOUS
 10
-1.557079
 20
3.963705
  0
VERTEX
  8
PLAN_1
 62
     5
  6
CONTINUOUS
 10
-1.565709
 20
3.963705
  0
SEQEND
  8
0
  0
POLYLINE
  8
PLAN_1
 62
     5
  6
CONTINUOUS
 66
     1
 40
0.003000
 41
0.003000
  0
VERTEX
  8
PLAN_1
 62
     5
  6
CONTINUOUS
 10
-1.573764
 20
3.963705
  0
VERTEX
  8
PLAN_1
 62
     5
  6
CONTINUOUS
 10
-1.582394
 20
3.963705
  0
SEQEND
  8
0
  0
POLYLINE
  8
PLAN_1
 62
     5
  6
CONTINUOUS
 66
     1
 40
0.003000
 41
0.003000
  0
VERTEX
  8
PLAN_1
 62
     5
  6
CONTINUOUS
 10
-1.590445
 20
3.963705
  0
VERTEX
  8
PLAN_1
 62
     5
  6
CONTINUOUS
 10
-1.599075
 20
3.963705
  0
SEQEND
  8
0
  0
POLYLINE
  8
PLAN_1
 62
     5
  6
CONTINUOUS
 66
     1
 40
0.003000
 41
0.003000
  0
VERTEX
  8
PLAN_1
 62
     5
  6
CONTINUOUS
 10
-1.604827
 20
3.961402
  0
VERTEX
  8
PLAN_1
 62
     5
  6
CONTINUOUS
 10
-1.604827
 20
3.952776
  0
SEQEND
  8
0
  0
POLYLINE
  8
PLAN_1
 62
     5
  6
CONTINUOUS
 66
     1
 40
0.003000
 41
0.003000
  0
VERTEX
  8
PLAN_1
 62
     5
  6
CONTINUOUS
 10
-1.604827
 20
3.944720
  0
VERTEX
  8
PLAN_1
 62
     5
  6
CONTINUOUS
 10
-1.604827
 20
3.936091
  0
SEQEND
  8
0
  0
POLYLINE
  8
PLAN_1
 62
     5
  6
CONTINUOUS
 66
     1
 40
0.003000
 41
0.003000
  0
VERTEX
  8
PLAN_1
 62
     5
  6
CONTINUOUS
 10
-1.605402
 20
3.928610
  0
VERTEX
  8
PLAN_1
 62
     5
  6
CONTINUOUS
 10
-1.614031
 20
3.928610
  0
SEQEND
  8
0
  0
POLYLINE
  8
PLAN_1
 62
     5
  6
CONTINUOUS
 66
     1
 40
0.003000
 41
0.003000
  0
VERTEX
  8
PLAN_1
 62
     5
  6
CONTINUOUS
 10
-1.622087
 20
3.928610
  0
VERTEX
  8
PLAN_1
 62
     5
  6
CONTINUOUS
 10
-1.630717
 20
3.928610
  0
SEQEND
  8
0
  0
POLYLINE
  8
PLAN_1
 62
     5
  6
CONTINUOUS
 66
     1
 40
0.003000
 41
0.003000
  0
VERTEX
  8
PLAN_1
 62
     5
  6
CONTINUOUS
 10
-1.636469
 20
3.931488
  0
VERTEX
  8
PLAN_1
 62
     5
  6
CONTINUOUS
 10
-1.636469
 20
3.939543
  0
SEQEND
  8
0
  0
POLYLINE
  8
PLAN_1
 62
     5
  6
CONTINUOUS
 66
     1
 40
0.003000
 41
0.003000
  0
VERTEX
  8
PLAN_1
 62
     5
  6
CONTINUOUS
 10
-1.636469
 20
3.948173
  0
VERTEX
  8
PLAN_1
 62
     5
  6
CONTINUOUS
 10
-1.636469
 20
3.956224
  0
SEQEND
  8
0
  0
POLYLINE
  8
PLAN_1
 62
     5
  6
CONTINUOUS
 66
     1
 40
0.003000
 41
0.003000
  0
VERTEX
  8
PLAN_1
 62
     5
  6
CONTINUOUS
 10
-1.636469
 20
3.964854
  0
VERTEX
  8
PLAN_1
 62
     5
  6
CONTINUOUS
 10
-1.636469
 20
3.972909
  0
SEQEND
  8
0
  0
POLYLINE
  8
PLAN_1
 62
     5
  6
CONTINUOUS
 66
     1
 40
0.003000
 41
0.003000
  0
VERTEX
  8
PLAN_1
 62
     5
  6
CONTINUOUS
 10
-1.636469
 20
3.981539
  0
VERTEX
  8
PLAN_1
 62
     5
  6
CONTINUOUS
 10
-1.636469
 20
3.989591
  0
SEQEND
  8
0
  0
POLYLINE
  8
PLAN_1
 62
     5
  6
CONTINUOUS
 66
     1
 40
0.003000
 41
0.003000
  0
VERTEX
  8
PLAN_1
 62
     5
  6
CONTINUOUS
 10
-1.636469
 20
3.998220
  0
VERTEX
  8
PLAN_1
 62
     5
  6
CONTINUOUS
 10
-1.636469
 20
4.006276
  0
SEQEND
  8
0
  0
POLYLINE
  8
PLAN_1
 62
     5
  6
CONTINUOUS
 66
     1
 40
0.003000
 41
0.003000
  0
VERTEX
  8
PLAN_1
 62
     5
  6
CONTINUOUS
 10
-1.636469
 20
4.014331
  0
VERTEX
  8
PLAN_1
 62
     5
  6
CONTINUOUS
 10
-1.636469
 20
4.022961
  0
SEQEND
  8
0
  0
POLYLINE
  8
PLAN_1
 62
     5
  6
CONTINUOUS
 66
     1
 40
0.003000
 41
0.003000
  0
VERTEX
  8
PLAN_1
 62
     5
  6
CONTINUOUS
 10
-1.636469
 20
4.031012
  0
VERTEX
  8
PLAN_1
 62
     5
  6
CONTINUOUS
 10
-1.636469
 20
4.039642
  0
SEQEND
  8
0
  0
POLYLINE
  8
PLAN_1
 62
     5
  6
CONTINUOUS
 66
     1
 40
0.003000
 41
0.003000
  0
VERTEX
  8
PLAN_1
 62
     5
  6
CONTINUOUS
 10
-1.636469
 20
4.047697
  0
VERTEX
  8
PLAN_1
 62
     5
  6
CONTINUOUS
 10
-1.636469
 20
4.056327
  0
SEQEND
  8
0
  0
POLYLINE
  8
PLAN_1
 62
     5
  6
CONTINUOUS
 66
     1
 40
0.003000
 41
0.003000
  0
VERTEX
  8
PLAN_1
 62
     5
  6
CONTINUOUS
 10
-1.636469
 20
4.064378
  0
VERTEX
  8
PLAN_1
 62
     5
  6
CONTINUOUS
 10
-1.636469
 20
4.073008
  0
SEQEND
  8
0
  0
POLYLINE
  8
PLAN_1
 62
     5
  6
CONTINUOUS
 66
     1
 40
0.003000
 41
0.003000
  0
VERTEX
  8
PLAN_1
 62
     5
  6
CONTINUOUS
 10
-1.636469
 20
4.081063
  0
VERTEX
  8
PLAN_1
 62
     5
  6
CONTINUOUS
 10
-1.636469
 20
4.089693
  0
SEQEND
  8
0
  0
POLYLINE
  8
PLAN_1
 62
     5
  6
CONTINUOUS
 66
     1
 40
0.003000
 41
0.003000
  0
VERTEX
  8
PLAN_1
 62
     5
  6
CONTINUOUS
 10
-1.636469
 20
4.097748
  0
VERTEX
  8
PLAN_1
 62
     5
  6
CONTINUOUS
 10
-1.636469
 20
4.106374
  0
SEQEND
  8
0
  0
POLYLINE
  8
PLAN_1
 62
     5
  6
CONTINUOUS
 66
     1
 40
0.003000
 41
0.003000
  0
VERTEX
  8
PLAN_1
 62
     5
  6
CONTINUOUS
 10
-1.636469
 20
4.114429
  0
VERTEX
  8
PLAN_1
 62
     5
  6
CONTINUOUS
 10
-1.636469
 20
4.123059
  0
SEQEND
  8
0
  0
POLYLINE
  8
PLAN_1
 62
     5
  6
CONTINUOUS
 66
     1
 40
0.003000
 41
0.003000
  0
VERTEX
  8
PLAN_1
 62
     5
  6
CONTINUOUS
 10
-1.636469
 20
4.131114
  0
VERTEX
  8
PLAN_1
 62
     5
  6
CONTINUOUS
 10
-1.636469
 20
4.139744
  0
SEQEND
  8
0
  0
POLYLINE
  8
PLAN_1
 62
     5
  6
CONTINUOUS
 66
     1
 40
0.003000
 41
0.003000
  0
VERTEX
  8
PLAN_1
 62
     5
  6
CONTINUOUS
 10
-1.638772
 20
4.145496
  0
VERTEX
  8
PLAN_1
 62
     5
  6
CONTINUOUS
 10
-1.646823
 20
4.145496
  0
SEQEND
  8
0
  0
POLYLINE
  8
PLAN_1
 62
     5
  6
CONTINUOUS
 66
     1
 40
0.003000
 41
0.003000
  0
VERTEX
  8
PLAN_1
 62
     5
  6
CONTINUOUS
 10
-1.655453
 20
4.145496
  0
VERTEX
  8
PLAN_1
 62
     5
  6
CONTINUOUS
 10
-1.663508
 20
4.145496
  0
SEQEND
  8
0
  0
POLYLINE
  8
PLAN_1
 62
     5
  6
CONTINUOUS
 66
     1
 40
0.003000
 41
0.003000
  0
VERTEX
  8
PLAN_1
 62
     5
  6
CONTINUOUS
 10
-1.672138
 20
4.145496
  0
VERTEX
  8
PLAN_1
 62
     5
  6
CONTINUOUS
 10
-1.680189
 20
4.145496
  0
SEQEND
  8
0
  0
POLYLINE
  8
PLAN_1
 62
     5
  6
CONTINUOUS
 66
     1
 40
0.003000
 41
0.003000
  0
VERTEX
  8
PLAN_1
 62
     5
  6
CONTINUOUS
 10
-1.688819
 20
4.145496
  0
VERTEX
  8
PLAN_1
 62
     5
  6
CONTINUOUS
 10
-1.696874
 20
4.145496
  0
SEQEND
  8
0
  0
POLYLINE
  8
PLAN_1
 62
     5
  6
CONTINUOUS
 66
     1
 40
0.003000
 41
0.003000
  0
VERTEX
  8
PLAN_1
 62
     5
  6
CONTINUOUS
 10
-1.705504
 20
4.145496
  0
VERTEX
  8
PLAN_1
 62
     5
  6
CONTINUOUS
 10
-1.713559
 20
4.145496
  0
SEQEND
  8
0
  0
POLYLINE
  8
PLAN_1
 62
     5
  6
CONTINUOUS
 66
     1
 40
0.003000
 41
0.003000
  0
VERTEX
  8
PLAN_1
 62
     5
  6
CONTINUOUS
 10
-1.722185
 20
4.145496
  0
VERTEX
  8
PLAN_1
 62
     5
  6
CONTINUOUS
 10
-1.730240
 20
4.145496
  0
SEQEND
  8
0
  0
POLYLINE
  8
PLAN_1
 62
     5
  6
CONTINUOUS
 66
     1
 40
0.003000
 41
0.003000
  0
VERTEX
  8
PLAN_1
 62
     5
  6
CONTINUOUS
 10
-1.738295
 20
4.145496
  0
VERTEX
  8
PLAN_1
 62
     5
  6
CONTINUOUS
 10
-1.746925
 20
4.145496
  0
SEQEND
  8
0
  0
POLYLINE
  8
PLAN_1
 62
     5
  6
CONTINUOUS
 66
     1
 40
0.003000
 41
0.003000
  0
VERTEX
  8
PLAN_1
 62
     5
  6
CONTINUOUS
 10
-1.754980
 20
4.145496
  0
VERTEX
  8
PLAN_1
 62
     5
  6
CONTINUOUS
 10
-1.763606
 20
4.145496
  0
SEQEND
  8
0
  0
POLYLINE
  8
PLAN_1
 62
     5
  6
CONTINUOUS
 66
     1
 40
0.003000
 41
0.003000
  0
VERTEX
  8
PLAN_1
 62
     5
  6
CONTINUOUS
 10
-1.771661
 20
4.145496
  0
VERTEX
  8
PLAN_1
 62
     5
  6
CONTINUOUS
 10
-1.780291
 20
4.145496
  0
SEQEND
  8
0
  0
POLYLINE
  8
PLAN_1
 62
     5
  6
CONTINUOUS
 66
     1
 40
0.003000
 41
0.003000
  0
VERTEX
  8
PLAN_1
 62
     5
  6
CONTINUOUS
 10
-1.788346
 20
4.145496
  0
VERTEX
  8
PLAN_1
 62
     5
  6
CONTINUOUS
 10
-1.796976
 20
4.145496
  0
SEQEND
  8
0
  0
POLYLINE
  8
PLAN_1
 62
     5
  6
CONTINUOUS
 66
     1
 40
0.003000
 41
0.003000
  0
VERTEX
  8
PLAN_1
 62
     5
  6
CONTINUOUS
 10
-1.805028
 20
4.145496
  0
VERTEX
  8
PLAN_1
 62
     5
  6
CONTINUOUS
 10
-1.813657
 20
4.145496
  0
SEQEND
  8
0
  0
POLYLINE
  8
PLAN_1
 62
     5
  6
CONTINUOUS
 66
     1
 40
0.003000
 41
0.003000
  0
VERTEX
  8
PLAN_1
 62
     5
  6
CONTINUOUS
 10
-1.815961
 20
4.139744
  0
VERTEX
  8
PLAN_1
 62
     5
  6
CONTINUOUS
 10
-1.815961
 20
4.131114
  0
SEQEND
  8
0
  0
POLYLINE
  8
PLAN_1
 62
     5
  6
CONTINUOUS
 66
     1
 40
0.003000
 41
0.003000
  0
VERTEX
  8
PLAN_1
 62
     5
  6
CONTINUOUS
 10
-1.815961
 20
4.123059
  0
VERTEX
  8
PLAN_1
 62
     5
  6
CONTINUOUS
 10
-1.815961
 20
4.114429
  0
SEQEND
  8
0
  0
POLYLINE
  8
PLAN_1
 62
     5
  6
CONTINUOUS
 66
     1
 40
0.003000
 41
0.003000
  0
VERTEX
  8
PLAN_1
 62
     5
  6
CONTINUOUS
 10
-1.815961
 20
4.106374
  0
VERTEX
  8
PLAN_1
 62
     5
  6
CONTINUOUS
 10
-1.815961
 20
4.097748
  0
SEQEND
  8
0
  0
POLYLINE
  8
PLAN_1
 62
     5
  6
CONTINUOUS
 66
     1
 40
0.003000
 41
0.003000
  0
VERTEX
  8
PLAN_1
 62
     5
  6
CONTINUOUS
 10
-1.815961
 20
4.089693
  0
VERTEX
  8
PLAN_1
 62
     5
  6
CONTINUOUS
 10
-1.815961
 20
4.081638
  0
SEQEND
  8
0
  0
POLYLINE
  8
PLAN_1
 62
     5
  6
CONTINUOUS
 66
     1
 40
0.003000
 41
0.003000
  0
VERTEX
  8
PLAN_1
 62
     5
  6
CONTINUOUS
 10
-1.815961
 20
4.073008
  0
VERTEX
  8
PLAN_1
 62
     5
  6
CONTINUOUS
 10
-1.815961
 20
4.064957
  0
SEQEND
  8
0
  0
POLYLINE
  8
PLAN_1
 62
     5
  6
CONTINUOUS
 66
     1
 40
0.003000
 41
0.003000
  0
VERTEX
  8
PLAN_1
 62
     5
  6
CONTINUOUS
 10
-1.815961
 20
4.056327
  0
VERTEX
  8
PLAN_1
 62
     5
  6
CONTINUOUS
 10
-1.815961
 20
4.048272
  0
SEQEND
  8
0
  0
POLYLINE
  8
PLAN_1
 62
     5
  6
CONTINUOUS
 66
     1
 40
0.003000
 41
0.003000
  0
VERTEX
  8
PLAN_1
 62
     5
  6
CONTINUOUS
 10
-1.815961
 20
4.039642
  0
VERTEX
  8
PLAN_1
 62
     5
  6
CONTINUOUS
 10
-1.815961
 20
4.031587
  0
SEQEND
  8
0
  0
POLYLINE
  8
PLAN_1
 62
     5
  6
CONTINUOUS
 66
     1
 40
0.003000
 41
0.003000
  0
VERTEX
  8
PLAN_1
 62
     5
  6
CONTINUOUS
 10
-1.815961
 20
4.022961
  0
VERTEX
  8
PLAN_1
 62
     5
  6
CONTINUOUS
 10
-1.815961
 20
4.014906
  0
SEQEND
  8
0
  0
POLYLINE
  8
PLAN_1
 62
     5
  6
CONTINUOUS
 66
     1
 40
0.003000
 41
0.003000
  0
VERTEX
  8
PLAN_1
 62
     5
  6
CONTINUOUS
 10
-1.815961
 20
4.006276
  0
VERTEX
  8
PLAN_1
 62
     5
  6
CONTINUOUS
 10
-1.815961
 20
3.998220
  0
SEQEND
  8
0
  0
POLYLINE
  8
PLAN_1
 62
     5
  6
CONTINUOUS
 66
     1
 40
0.003000
 41
0.003000
  0
VERTEX
  8
PLAN_1
 62
     5
  6
CONTINUOUS
 10
-1.815961
 20
3.989591
  0
VERTEX
  8
PLAN_1
 62
     5
  6
CONTINUOUS
 10
-1.815961
 20
3.981539
  0
SEQEND
  8
0
  0
POLYLINE
  8
PLAN_1
 62
     5
  6
CONTINUOUS
 66
     1
 40
0.003000
 41
0.003000
  0
VERTEX
  8
PLAN_1
 62
     5
  6
CONTINUOUS
 10
-1.815961
 20
3.972909
  0
VERTEX
  8
PLAN_1
 62
     5
  6
CONTINUOUS
 10
-1.815961
 20
3.964854
  0
SEQEND
  8
0
  0
POLYLINE
  8
PLAN_1
 62
     5
  6
CONTINUOUS
 66
     1
 40
0.003000
 41
0.003000
  0
VERTEX
  8
PLAN_1
 62
     5
  6
CONTINUOUS
 10
-1.815961
 20
3.956224
  0
VERTEX
  8
PLAN_1
 62
     5
  6
CONTINUOUS
 10
-1.815961
 20
3.948173
  0
SEQEND
  8
0
  0
POLYLINE
  8
PLAN_1
 62
     5
  6
CONTINUOUS
 66
     1
 40
0.003000
 41
0.003000
  0
VERTEX
  8
PLAN_1
 62
     5
  6
CONTINUOUS
 10
-1.815961
 20
3.939543
  0
VERTEX
  8
PLAN_1
 62
     5
  6
CONTINUOUS
 10
-1.815961
 20
3.931488
  0
SEQEND
  8
0
  0
POLYLINE
  8
PLAN_1
 62
     5
  6
CONTINUOUS
 66
     1
 40
0.003000
 41
0.003000
  0
VERTEX
  8
PLAN_1
 62
     5
  6
CONTINUOUS
 10
-1.815961
 20
3.922858
  0
VERTEX
  8
PLAN_1
 62
     5
  6
CONTINUOUS
 10
-1.815961
 20
3.914803
  0
SEQEND
  8
0
  0
POLYLINE
  8
PLAN_1
 62
     5
  6
CONTINUOUS
 66
     1
 40
0.003000
 41
0.003000
  0
VERTEX
  8
PLAN_1
 62
     5
  6
CONTINUOUS
 10
-1.815961
 20
3.906752
  0
VERTEX
  8
PLAN_1
 62
     5
  6
CONTINUOUS
 10
-1.815961
 20
3.898122
  0
SEQEND
  8
0
  0
POLYLINE
  8
PLAN_1
 62
     5
  6
CONTINUOUS
 66
     1
 40
0.003000
 41
0.003000
  0
VERTEX
  8
PLAN_1
 62
     5
  6
CONTINUOUS
 10
-1.815961
 20
3.890067
  0
VERTEX
  8
PLAN_1
 62
     5
  6
CONTINUOUS
 10
-1.815961
 20
3.881437
  0
SEQEND
  8
0
  0
POLYLINE
  8
PLAN_1
 62
     5
  6
CONTINUOUS
 66
     1
 40
0.003000
 41
0.003000
  0
VERTEX
  8
PLAN_1
 62
     5
  6
CONTINUOUS
 10
-1.815961
 20
3.873386
  0
VERTEX
  8
PLAN_1
 62
     5
  6
CONTINUOUS
 10
-1.815961
 20
3.864756
  0
SEQEND
  8
0
  0
POLYLINE
  8
PLAN_1
 62
     5
  6
CONTINUOUS
 66
     1
 40
0.003000
 41
0.003000
  0
VERTEX
  8
PLAN_1
 62
     5
  6
CONTINUOUS
 10
-1.815961
 20
3.856701
  0
VERTEX
  8
PLAN_1
 62
     5
  6
CONTINUOUS
 10
-1.815961
 20
3.848071
  0
SEQEND
  8
0
  0
POLYLINE
  8
PLAN_1
 62
     5
  6
CONTINUOUS
 66
     1
 40
0.003000
 41
0.003000
  0
VERTEX
  8
PLAN_1
 62
     5
  6
CONTINUOUS
 10
-1.815961
 20
3.840016
  0
VERTEX
  8
PLAN_1
 62
     5
  6
CONTINUOUS
 10
-1.815961
 20
3.831390
  0
SEQEND
  8
0
  0
POLYLINE
  8
PLAN_1
 62
     5
  6
CONTINUOUS
 66
     1
 40
0.003000
 41
0.003000
  0
VERTEX
  8
PLAN_1
 62
     5
  6
CONTINUOUS
 10
-1.815961
 20
3.823335
  0
VERTEX
  8
PLAN_1
 62
     5
  6
CONTINUOUS
 10
-1.815961
 20
3.814705
  0
SEQEND
  8
0
  0
POLYLINE
  8
PLAN_1
 62
     5
  6
CONTINUOUS
 66
     1
 40
0.003000
 41
0.003000
  0
VERTEX
  8
PLAN_1
 62
     5
  6
CONTINUOUS
 10
-1.815961
 20
3.806650
  0
VERTEX
  8
PLAN_1
 62
     5
  6
CONTINUOUS
 10
-1.815961
 20
3.798020
  0
SEQEND
  8
0
  0
POLYLINE
  8
PLAN_1
 62
     5
  6
CONTINUOUS
 66
     1
 40
0.003000
 41
0.003000
  0
VERTEX
  8
PLAN_1
 62
     5
  6
CONTINUOUS
 10
-1.815961
 20
3.789969
  0
VERTEX
  8
PLAN_1
 62
     5
  6
CONTINUOUS
 10
-1.815961
 20
3.781339
  0
SEQEND
  8
0
  0
POLYLINE
  8
PLAN_1
 62
     5
  6
CONTINUOUS
 66
     1
 40
0.003000
 41
0.003000
  0
VERTEX
  8
PLAN_1
 62
     5
  6
CONTINUOUS
 10
-1.815961
 20
3.773283
  0
VERTEX
  8
PLAN_1
 62
     5
  6
CONTINUOUS
 10
-1.815961
 20
3.764654
  0
SEQEND
  8
0
  0
POLYLINE
  8
PLAN_1
 62
     5
  6
CONTINUOUS
 66
     1
 40
0.003000
 41
0.003000
  0
VERTEX
  8
PLAN_1
 62
     5
  6
CONTINUOUS
 10
-1.815961
 20
3.756602
  0
VERTEX
  8
PLAN_1
 62
     5
  6
CONTINUOUS
 10
-1.815961
 20
3.747972
  0
SEQEND
  8
0
  0
POLYLINE
  8
PLAN_1
 62
     5
  6
CONTINUOUS
 66
     1
 40
0.003000
 41
0.003000
  0
VERTEX
  8
PLAN_1
 62
     5
  6
CONTINUOUS
 10
-1.815961
 20
3.739917
  0
VERTEX
  8
PLAN_1
 62
     5
  6
CONTINUOUS
 10
-1.815961
 20
3.731287
  0
SEQEND
  8
0
  0
POLYLINE
  8
PLAN_1
 62
     5
  6
CONTINUOUS
 66
     1
 40
0.003000
 41
0.003000
  0
VERTEX
  8
PLAN_1
 62
     5
  6
CONTINUOUS
 10
-1.815961
 20
3.723232
  0
VERTEX
  8
PLAN_1
 62
     5
  6
CONTINUOUS
 10
-1.815961
 20
3.715181
  0
SEQEND
  8
0
  0
POLYLINE
  8
PLAN_1
 62
     5
  6
CONTINUOUS
 66
     1
 40
0.003000
 41
0.003000
  0
VERTEX
  8
PLAN_1
 62
     5
  6
CONTINUOUS
 10
-1.815961
 20
3.706551
  0
VERTEX
  8
PLAN_1
 62
     5
  6
CONTINUOUS
 10
-1.815961
 20
3.698496
  0
SEQEND
  8
0
  0
POLYLINE
  8
PLAN_1
 62
     5
  6
CONTINUOUS
 66
     1
 40
0.003000
 41
0.003000
  0
VERTEX
  8
PLAN_1
 62
     5
  6
CONTINUOUS
 10
-1.815961
 20
3.689866
  0
VERTEX
  8
PLAN_1
 62
     5
  6
CONTINUOUS
 10
-1.815961
 20
3.681815
  0
SEQEND
  8
0
  0
POLYLINE
  8
PLAN_1
 62
     5
  6
CONTINUOUS
 66
     1
 40
0.003000
 41
0.003000
  0
VERTEX
  8
PLAN_1
 62
     5
  6
CONTINUOUS
 10
-1.815961
 20
3.673185
  0
VERTEX
  8
PLAN_1
 62
     5
  6
CONTINUOUS
 10
-1.815961
 20
3.665130
  0
SEQEND
  8
0
  0
POLYLINE
  8
PLAN_1
 62
     5
  6
CONTINUOUS
 66
     1
 40
0.003000
 41
0.003000
  0
VERTEX
  8
PLAN_1
 62
     5
  6
CONTINUOUS
 10
-1.815961
 20
3.656500
  0
VERTEX
  8
PLAN_1
 62
     5
  6
CONTINUOUS
 10
-1.815961
 20
3.648445
  0
SEQEND
  8
0
  0
POLYLINE
  8
PLAN_1
 62
     5
  6
CONTINUOUS
 66
     1
 40
0.003000
 41
0.003000
  0
VERTEX
  8
PLAN_1
 62
     5
  6
CONTINUOUS
 10
-1.815961
 20
3.639819
  0
VERTEX
  8
PLAN_1
 62
     5
  6
CONTINUOUS
 10
-1.815961
 20
3.631764
  0
SEQEND
  8
0
  0
POLYLINE
  8
PLAN_1
 62
     5
  6
CONTINUOUS
 66
     1
 40
0.003000
 41
0.003000
  0
VERTEX
  8
PLAN_1
 62
     5
  6
CONTINUOUS
 10
-1.815961
 20
3.623134
  0
VERTEX
  8
PLAN_1
 62
     5
  6
CONTINUOUS
 10
-1.815961
 20
3.615079
  0
SEQEND
  8
0
  0
POLYLINE
  8
PLAN_1
 62
     5
  6
CONTINUOUS
 66
     1
 40
0.003000
 41
0.003000
  0
VERTEX
  8
PLAN_1
 62
     5
  6
CONTINUOUS
 10
-1.815961
 20
3.606449
  0
VERTEX
  8
PLAN_1
 62
     5
  6
CONTINUOUS
 10
-1.815961
 20
3.598398
  0
SEQEND
  8
0
  0
POLYLINE
  8
PLAN_1
 62
     5
  6
CONTINUOUS
 66
     1
 40
0.003000
 41
0.003000
  0
VERTEX
  8
PLAN_1
 62
     5
  6
CONTINUOUS
 10
-1.815961
 20
3.589768
  0
VERTEX
  8
PLAN_1
 62
     5
  6
CONTINUOUS
 10
-1.815961
 20
3.581713
  0
SEQEND
  8
0
  0
POLYLINE
  8
PLAN_1
 62
     5
  6
CONTINUOUS
 66
     1
 40
0.003000
 41
0.003000
  0
VERTEX
  8
PLAN_1
 62
     5
  6
CONTINUOUS
 10
-1.815961
 20
3.573083
  0
VERTEX
  8
PLAN_1
 62
     5
  6
CONTINUOUS
 10
-1.815961
 20
3.565031
  0
SEQEND
  8
0
  0
POLYLINE
  8
PLAN_1
 62
     5
  6
CONTINUOUS
 66
     1
 40
0.003000
 41
0.003000
  0
VERTEX
  8
PLAN_1
 62
     5
  6
CONTINUOUS
 10
-1.815961
 20
3.556402
  0
VERTEX
  8
PLAN_1
 62
     5
  6
CONTINUOUS
 10
-1.815961
 20
3.548346
  0
SEQEND
  8
0
  0
POLYLINE
  8
PLAN_1
 62
     5
  6
CONTINUOUS
 66
     1
 40
0.003000
 41
0.003000
  0
VERTEX
  8
PLAN_1
 62
     5
  6
CONTINUOUS
 10
-1.815961
 20
3.540291
  0
VERTEX
  8
PLAN_1
 62
     5
  6
CONTINUOUS
 10
-1.815961
 20
3.531661
  0
SEQEND
  8
0
  0
POLYLINE
  8
PLAN_1
 62
     5
  6
CONTINUOUS
 66
     1
 40
0.003000
 41
0.003000
  0
VERTEX
  8
PLAN_1
 62
     5
  6
CONTINUOUS
 10
-1.815961
 20
3.523610
  0
VERTEX
  8
PLAN_1
 62
     5
  6
CONTINUOUS
 10
-1.815961
 20
3.514980
  0
SEQEND
  8
0
  0
POLYLINE
  8
PLAN_1
 62
     5
  6
CONTINUOUS
 66
     1
 40
0.003000
 41
0.003000
  0
VERTEX
  8
PLAN_1
 62
     5
  6
CONTINUOUS
 10
-1.815961
 20
3.506925
  0
VERTEX
  8
PLAN_1
 62
     5
  6
CONTINUOUS
 10
-1.815961
 20
3.498295
  0
SEQEND
  8
0
  0
POLYLINE
  8
PLAN_1
 62
     5
  6
CONTINUOUS
 66
     1
 40
0.003000
 41
0.003000
  0
VERTEX
  8
PLAN_1
 62
     5
  6
CONTINUOUS
 10
-1.815961
 20
3.490240
  0
VERTEX
  8
PLAN_1
 62
     5
  6
CONTINUOUS
 10
-1.815961
 20
3.481614
  0
SEQEND
  8
0
  0
POLYLINE
  8
PLAN_1
 62
     5
  6
CONTINUOUS
 66
     1
 40
0.003000
 41
0.003000
  0
VERTEX
  8
PLAN_1
 62
     5
  6
CONTINUOUS
 10
-1.815961
 20
3.473559
  0
VERTEX
  8
PLAN_1
 62
     5
  6
CONTINUOUS
 10
-1.815961
 20
3.464929
  0
SEQEND
  8
0
  0
POLYLINE
  8
PLAN_1
 62
     5
  6
CONTINUOUS
 66
     1
 40
0.003000
 41
0.003000
  0
VERTEX
  8
PLAN_1
 62
     5
  6
CONTINUOUS
 10
-1.815961
 20
3.456874
  0
VERTEX
  8
PLAN_1
 62
     5
  6
CONTINUOUS
 10
-1.815961
 20
3.448244
  0
SEQEND
  8
0
  0
POLYLINE
  8
PLAN_1
 62
     5
  6
CONTINUOUS
 66
     1
 40
0.003000
 41
0.003000
  0
VERTEX
  8
PLAN_1
 62
     5
  6
CONTINUOUS
 10
-1.815961
 20
3.440193
  0
VERTEX
  8
PLAN_1
 62
     5
  6
CONTINUOUS
 10
-1.815961
 20
3.431563
  0
SEQEND
  8
0
  0
POLYLINE
  8
PLAN_1
 62
     5
  6
CONTINUOUS
 66
     1
 40
0.003000
 41
0.003000
  0
VERTEX
  8
PLAN_1
 62
     5
  6
CONTINUOUS
 10
-1.815961
 20
3.423508
  0
VERTEX
  8
PLAN_1
 62
     5
  6
CONTINUOUS
 10
-1.815961
 20
3.414878
  0
SEQEND
  8
0
  0
POLYLINE
  8
PLAN_1
 62
     5
  6
CONTINUOUS
 66
     1
 40
0.003000
 41
0.003000
  0
VERTEX
  8
PLAN_1
 62
     5
  6
CONTINUOUS
 10
-1.815961
 20
3.406827
  0
VERTEX
  8
PLAN_1
 62
     5
  6
CONTINUOUS
 10
-1.815961
 20
3.398197
  0
SEQEND
  8
0
  0
POLYLINE
  8
PLAN_1
 62
     5
  6
CONTINUOUS
 66
     1
 40
0.003000
 41
0.003000
  0
VERTEX
  8
PLAN_1
 62
     5
  6
CONTINUOUS
 10
-1.815961
 20
3.390142
  0
VERTEX
  8
PLAN_1
 62
     5
  6
CONTINUOUS
 10
-1.815961
 20
3.381512
  0
SEQEND
  8
0
  0
POLYLINE
  8
PLAN_1
 62
     5
  6
CONTINUOUS
 66
     1
 40
0.003000
 41
0.003000
  0
VERTEX
  8
PLAN_1
 62
     5
  6
CONTINUOUS
 10
-1.815961
 20
3.373457
  0
VERTEX
  8
PLAN_1
 62
     5
  6
CONTINUOUS
 10
-1.815961
 20
3.365406
  0
SEQEND
  8
0
  0
POLYLINE
  8
PLAN_1
 62
     5
  6
CONTINUOUS
 66
     1
 40
0.003000
 41
0.003000
  0
VERTEX
  8
PLAN_1
 62
     5
  6
CONTINUOUS
 10
-1.815961
 20
3.356776
  0
VERTEX
  8
PLAN_1
 62
     5
  6
CONTINUOUS
 10
-1.815961
 20
3.348720
  0
SEQEND
  8
0
  0
POLYLINE
  8
PLAN_1
 62
     5
  6
CONTINUOUS
 66
     1
 40
0.003000
 41
0.003000
  0
VERTEX
  8
PLAN_1
 62
     5
  6
CONTINUOUS
 10
-1.815961
 20
3.340091
  0
VERTEX
  8
PLAN_1
 62
     5
  6
CONTINUOUS
 10
-1.815961
 20
3.333764
  0
VERTEX
  8
PLAN_1
 62
     5
  6
CONTINUOUS
 10
-1.813657
 20
3.333764
  0
SEQEND
  8
0
  0
POLYLINE
  8
PLAN_1
 62
     5
  6
CONTINUOUS
 66
     1
 40
0.003000
 41
0.003000
  0
VERTEX
  8
PLAN_1
 62
     5
  6
CONTINUOUS
 10
-1.805602
 20
3.333764
  0
VERTEX
  8
PLAN_1
 62
     5
  6
CONTINUOUS
 10
-1.796976
 20
3.333764
  0
SEQEND
  8
0
  0
POLYLINE
  8
PLAN_1
 62
     5
  6
CONTINUOUS
 66
     1
 40
0.003000
 41
0.003000
  0
VERTEX
  8
PLAN_1
 62
     5
  6
CONTINUOUS
 10
-1.788921
 20
3.333764
  0
VERTEX
  8
PLAN_1
 62
     5
  6
CONTINUOUS
 10
-1.780291
 20
3.333764
  0
SEQEND
  8
0
  0
POLYLINE
  8
PLAN_1
 62
     5
  6
CONTINUOUS
 66
     1
 40
0.003000
 41
0.003000
  0
VERTEX
  8
PLAN_1
 62
     5
  6
CONTINUOUS
 10
-1.772236
 20
3.333764
  0
VERTEX
  8
PLAN_1
 62
     5
  6
CONTINUOUS
 10
-1.763606
 20
3.333764
  0
SEQEND
  8
0
  0
POLYLINE
  8
PLAN_1
 62
     5
  6
CONTINUOUS
 66
     1
 40
0.003000
 41
0.003000
  0
VERTEX
  8
PLAN_1
 62
     5
  6
CONTINUOUS
 10
-1.755555
 20
3.333764
  0
VERTEX
  8
PLAN_1
 62
     5
  6
CONTINUOUS
 10
-1.747500
 20
3.333764
  0
SEQEND
  8
0
  0
POLYLINE
  8
PLAN_1
 62
     5
  6
CONTINUOUS
 66
     1
 40
0.003000
 41
0.003000
  0
VERTEX
  8
PLAN_1
 62
     5
  6
CONTINUOUS
 10
-1.738870
 20
3.333764
  0
VERTEX
  8
PLAN_1
 62
     5
  6
CONTINUOUS
 10
-1.730815
 20
3.333764
  0
SEQEND
  8
0
  0
POLYLINE
  8
PLAN_1
 62
     5
  6
CONTINUOUS
 66
     1
 40
0.003000
 41
0.003000
  0
VERTEX
  8
PLAN_1
 62
     5
  6
CONTINUOUS
 10
-1.722185
 20
3.333764
  0
VERTEX
  8
PLAN_1
 62
     5
  6
CONTINUOUS
 10
-1.714134
 20
3.333764
  0
SEQEND
  8
0
  0
POLYLINE
  8
PLAN_1
 62
     5
  6
CONTINUOUS
 66
     1
 40
0.003000
 41
0.003000
  0
VERTEX
  8
PLAN_1
 62
     5
  6
CONTINUOUS
 10
-1.705504
 20
3.333764
  0
VERTEX
  8
PLAN_1
 62
     5
  6
CONTINUOUS
 10
-1.697449
 20
3.333764
  0
SEQEND
  8
0
  0
POLYLINE
  8
PLAN_1
 62
     5
  6
CONTINUOUS
 66
     1
 40
0.003000
 41
0.003000
  0
VERTEX
  8
PLAN_1
 62
     5
  6
CONTINUOUS
 10
-1.688819
 20
3.333764
  0
VERTEX
  8
PLAN_1
 62
     5
  6
CONTINUOUS
 10
-1.680768
 20
3.333764
  0
SEQEND
  8
0
  0
POLYLINE
  8
PLAN_1
 62
     5
  6
CONTINUOUS
 66
     1
 40
0.003000
 41
0.003000
  0
VERTEX
  8
PLAN_1
 62
     5
  6
CONTINUOUS
 10
-1.672138
 20
3.333764
  0
VERTEX
  8
PLAN_1
 62
     5
  6
CONTINUOUS
 10
-1.664083
 20
3.333764
  0
SEQEND
  8
0
  0
POLYLINE
  8
PLAN_1
 62
     5
  6
CONTINUOUS
 66
     1
 40
0.003000
 41
0.003000
  0
VERTEX
  8
PLAN_1
 62
     5
  6
CONTINUOUS
 10
-1.655453
 20
3.333764
  0
VERTEX
  8
PLAN_1
 62
     5
  6
CONTINUOUS
 10
-1.647398
 20
3.333764
  0
SEQEND
  8
0
  0
POLYLINE
  8
PLAN_1
 62
     5
  6
CONTINUOUS
 66
     1
 40
0.003000
 41
0.003000
  0
VERTEX
  8
PLAN_1
 62
     5
  6
CONTINUOUS
 10
-1.638772
 20
3.333764
  0
VERTEX
  8
PLAN_1
 62
     5
  6
CONTINUOUS
 10
-1.636469
 20
3.333764
  0
VERTEX
  8
PLAN_1
 62
     5
  6
CONTINUOUS
 10
-1.636469
 20
3.339516
  0
SEQEND
  8
0
  0
POLYLINE
  8
PLAN_1
 62
     5
  6
CONTINUOUS
 66
     1
 40
0.003000
 41
0.003000
  0
VERTEX
  8
PLAN_1
 62
     5
  6
CONTINUOUS
 10
-1.636469
 20
3.348146
  0
VERTEX
  8
PLAN_1
 62
     5
  6
CONTINUOUS
 10
-1.636469
 20
3.356201
  0
SEQEND
  8
0
  0
POLYLINE
  8
PLAN_1
 62
     5
  6
CONTINUOUS
 66
     1
 40
0.003000
 41
0.003000
  0
VERTEX
  8
PLAN_1
 62
     5
  6
CONTINUOUS
 10
-1.636469
 20
3.364831
  0
VERTEX
  8
PLAN_1
 62
     5
  6
CONTINUOUS
 10
-1.636469
 20
3.372882
  0
SEQEND
  8
0
  0
POLYLINE
  8
PLAN_1
 62
     5
  6
CONTINUOUS
 66
     1
 40
0.003000
 41
0.003000
  0
VERTEX
  8
PLAN_1
 62
     5
  6
CONTINUOUS
 10
-1.636469
 20
3.381512
  0
VERTEX
  8
PLAN_1
 62
     5
  6
CONTINUOUS
 10
-1.636469
 20
3.389567
  0
SEQEND
  8
0
  0
POLYLINE
  8
PLAN_1
 62
     5
  6
CONTINUOUS
 66
     1
 40
0.003000
 41
0.003000
  0
VERTEX
  8
PLAN_1
 62
     5
  6
CONTINUOUS
 10
-1.636469
 20
3.398197
  0
VERTEX
  8
PLAN_1
 62
     5
  6
CONTINUOUS
 10
-1.636469
 20
3.406252
  0
SEQEND
  8
0
  0
POLYLINE
  8
PLAN_1
 62
     5
  6
CONTINUOUS
 66
     1
 40
0.003000
 41
0.003000
  0
VERTEX
  8
PLAN_1
 62
     5
  6
CONTINUOUS
 10
-1.636469
 20
3.414303
  0
VERTEX
  8
PLAN_1
 62
     5
  6
CONTINUOUS
 10
-1.636469
 20
3.422933
  0
SEQEND
  8
0
  0
POLYLINE
  8
PLAN_1
 62
     5
  6
CONTINUOUS
 66
     1
 40
0.003000
 41
0.003000
  0
VERTEX
  8
PLAN_1
 62
     5
  6
CONTINUOUS
 10
-1.636469
 20
3.430988
  0
VERTEX
  8
PLAN_1
 62
     5
  6
CONTINUOUS
 10
-1.636469
 20
3.439618
  0
SEQEND
  8
0
  0
POLYLINE
  8
PLAN_1
 62
     5
  6
CONTINUOUS
 66
     1
 40
0.003000
 41
0.003000
  0
VERTEX
  8
PLAN_1
 62
     5
  6
CONTINUOUS
 10
-1.636469
 20
3.447669
  0
VERTEX
  8
PLAN_1
 62
     5
  6
CONTINUOUS
 10
-1.636469
 20
3.456299
  0
SEQEND
  8
0
  0
POLYLINE
  8
PLAN_1
 62
     5
  6
CONTINUOUS
 66
     1
 40
0.003000
 41
0.003000
  0
VERTEX
  8
PLAN_1
 62
     5
  6
CONTINUOUS
 10
-1.636469
 20
3.464354
  0
VERTEX
  8
PLAN_1
 62
     5
  6
CONTINUOUS
 10
-1.636469
 20
3.472984
  0
SEQEND
  8
0
  0
POLYLINE
  8
PLAN_1
 62
     5
  6
CONTINUOUS
 66
     1
 40
0.003000
 41
0.003000
  0
VERTEX
  8
PLAN_1
 62
     5
  6
CONTINUOUS
 10
-1.636469
 20
3.481039
  0
VERTEX
  8
PLAN_1
 62
     5
  6
CONTINUOUS
 10
-1.636469
 20
3.489665
  0
SEQEND
  8
0
  0
POLYLINE
  8
PLAN_1
 62
     5
  6
CONTINUOUS
 66
     1
 40
0.003000
 41
0.003000
  0
VERTEX
  8
PLAN_1
 62
     5
  6
CONTINUOUS
 10
-1.636469
 20
3.497720
  0
VERTEX
  8
PLAN_1
 62
     5
  6
CONTINUOUS
 10
-1.636469
 20
3.506350
  0
SEQEND
  8
0
  0
POLYLINE
  8
PLAN_1
 62
     5
  6
CONTINUOUS
 66
     1
 40
0.003000
 41
0.003000
  0
VERTEX
  8
PLAN_1
 62
     5
  6
CONTINUOUS
 10
-1.636469
 20
3.514406
  0
VERTEX
  8
PLAN_1
 62
     5
  6
CONTINUOUS
 10
-1.635894
 20
3.523035
  0
SEQEND
  8
0
  0
POLYLINE
  8
PLAN_1
 62
     5
  6
CONTINUOUS
 66
     1
 40
0.003000
 41
0.003000
  0
VERTEX
  8
PLAN_1
 62
     5
  6
CONTINUOUS
 10
-1.635894
 20
3.531087
  0
VERTEX
  8
PLAN_1
 62
     5
  6
CONTINUOUS
 10
-1.635894
 20
3.539717
  0
SEQEND
  8
0
  0
POLYLINE
  8
PLAN_1
 62
     5
  6
CONTINUOUS
 66
     1
 40
0.003000
 41
0.003000
  0
VERTEX
  8
PLAN_1
 62
     5
  6
CONTINUOUS
 10
-1.635894
 20
3.547772
  0
VERTEX
  8
PLAN_1
 62
     5
  6
CONTINUOUS
 10
-1.635894
 20
3.548921
  0
VERTEX
  8
PLAN_1
 62
     5
  6
CONTINUOUS
 10
-1.628992
 20
3.548921
  0
SEQEND
  8
0
  0
POLYLINE
  8
PLAN_1
 62
     5
  6
CONTINUOUS
 66
     1
 40
0.003000
 41
0.003000
  0
VERTEX
  8
PLAN_1
 62
     5
  6
CONTINUOUS
 10
-1.620362
 20
3.548921
  0
VERTEX
  8
PLAN_1
 62
     5
  6
CONTINUOUS
 10
-1.612307
 20
3.548921
  0
SEQEND
  8
0
  0
POLYLINE
  8
PLAN_1
 62
     5
  6
CONTINUOUS
 66
     1
 40
0.003000
 41
0.003000
  0
VERTEX
  8
PLAN_1
 62
     5
  6
CONTINUOUS
 10
-1.604827
 20
3.547772
  0
VERTEX
  8
PLAN_1
 62
     5
  6
CONTINUOUS
 10
-1.604827
 20
3.539142
  0
SEQEND
  8
0
  0
POLYLINE
  8
PLAN_1
 62
     5
  6
CONTINUOUS
 66
     1
 40
0.003000
 41
0.003000
  0
VERTEX
  8
PLAN_1
 62
     5
  6
CONTINUOUS
 10
-1.604827
 20
3.531087
  0
VERTEX
  8
PLAN_1
 62
     5
  6
CONTINUOUS
 10
-1.604827
 20
3.522457
  0
SEQEND
  8
0
  0
POLYLINE
  8
PLAN_1
 62
     5
  6
CONTINUOUS
 66
     1
 40
0.003000
 41
0.003000
  0
VERTEX
  8
PLAN_1
 62
     5
  6
CONTINUOUS
 10
-1.604827
 20
3.514406
  0
VERTEX
  8
PLAN_1
 62
     5
  6
CONTINUOUS
 10
-1.604827
 20
3.513252
  0
SEQEND
  8
0
  0
POLYLINE
  8
PLAN_1
 62
     5
  6
CONTINUOUS
 66
     1
 40
0.003000
 41
0.003000
  0
VERTEX
  8
PLAN_1
 62
     5
  6
CONTINUOUS
 10
-1.604827
 20
3.514406
  0
VERTEX
  8
PLAN_1
 62
     5
  6
CONTINUOUS
 10
-1.604827
 20
3.513252
  0
SEQEND
  8
0
  0
POLYLINE
  8
PLAN_1
 62
     2
  6
CONTINUOUS
 66
     1
 40
0.004024
 41
0.004024
  0
VERTEX
  8
PLAN_1
 62
     2
  6
CONTINUOUS
 10
-0.867886
 20
-2.664189
  0
VERTEX
  8
PLAN_1
 62
     2
  6
CONTINUOUS
 10
0.095150
 20
-2.664189
  0
SEQEND
  8
0
  0
SOLID
  8
PLAN_1
 62
     2
 10
0.124488
 20
-2.664189
 11
0.065807
 21
-2.648657
 12
0.124488
 22
-2.664189
 13
0.065807
 23
-2.679724
  0
POLYLINE
  8
PLAN_1
 62
     2
  6
CONTINUOUS
 66
     1
 40
0.003000
 41
0.003000
  0
VERTEX
  8
PLAN_1
 62
     2
  6
CONTINUOUS
 10
0.124488
 20
-2.664189
  0
VERTEX
  8
PLAN_1
 62
     2
  6
CONTINUOUS
 10
0.065807
 20
-2.648657
  0
VERTEX
  8
PLAN_1
 62
     2
  6
CONTINUOUS
 10
0.065807
 20
-2.679724
  0
VERTEX
  8
PLAN_1
 62
     2
  6
CONTINUOUS
 10
0.124488
 20
-2.664189
  0
SEQEND
  8
0
  0
SOLID
  8
PLAN_1
 62
     2
 10
-0.897224
 20
-2.664189
 11
-0.837969
 21
-2.648657
 12
-0.897224
 22
-2.664189
 13
-0.837969
 23
-2.679724
  0
POLYLINE
  8
PLAN_1
 62
     2
  6
CONTINUOUS
 66
     1
 40
0.003000
 41
0.003000
  0
VERTEX
  8
PLAN_1
 62
     2
  6
CONTINUOUS
 10
-0.897224
 20
-2.664189
  0
VERTEX
  8
PLAN_1
 62
     2
  6
CONTINUOUS
 10
-0.837969
 20
-2.648657
  0
VERTEX
  8
PLAN_1
 62
     2
  6
CONTINUOUS
 10
-0.837969
 20
-2.679724
  0
VERTEX
  8
PLAN_1
 62
     2
  6
CONTINUOUS
 10
-0.897224
 20
-2.664189
  0
SEQEND
  8
0
  0
POLYLINE
  8
PLAN_1
 62
     2
  6
CONTINUOUS
 66
     1
 40
0.003000
 41
0.003000
  0
VERTEX
  8
PLAN_1
 62
     2
  6
CONTINUOUS
 10
-0.458854
 20
-2.593429
  0
VERTEX
  8
PLAN_1
 62
     2
  6
CONTINUOUS
 10
-0.458280
 20
-2.589402
  0
VERTEX
  8
PLAN_1
 62
     2
  6
CONTINUOUS
 10
-0.457705
 20
-2.585953
  0
VERTEX
  8
PLAN_1
 62
     2
  6
CONTINUOUS
 10
-0.457130
 20
-2.582500
  0
VERTEX
  8
PLAN_1
 62
     2
  6
CONTINUOUS
 10
-0.455976
 20
-2.579622
  0
VERTEX
  8
PLAN_1
 62
     2
  6
CONTINUOUS
 10
-0.454252
 20
-2.577323
  0
VERTEX
  8
PLAN_1
 62
     2
  6
CONTINUOUS
 10
-0.452528
 20
-2.575020
  0
VERTEX
  8
PLAN_1
 62
     2
  6
CONTINUOUS
 10
-0.450799
 20
-2.573295
  0
VERTEX
  8
PLAN_1
 62
     2
  6
CONTINUOUS
 10
-0.449075
 20
-2.571571
  0
VERTEX
  8
PLAN_1
 62
     2
  6
CONTINUOUS
 10
-0.445047
 20
-2.569268
  0
VERTEX
  8
PLAN_1
 62
     2
  6
CONTINUOUS
 10
-0.440445
 20
-2.568118
  0
VERTEX
  8
PLAN_1
 62
     2
  6
CONTINUOUS
 10
-0.436992
 20
-2.567543
  0
VERTEX
  8
PLAN_1
 62
     2
  6
CONTINUOUS
 10
-0.433543
 20
-2.567543
  0
VERTEX
  8
PLAN_1
 62
     2
  6
CONTINUOUS
 10
-0.428941
 20
-2.568118
  0
VERTEX
  8
PLAN_1
 62
     2
  6
CONTINUOUS
 10
-0.424339
 20
-2.568693
  0
VERTEX
  8
PLAN_1
 62
     2
  6
CONTINUOUS
 10
-0.420886
 20
-2.570996
  0
VERTEX
  8
PLAN_1
 62
     2
  6
CONTINUOUS
 10
-0.417433
 20
-2.573295
  0
VERTEX
  8
PLAN_1
 62
     2
  6
CONTINUOUS
 10
-0.414555
 20
-2.576173
  0
VERTEX
  8
PLAN_1
 62
     2
  6
CONTINUOUS
 10
-0.412256
 20
-2.580201
  0
VERTEX
  8
PLAN_1
 62
     2
  6
CONTINUOUS
 10
-0.411106
 20
-2.584224
  0
VERTEX
  8
PLAN_1
 62
     2
  6
CONTINUOUS
 10
-0.410531
 20
-2.589402
  0
VERTEX
  8
PLAN_1
 62
     2
  6
CONTINUOUS
 10
-0.411106
 20
-2.594004
  0
VERTEX
  8
PLAN_1
 62
     2
  6
CONTINUOUS
 10
-0.412256
 20
-2.598031
  0
VERTEX
  8
PLAN_1
 62
     2
  6
CONTINUOUS
 10
-0.413980
 20
-2.601484
  0
VERTEX
  8
PLAN_1
 62
     2
  6
CONTINUOUS
 10
-0.416283
 20
-2.604362
  0
VERTEX
  8
PLAN_1
 62
     2
  6
CONTINUOUS
 10
-0.419157
 20
-2.606661
  0
VERTEX
  8
PLAN_1
 62
     2
  6
CONTINUOUS
 10
-0.422610
 20
-2.609539
  0
VERTEX
  8
PLAN_1
 62
     2
  6
CONTINUOUS
 10
-0.426063
 20
-2.611839
  0
VERTEX
  8
PLAN_1
 62
     2
  6
CONTINUOUS
 10
-0.430091
 20
-2.613567
  0
VERTEX
  8
PLAN_1
 62
     2
  6
CONTINUOUS
 10
-0.437567
 20
-2.618169
  0
VERTEX
  8
PLAN_1
 62
     2
  6
CONTINUOUS
 10
-0.441020
 20
-2.619894
  0
VERTEX
  8
PLAN_1
 62
     2
  6
CONTINUOUS
 10
-0.443898
 20
-2.622197
  0
VERTEX
  8
PLAN_1
 62
     2
  6
CONTINUOUS
 10
-0.446197
 20
-2.623921
  0
VERTEX
  8
PLAN_1
 62
     2
  6
CONTINUOUS
 10
-0.447346
 20
-2.626220
  0
VERTEX
  8
PLAN_1
 62
     2
  6
CONTINUOUS
 10
-0.448500
 20
-2.627949
  0
VERTEX
  8
PLAN_1
 62
     2
  6
CONTINUOUS
 10
-0.449650
 20
-2.629098
  0
VERTEX
  8
PLAN_1
 62
     2
  6
CONTINUOUS
 10
-0.450224
 20
-2.630823
  0
VERTEX
  8
PLAN_1
 62
     2
  6
CONTINUOUS
 10
-0.450224
 20
-2.631976
  0
VERTEX
  8
PLAN_1
 62
     2
  6
CONTINUOUS
 10
-0.410531
 20
-2.631976
  0
VERTEX
  8
PLAN_1
 62
     2
  6
CONTINUOUS
 10
-0.410531
 20
-2.640602
  0
VERTEX
  8
PLAN_1
 62
     2
  6
CONTINUOUS
 10
-0.460579
 20
-2.640602
  0
VERTEX
  8
PLAN_1
 62
     2
  6
CONTINUOUS
 10
-0.460004
 20
-2.635425
  0
VERTEX
  8
PLAN_1
 62
     2
  6
CONTINUOUS
 10
-0.458854
 20
-2.630248
  0
VERTEX
  8
PLAN_1
 62
     2
  6
CONTINUOUS
 10
-0.457705
 20
-2.626220
  0
VERTEX
  8
PLAN_1
 62
     2
  6
CONTINUOUS
 10
-0.455402
 20
-2.622772
  0
VERTEX
  8
PLAN_1
 62
     2
  6
CONTINUOUS
 10
-0.453102
 20
-2.619319
  0
VERTEX
  8
PLAN_1
 62
     2
  6
CONTINUOUS
 10
-0.450224
 20
-2.616441
  0
VERTEX
  8
PLAN_1
 62
     2
  6
CONTINUOUS
 10
-0.446772
 20
-2.613567
  0
VERTEX
  8
PLAN_1
 62
     2
  6
CONTINUOUS
 10
-0.443323
 20
-2.611839
  0
VERTEX
  8
PLAN_1
 62
     2
  6
CONTINUOUS
 10
-0.433543
 20
-2.606087
  0
VERTEX
  8
PLAN_1
 62
     2
  6
CONTINUOUS
 10
-0.430665
 20
-2.604362
  0
VERTEX
  8
PLAN_1
 62
     2
  6
CONTINUOUS
 10
-0.428362
 20
-2.602634
  0
VERTEX
  8
PLAN_1
 62
     2
  6
CONTINUOUS
 10
-0.426063
 20
-2.600909
  0
VERTEX
  8
PLAN_1
 62
     2
  6
CONTINUOUS
 10
-0.424339
 20
-2.599185
  0
VERTEX
  8
PLAN_1
 62
     2
  6
CONTINUOUS
 10
-0.422610
 20
-2.597457
  0
VERTEX
  8
PLAN_1
 62
     2
  6
CONTINUOUS
 10
-0.421461
 20
-2.595157
  0
VERTEX
  8
PLAN_1
 62
     2
  6
CONTINUOUS
 10
-0.420311
 20
-2.592280
  0
VERTEX
  8
PLAN_1
 62
     2
  6
CONTINUOUS
 10
-0.420311
 20
-2.588827
  0
VERTEX
  8
PLAN_1
 62
     2
  6
CONTINUOUS
 10
-0.420311
 20
-2.586528
  0
VERTEX
  8
PLAN_1
 62
     2
  6
CONTINUOUS
 10
-0.420886
 20
-2.584224
  0
VERTEX
  8
PLAN_1
 62
     2
  6
CONTINUOUS
 10
-0.422035
 20
-2.581925
  0
VERTEX
  8
PLAN_1
 62
     2
  6
CONTINUOUS
 10
-0.423760
 20
-2.580201
  0
VERTEX
  8
PLAN_1
 62
     2
  6
CONTINUOUS
 10
-0.425488
 20
-2.578472
  0
VERTEX
  8
PLAN_1
 62
     2
  6
CONTINUOUS
 10
-0.427787
 20
-2.576748
  0
VERTEX
  8
PLAN_1
 62
     2
  6
CONTINUOUS
 10
-0.431240
 20
-2.576173
  0
VERTEX
  8
PLAN_1
 62
     2
  6
CONTINUOUS
 10
-0.434693
 20
-2.575598
  0
VERTEX
  8
PLAN_1
 62
     2
  6
CONTINUOUS
 10
-0.436992
 20
-2.575598
  0
VERTEX
  8
PLAN_1
 62
     2
  6
CONTINUOUS
 10
-0.439295
 20
-2.576173
  0
VERTEX
  8
PLAN_1
 62
     2
  6
CONTINUOUS
 10
-0.441020
 20
-2.576748
  0
VERTEX
  8
PLAN_1
 62
     2
  6
CONTINUOUS
 10
-0.442744
 20
-2.577898
  0
VERTEX
  8
PLAN_1
 62
     2
  6
CONTINUOUS
 10
-0.445622
 20
-2.580201
  0
VERTEX
  8
PLAN_1
 62
     2
  6
CONTINUOUS
 10
-0.447346
 20
-2.582500
  0
VERTEX
  8
PLAN_1
 62
     2
  6
CONTINUOUS
 10
-0.448500
 20
-2.585953
  0
VERTEX
  8
PLAN_1
 62
     2
  6
CONTINUOUS
 10
-0.449075
 20
-2.588827
  0
VERTEX
  8
PLAN_1
 62
     2
  6
CONTINUOUS
 10
-0.449650
 20
-2.591705
  0
VERTEX
  8
PLAN_1
 62
     2
  6
CONTINUOUS
 10
-0.449650
 20
-2.593429
  0
VERTEX
  8
PLAN_1
 62
     2
  6
CONTINUOUS
 10
-0.458854
 20
-2.593429
  0
SEQEND
  8
0
  0
POLYLINE
  8
PLAN_1
 62
     2
  6
CONTINUOUS
 66
     1
 40
0.003000
 41
0.003000
  0
VERTEX
  8
PLAN_1
 62
     2
  6
CONTINUOUS
 10
-0.389819
 20
-2.598031
  0
VERTEX
  8
PLAN_1
 62
     2
  6
CONTINUOUS
 10
-0.388669
 20
-2.596882
  0
VERTEX
  8
PLAN_1
 62
     2
  6
CONTINUOUS
 10
-0.387520
 20
-2.596307
  0
VERTEX
  8
PLAN_1
 62
     2
  6
CONTINUOUS
 10
-0.385791
 20
-2.595732
  0
VERTEX
  8
PLAN_1
 62
     2
  6
CONTINUOUS
 10
-0.384067
 20
-2.594583
  0
VERTEX
  8
PLAN_1
 62
     2
  6
CONTINUOUS
 10
-0.382343
 20
-2.594004
  0
VERTEX
  8
PLAN_1
 62
     2
  6
CONTINUOUS
 10
-0.380614
 20
-2.594004
  0
VERTEX
  8
PLAN_1
 62
     2
  6
CONTINUOUS
 10
-0.378315
 20
-2.593429
  0
VERTEX
  8
PLAN_1
 62
     2
  6
CONTINUOUS
 10
-0.376012
 20
-2.593429
  0
VERTEX
  8
PLAN_1
 62
     2
  6
CONTINUOUS
 10
-0.371409
 20
-2.594004
  0
VERTEX
  8
PLAN_1
 62
     2
  6
CONTINUOUS
 10
-0.367382
 20
-2.595157
  0
VERTEX
  8
PLAN_1
 62
     2
  6
CONTINUOUS
 10
-0.363354
 20
-2.596882
  0
VERTEX
  8
PLAN_1
 62
     2
  6
CONTINUOUS
 10
-0.359331
 20
-2.599760
  0
VERTEX
  8
PLAN_1
 62
     2
  6
CONTINUOUS
 10
-0.356453
 20
-2.602634
  0
VERTEX
  8
PLAN_1
 62
     2
  6
CONTINUOUS
 10
-0.354154
 20
-2.606661
  0
VERTEX
  8
PLAN_1
 62
     2
  6
CONTINUOUS
 10
-0.352425
 20
-2.611264
  0
VERTEX
  8
PLAN_1
 62
     2
  6
CONTINUOUS
 10
-0.351850
 20
-2.617016
  0
VERTEX
  8
PLAN_1
 62
     2
  6
CONTINUOUS
 10
-0.351850
 20
-2.620469
  0
VERTEX
  8
PLAN_1
 62
     2
  6
CONTINUOUS
 10
-0.353000
 20
-2.624496
  0
VERTEX
  8
PLAN_1
 62
     2
  6
CONTINUOUS
 10
-0.354154
 20
-2.628524
  0
VERTEX
  8
PLAN_1
 62
     2
  6
CONTINUOUS
 10
-0.356453
 20
-2.632551
  0
VERTEX
  8
PLAN_1
 62
     2
  6
CONTINUOUS
 10
-0.358177
 20
-2.634850
  0
VERTEX
  8
PLAN_1
 62
     2
  6
CONTINUOUS
 10
-0.359906
 20
-2.636579
  0
VERTEX
  8
PLAN_1
 62
     2
  6
CONTINUOUS
 10
-0.362205
 20
-2.638303
  0
VERTEX
  8
PLAN_1
 62
     2
  6
CONTINUOUS
 10
-0.364508
 20
-2.639453
  0
VERTEX
  8
PLAN_1
 62
     2
  6
CONTINUOUS
 10
-0.367382
 20
-2.640602
  0
VERTEX
  8
PLAN_1
 62
     2
  6
CONTINUOUS
 10
-0.370835
 20
-2.641756
  0
VERTEX
  8
PLAN_1
 62
     2
  6
CONTINUOUS
 10
-0.374287
 20
-2.642331
  0
VERTEX
  8
PLAN_1
 62
     2
  6
CONTINUOUS
 10
-0.378315
 20
-2.642331
  0
VERTEX
  8
PLAN_1
 62
     2
  6
CONTINUOUS
 10
-0.382343
 20
-2.642331
  0
VERTEX
  8
PLAN_1
 62
     2
  6
CONTINUOUS
 10
-0.385791
 20
-2.641756
  0
VERTEX
  8
PLAN_1
 62
     2
  6
CONTINUOUS
 10
-0.389819
 20
-2.640602
  0
VERTEX
  8
PLAN_1
 62
     2
  6
CONTINUOUS
 10
-0.393272
 20
-2.638878
  0
VERTEX
  8
PLAN_1
 62
     2
  6
CONTINUOUS
 10
-0.396150
 20
-2.636000
  0
VERTEX
  8
PLAN_1
 62
     2
  6
CONTINUOUS
 10
-0.399024
 20
-2.632551
  0
VERTEX
  8
PLAN_1
 62
     2
  6
CONTINUOUS
 10
-0.400752
 20
-2.627949
  0
VERTEX
  8
PLAN_1
 62
     2
  6
CONTINUOUS
 10
-0.401902
 20
-2.622197
  0
VERTEX
  8
PLAN_1
 62
     2
  6
CONTINUOUS
 10
-0.392697
 20
-2.622197
  0
VERTEX
  8
PLAN_1
 62
     2
  6
CONTINUOUS
 10
-0.392122
 20
-2.625071
  0
VERTEX
  8
PLAN_1
 62
     2
  6
CONTINUOUS
 10
-0.390969
 20
-2.627949
  0
VERTEX
  8
PLAN_1
 62
     2
  6
CONTINUOUS
 10
-0.389244
 20
-2.630248
  0
VERTEX
  8
PLAN_1
 62
     2
  6
CONTINUOUS
 10
-0.387520
 20
-2.631976
  0
VERTEX
  8
PLAN_1
 62
     2
  6
CONTINUOUS
 10
-0.385217
 20
-2.633126
  0
VERTEX
  8
PLAN_1
 62
     2
  6
CONTINUOUS
 10
-0.382917
 20
-2.633701
  0
VERTEX
  8
PLAN_1
 62
     2
  6
CONTINUOUS
 10
-0.380039
 20
-2.634276
  0
VERTEX
  8
PLAN_1
 62
     2
  6
CONTINUOUS
 10
-0.377161
 20
-2.634850
  0
VERTEX
  8
PLAN_1
 62
     2
  6
CONTINUOUS
 10
-0.373713
 20
-2.634276
  0
VERTEX
  8
PLAN_1
 62
     2
  6
CONTINUOUS
 10
-0.370835
 20
-2.633126
  0
VERTEX
  8
PLAN_1
 62
     2
  6
CONTINUOUS
 10
-0.367957
 20
-2.631976
  0
VERTEX
  8
PLAN_1
 62
     2
  6
CONTINUOUS
 10
-0.365657
 20
-2.629673
  0
VERTEX
  8
PLAN_1
 62
     2
  6
CONTINUOUS
 10
-0.363933
 20
-2.627374
  0
VERTEX
  8
PLAN_1
 62
     2
  6
CONTINUOUS
 10
-0.362780
 20
-2.624496
  0
VERTEX
  8
PLAN_1
 62
     2
  6
CONTINUOUS
 10
-0.362205
 20
-2.621043
  0
VERTEX
  8
PLAN_1
 62
     2
  6
CONTINUOUS
 10
-0.361630
 20
-2.618169
  0
VERTEX
  8
PLAN_1
 62
     2
  6
CONTINUOUS
 10
-0.362205
 20
-2.614142
  0
VERTEX
  8
PLAN_1
 62
     2
  6
CONTINUOUS
 10
-0.362780
 20
-2.610689
  0
VERTEX
  8
PLAN_1
 62
     2
  6
CONTINUOUS
 10
-0.364508
 20
-2.608390
  0
VERTEX
  8
PLAN_1
 62
     2
  6
CONTINUOUS
 10
-0.366232
 20
-2.606087
  0
VERTEX
  8
PLAN_1
 62
     2
  6
CONTINUOUS
 10
-0.368535
 20
-2.603787
  0
VERTEX
  8
PLAN_1
 62
     2
  6
CONTINUOUS
 10
-0.371409
 20
-2.602634
  0
VERTEX
  8
PLAN_1
 62
     2
  6
CONTINUOUS
 10
-0.374862
 20
-2.602059
  0
VERTEX
  8
PLAN_1
 62
     2
  6
CONTINUOUS
 10
-0.377740
 20
-2.601484
  0
VERTEX
  8
PLAN_1
 62
     2
  6
CONTINUOUS
 10
-0.380039
 20
-2.602059
  0
VERTEX
  8
PLAN_1
 62
     2
  6
CONTINUOUS
 10
-0.381764
 20
-2.602059
  0
VERTEX
  8
PLAN_1
 62
     2
  6
CONTINUOUS
 10
-0.383492
 20
-2.602634
  0
VERTEX
  8
PLAN_1
 62
     2
  6
CONTINUOUS
 10
-0.385217
 20
-2.603209
  0
VERTEX
  8
PLAN_1
 62
     2
  6
CONTINUOUS
 10
-0.386945
 20
-2.604362
  0
VERTEX
  8
PLAN_1
 62
     2
  6
CONTINUOUS
 10
-0.388669
 20
-2.605512
  0
VERTEX
  8
PLAN_1
 62
     2
  6
CONTINUOUS
 10
-0.389819
 20
-2.607236
  0
VERTEX
  8
PLAN_1
 62
     2
  6
CONTINUOUS
 10
-0.391547
 20
-2.608390
  0
VERTEX
  8
PLAN_1
 62
     2
  6
CONTINUOUS
 10
-0.399598
 20
-2.608390
  0
VERTEX
  8
PLAN_1
 62
     2
  6
CONTINUOUS
 10
-0.393846
 20
-2.569268
  0
VERTEX
  8
PLAN_1
 62
     2
  6
CONTINUOUS
 10
-0.355878
 20
-2.569268
  0
VERTEX
  8
PLAN_1
 62
     2
  6
CONTINUOUS
 10
-0.355878
 20
-2.577898
  0
VERTEX
  8
PLAN_1
 62
     2
  6
CONTINUOUS
 10
-0.386945
 20
-2.577898
  0
VERTEX
  8
PLAN_1
 62
     2
  6
CONTINUOUS
 10
-0.389819
 20
-2.598031
  0
SEQEND
  8
0
  0
POLYLINE
  8
PLAN_1
 62
     2
  6
CONTINUOUS
 66
     1
 40
0.004024
 41
0.004024
  0
VERTEX
  8
PLAN_1
 62
     2
  6
CONTINUOUS
 10
-2.257780
 20
-2.821819
  0
VERTEX
  8
PLAN_1
 62
     2
  6
CONTINUOUS
 10
0.095150
 20
-2.821819
  0
SEQEND
  8
0
  0
SOLID
  8
PLAN_1
 62
     2
 10
0.124488
 20
-2.821819
 11
0.065807
 21
-2.805713
 12
0.124488
 22
-2.821819
 13
0.065807
 23
-2.837354
  0
POLYLINE
  8
PLAN_1
 62
     2
  6
CONTINUOUS
 66
     1
 40
0.003000
 41
0.003000
  0
VERTEX
  8
PLAN_1
 62
     2
  6
CONTINUOUS
 10
0.124488
 20
-2.821819
  0
VERTEX
  8
PLAN_1
 62
     2
  6
CONTINUOUS
 10
0.065807
 20
-2.805713
  0
VERTEX
  8
PLAN_1
 62
     2
  6
CONTINUOUS
 10
0.065807
 20
-2.837354
  0
VERTEX
  8
PLAN_1
 62
     2
  6
CONTINUOUS
 10
0.124488
 20
-2.821819
  0
SEQEND
  8
0
  0
SOLID
  8
PLAN_1
 62
     2
 10
-2.287118
 20
-2.821819
 11
-2.228441
 21
-2.805713
 12
-2.287118
 22
-2.821819
 13
-2.228441
 23
-2.837354
  0
POLYLINE
  8
PLAN_1
 62
     2
  6
CONTINUOUS
 66
     1
 40
0.003000
 41
0.003000
  0
VERTEX
  8
PLAN_1
 62
     2
  6
CONTINUOUS
 10
-2.287118
 20
-2.821819
  0
VERTEX
  8
PLAN_1
 62
     2
  6
CONTINUOUS
 10
-2.228441
 20
-2.805713
  0
VERTEX
  8
PLAN_1
 62
     2
  6
CONTINUOUS
 10
-2.228441
 20
-2.837354
  0
VERTEX
  8
PLAN_1
 62
     2
  6
CONTINUOUS
 10
-2.287118
 20
-2.821819
  0
SEQEND
  8
0
  0
POLYLINE
  8
PLAN_1
 62
     2
  6
CONTINUOUS
 66
     1
 40
0.004024
 41
0.004024
  0
VERTEX
  8
PLAN_1
 62
     2
  6
CONTINUOUS
 10
-0.897224
 20
0.564327
  0
VERTEX
  8
PLAN_1
 62
     2
  6
CONTINUOUS
 10
-0.897224
 20
-2.687780
  0
SEQEND
  8
0
  0
POLYLINE
  8
PLAN_1
 62
     2
  6
CONTINUOUS
 66
     1
 40
0.004024
 41
0.004024
  0
VERTEX
  8
PLAN_1
 62
     2
  6
CONTINUOUS
 10
0.124488
 20
-1.950835
  0
VERTEX
  8
PLAN_1
 62
     2
  6
CONTINUOUS
 10
0.124488
 20
-2.845406
  0
SEQEND
  8
0
  0
POLYLINE
  8
PLAN_1
 62
     2
  6
CONTINUOUS
 66
     1
 40
0.004024
 41
0.004024
  0
VERTEX
  8
PLAN_1
 62
     2
  6
CONTINUOUS
 10
-2.287118
 20
1.536563
  0
VERTEX
  8
PLAN_1
 62
     2
  6
CONTINUOUS
 10
-2.287118
 20
-2.845406
  0
SEQEND
  8
0
  0
POLYLINE
  8
PLAN_1
 62
     2
  6
CONTINUOUS
 66
     1
 40
0.004024
 41
0.004024
  0
VERTEX
  8
PLAN_1
 62
     2
  6
CONTINUOUS
 10
0.157280
 20
-2.508862
  0
VERTEX
  8
PLAN_1
 62
     2
  6
CONTINUOUS
 10
0.317209
 20
-2.508862
  0
SEQEND
  8
0
  0
POLYLINE
  8
PLAN_1
 62
     2
  6
CONTINUOUS
 66
     1
 40
0.004024
 41
0.004024
  0
VERTEX
  8
PLAN_1
 62
     2
  6
CONTINUOUS
 10
0.293622
 20
-2.478949
  0
VERTEX
  8
PLAN_1
 62
     2
  6
CONTINUOUS
 10
0.293622
 20
4.116157
  0
SEQEND
  8
0
  0
SOLID
  8
PLAN_1
 62
     2
 10
0.293622
 20
4.145496
 11
0.277516
 21
4.086240
 12
0.293622
 22
4.145496
 13
0.309157
 23
4.086240
  0
POLYLINE
  8
PLAN_1
 62
     2
  6
CONTINUOUS
 66
     1
 40
0.003000
 41
0.003000
  0
VERTEX
  8
PLAN_1
 62
     2
  6
CONTINUOUS
 10
0.293622
 20
4.145496
  0
VERTEX
  8
PLAN_1
 62
     2
  6
CONTINUOUS
 10
0.277516
 20
4.086240
  0
VERTEX
  8
PLAN_1
 62
     2
  6
CONTINUOUS
 10
0.309157
 20
4.086240
  0
VERTEX
  8
PLAN_1
 62
     2
  6
CONTINUOUS
 10
0.293622
 20
4.145496
  0
SEQEND
  8
0
  0
SOLID
  8
PLAN_1
 62
     2
 10
0.293622
 20
-2.508862
 11
0.277516
 21
-2.449610
 12
0.293622
 22
-2.508862
 13
0.309157
 23
-2.449610
  0
POLYLINE
  8
PLAN_1
 62
     2
  6
CONTINUOUS
 66
     1
 40
0.003000
 41
0.003000
  0
VERTEX
  8
PLAN_1
 62
     2
  6
CONTINUOUS
 10
0.293622
 20
-2.508862
  0
VERTEX
  8
PLAN_1
 62
     2
  6
CONTINUOUS
 10
0.277516
 20
-2.449610
  0
VERTEX
  8
PLAN_1
 62
     2
  6
CONTINUOUS
 10
0.309157
 20
-2.449610
  0
VERTEX
  8
PLAN_1
 62
     2
  6
CONTINUOUS
 10
0.293622
 20
-2.508862
  0
SEQEND
  8
0
  0
POLYLINE
  8
PLAN_1
 62
     2
  6
CONTINUOUS
 66
     1
 40
0.004024
 41
0.004024
  0
VERTEX
  8
PLAN_1
 62
     2
  6
CONTINUOUS
 10
-1.612882
 20
4.145496
  0
VERTEX
  8
PLAN_1
 62
     2
  6
CONTINUOUS
 10
0.317209
 20
4.145496
  0
SEQEND
  8
0
  0
POLYLINE
  8
PLAN_1
 62
     2
  6
CONTINUOUS
 66
     1
 40
0.003000
 41
0.003000
  0
VERTEX
  8
PLAN_1
 62
     2
  6
CONTINUOUS
 10
-1.100299
 20
-2.744157
  0
VERTEX
  8
PLAN_1
 62
     2
  6
CONTINUOUS
 10
-1.100874
 20
-2.741854
  0
VERTEX
  8
PLAN_1
 62
     2
  6
CONTINUOUS
 10
-1.101453
 20
-2.740130
  0
VERTEX
  8
PLAN_1
 62
     2
  6
CONTINUOUS
 10
-1.102602
 20
-2.737827
  0
VERTEX
  8
PLAN_1
 62
     2
  6
CONTINUOUS
 10
-1.103752
 20
-2.736102
  0
VERTEX
  8
PLAN_1
 62
     2
  6
CONTINUOUS
 10
-1.105476
 20
-2.734953
  0
VERTEX
  8
PLAN_1
 62
     2
  6
CONTINUOUS
 10
-1.107780
 20
-2.733799
  0
VERTEX
  8
PLAN_1
 62
     2
  6
CONTINUOUS
 10
-1.110079
 20
-2.733224
  0
VERTEX
  8
PLAN_1
 62
     2
  6
CONTINUOUS
 10
-1.112957
 20
-2.733224
  0
VERTEX
  8
PLAN_1
 62
     2
  6
CONTINUOUS
 10
-1.115260
 20
-2.733224
  0
VERTEX
  8
PLAN_1
 62
     2
  6
CONTINUOUS
 10
-1.117559
 20
-2.733799
  0
VERTEX
  8
PLAN_1
 62
     2
  6
CONTINUOUS
 10
-1.119858
 20
-2.734953
  0
VERTEX
  8
PLAN_1
 62
     2
  6
CONTINUOUS
 10
-1.121587
 20
-2.736102
  0
VERTEX
  8
PLAN_1
 62
     2
  6
CONTINUOUS
 10
-1.124461
 20
-2.739555
  0
VERTEX
  8
PLAN_1
 62
     2
  6
CONTINUOUS
 10
-1.126764
 20
-2.743579
  0
VERTEX
  8
PLAN_1
 62
     2
  6
CONTINUOUS
 10
-1.128488
 20
-2.748181
  0
VERTEX
  8
PLAN_1
 62
     2
  6
CONTINUOUS
 10
-1.129642
 20
-2.752783
  0
VERTEX
  8
PLAN_1
 62
     2
  6
CONTINUOUS
 10
-1.130217
 20
-2.756811
  0
VERTEX
  8
PLAN_1
 62
     2
  6
CONTINUOUS
 10
-1.130217
 20
-2.760264
  0
VERTEX
  8
PLAN_1
 62
     2
  6
CONTINUOUS
 10
-1.129063
 20
-2.759114
  0
VERTEX
  8
PLAN_1
 62
     2
  6
CONTINUOUS
 10
-1.127913
 20
-2.757386
  0
VERTEX
  8
PLAN_1
 62
     2
  6
CONTINUOUS
 10
-1.126189
 20
-2.755661
  0
VERTEX
  8
PLAN_1
 62
     2
  6
CONTINUOUS
 10
-1.123886
 20
-2.754512
  0
VERTEX
  8
PLAN_1
 62
     2
  6
CONTINUOUS
 10
-1.122161
 20
-2.753362
  0
VERTEX
  8
PLAN_1
 62
     2
  6
CONTINUOUS
 10
-1.119283
 20
-2.752209
  0
VERTEX
  8
PLAN_1
 62
     2
  6
CONTINUOUS
 10
-1.116409
 20
-2.751634
  0
VERTEX
  8
PLAN_1
 62
     2
  6
CONTINUOUS
 10
-1.112382
 20
-2.751634
  0
VERTEX
  8
PLAN_1
 62
     2
  6
CONTINUOUS
 10
-1.108929
 20
-2.751634
  0
VERTEX
  8
PLAN_1
 62
     2
  6
CONTINUOUS
 10
-1.105476
 20
-2.752783
  0
VERTEX
  8
PLAN_1
 62
     2
  6
CONTINUOUS
 10
-1.101453
 20
-2.753937
  0
VERTEX
  8
PLAN_1
 62
     2
  6
CONTINUOUS
 10
-1.098000
 20
-2.756236
  0
VERTEX
  8
PLAN_1
 62
     2
  6
CONTINUOUS
 10
-1.094547
 20
-2.759689
  0
VERTEX
  8
PLAN_1
 62
     2
  6
CONTINUOUS
 10
-1.092248
 20
-2.763717
  0
VERTEX
  8
PLAN_1
 62
     2
  6
CONTINUOUS
 10
-1.091094
 20
-2.766016
  0
VERTEX
  8
PLAN_1
 62
     2
  6
CONTINUOUS
 10
-1.090520
 20
-2.768894
  0
VERTEX
  8
PLAN_1
 62
     2
  6
CONTINUOUS
 10
-1.089945
 20
-2.771193
  0
VERTEX
  8
PLAN_1
 62
     2
  6
CONTINUOUS
 10
-1.089945
 20
-2.774646
  0
VERTEX
  8
PLAN_1
 62
     2
  6
CONTINUOUS
 10
-1.089945
 20
-2.777524
  0
VERTEX
  8
PLAN_1
 62
     2
  6
CONTINUOUS
 10
-1.089945
 20
-2.779823
  0
VERTEX
  8
PLAN_1
 62
     2
  6
CONTINUOUS
 10
-1.090520
 20
-2.782126
  0
VERTEX
  8
PLAN_1
 62
     2
  6
CONTINUOUS
 10
-1.091094
 20
-2.784425
  0
VERTEX
  8
PLAN_1
 62
     2
  6
CONTINUOUS
 10
-1.092248
 20
-2.786728
  0
VERTEX
  8
PLAN_1
 62
     2
  6
CONTINUOUS
 10
-1.093398
 20
-2.789028
  0
VERTEX
  8
PLAN_1
 62
     2
  6
CONTINUOUS
 10
-1.095122
 20
-2.790756
  0
VERTEX
  8
PLAN_1
 62
     2
  6
CONTINUOUS
 10
-1.096850
 20
-2.793055
  0
VERTEX
  8
PLAN_1
 62
     2
  6
CONTINUOUS
 10
-1.098000
 20
-2.794205
  0
VERTEX
  8
PLAN_1
 62
     2
  6
CONTINUOUS
 10
-1.099724
 20
-2.795933
  0
VERTEX
  8
PLAN_1
 62
     2
  6
CONTINUOUS
 10
-1.101453
 20
-2.797083
  0
VERTEX
  8
PLAN_1
 62
     2
  6
CONTINUOUS
 10
-1.103752
 20
-2.798232
  0
VERTEX
  8
PLAN_1
 62
     2
  6
CONTINUOUS
 10
-1.106055
 20
-2.798807
  0
VERTEX
  8
PLAN_1
 62
     2
  6
CONTINUOUS
 10
-1.108354
 20
-2.799382
  0
VERTEX
  8
PLAN_1
 62
     2
  6
CONTINUOUS
 10
-1.111807
 20
-2.799961
  0
VERTEX
  8
PLAN_1
 62
     2
  6
CONTINUOUS
 10
-1.115260
 20
-2.799961
  0
VERTEX
  8
PLAN_1
 62
     2
  6
CONTINUOUS
 10
-1.117559
 20
-2.799961
  0
VERTEX
  8
PLAN_1
 62
     2
  6
CONTINUOUS
 10
-1.119858
 20
-2.799382
  0
VERTEX
  8
PLAN_1
 62
     2
  6
CONTINUOUS
 10
-1.122161
 20
-2.798807
  0
VERTEX
  8
PLAN_1
 62
     2
  6
CONTINUOUS
 10
-1.125039
 20
-2.797657
  0
VERTEX
  8
PLAN_1
 62
     2
  6
CONTINUOUS
 10
-1.127339
 20
-2.796508
  0
VERTEX
  8
PLAN_1
 62
     2
  6
CONTINUOUS
 10
-1.129642
 20
-2.794205
  0
VERTEX
  8
PLAN_1
 62
     2
  6
CONTINUOUS
 10
-1.131941
 20
-2.791906
  0
VERTEX
  8
PLAN_1
 62
     2
  6
CONTINUOUS
 10
-1.134244
 20
-2.789602
  0
VERTEX
  8
PLAN_1
 62
     2
  6
CONTINUOUS
 10
-1.135394
 20
-2.786728
  0
VERTEX
  8
PLAN_1
 62
     2
  6
CONTINUOUS
 10
-1.136543
 20
-2.783850
  0
VERTEX
  8
PLAN_1
 62
     2
  6
CONTINUOUS
 10
-1.137693
 20
-2.780976
  0
VERTEX
  8
PLAN_1
 62
     2
  6
CONTINUOUS
 10
-1.138268
 20
-2.777524
  0
VERTEX
  8
PLAN_1
 62
     2
  6
CONTINUOUS
 10
-1.138846
 20
-2.774646
  0
VERTEX
  8
PLAN_1
 62
     2
  6
CONTINUOUS
 10
-1.139421
 20
-2.771193
  0
VERTEX
  8
PLAN_1
 62
     2
  6
CONTINUOUS
 10
-1.139421
 20
-2.767744
  0
VERTEX
  8
PLAN_1
 62
     2
  6
CONTINUOUS
 10
-1.139421
 20
-2.763717
  0
VERTEX
  8
PLAN_1
 62
     2
  6
CONTINUOUS
 10
-1.139421
 20
-2.757965
  0
VERTEX
  8
PLAN_1
 62
     2
  6
CONTINUOUS
 10
-1.138268
 20
-2.751059
  0
VERTEX
  8
PLAN_1
 62
     2
  6
CONTINUOUS
 10
-1.137118
 20
-2.744732
  0
VERTEX
  8
PLAN_1
 62
     2
  6
CONTINUOUS
 10
-1.134244
 20
-2.738402
  0
VERTEX
  8
PLAN_1
 62
     2
  6
CONTINUOUS
 10
-1.132516
 20
-2.735528
  0
VERTEX
  8
PLAN_1
 62
     2
  6
CONTINUOUS
 10
-1.130791
 20
-2.733224
  0
VERTEX
  8
PLAN_1
 62
     2
  6
CONTINUOUS
 10
-1.128488
 20
-2.730925
  0
VERTEX
  8
PLAN_1
 62
     2
  6
CONTINUOUS
 10
-1.126189
 20
-2.728622
  0
VERTEX
  8
PLAN_1
 62
     2
  6
CONTINUOUS
 10
-1.123311
 20
-2.726898
  0
VERTEX
  8
PLAN_1
 62
     2
  6
CONTINUOUS
 10
-1.119858
 20
-2.725748
  0
VERTEX
  8
PLAN_1
 62
     2
  6
CONTINUOUS
 10
-1.116409
 20
-2.725173
  0
VERTEX
  8
PLAN_1
 62
     2
  6
CONTINUOUS
 10
-1.112382
 20
-2.725173
  0
VERTEX
  8
PLAN_1
 62
     2
  6
CONTINUOUS
 10
-1.109504
 20
-2.725173
  0
VERTEX
  8
PLAN_1
 62
     2
  6
CONTINUOUS
 10
-1.106055
 20
-2.725748
  0
VERTEX
  8
PLAN_1
 62
     2
  6
CONTINUOUS
 10
-1.102602
 20
-2.726898
  0
VERTEX
  8
PLAN_1
 62
     2
  6
CONTINUOUS
 10
-1.099150
 20
-2.729197
  0
VERTEX
  8
PLAN_1
 62
     2
  6
CONTINUOUS
 10
-1.096272
 20
-2.731500
  0
VERTEX
  8
PLAN_1
 62
     2
  6
CONTINUOUS
 10
-1.093972
 20
-2.734953
  0
VERTEX
  8
PLAN_1
 62
     2
  6
CONTINUOUS
 10
-1.092248
 20
-2.738980
  0
VERTEX
  8
PLAN_1
 62
     2
  6
CONTINUOUS
 10
-1.091094
 20
-2.744157
  0
VERTEX
  8
PLAN_1
 62
     2
  6
CONTINUOUS
 10
-1.100299
 20
-2.744157
  0
SEQEND
  8
0
  0
POLYLINE
  8
PLAN_1
 62
     2
  6
CONTINUOUS
 66
     1
 40
0.003000
 41
0.003000
  0
VERTEX
  8
PLAN_1
 62
     2
  6
CONTINUOUS
 10
-1.113531
 20
-2.791906
  0
VERTEX
  8
PLAN_1
 62
     2
  6
CONTINUOUS
 10
-1.110657
 20
-2.791331
  0
VERTEX
  8
PLAN_1
 62
     2
  6
CONTINUOUS
 10
-1.107780
 20
-2.790756
  0
VERTEX
  8
PLAN_1
 62
     2
  6
CONTINUOUS
 10
-1.104902
 20
-2.789028
  0
VERTEX
  8
PLAN_1
 62
     2
  6
CONTINUOUS
 10
-1.103177
 20
-2.787303
  0
VERTEX
  8
PLAN_1
 62
     2
  6
CONTINUOUS
 10
-1.101453
 20
-2.784425
  0
VERTEX
  8
PLAN_1
 62
     2
  6
CONTINUOUS
 10
-1.100299
 20
-2.781551
  0
VERTEX
  8
PLAN_1
 62
     2
  6
CONTINUOUS
 10
-1.099724
 20
-2.778673
  0
VERTEX
  8
PLAN_1
 62
     2
  6
CONTINUOUS
 10
-1.099150
 20
-2.775220
  0
VERTEX
  8
PLAN_1
 62
     2
  6
CONTINUOUS
 10
-1.099150
 20
-2.772346
  0
VERTEX
  8
PLAN_1
 62
     2
  6
CONTINUOUS
 10
-1.099724
 20
-2.770043
  0
VERTEX
  8
PLAN_1
 62
     2
  6
CONTINUOUS
 10
-1.100874
 20
-2.767169
  0
VERTEX
  8
PLAN_1
 62
     2
  6
CONTINUOUS
 10
-1.102602
 20
-2.764866
  0
VERTEX
  8
PLAN_1
 62
     2
  6
CONTINUOUS
 10
-1.104327
 20
-2.762567
  0
VERTEX
  8
PLAN_1
 62
     2
  6
CONTINUOUS
 10
-1.106630
 20
-2.761413
  0
VERTEX
  8
PLAN_1
 62
     2
  6
CONTINUOUS
 10
-1.110079
 20
-2.760264
  0
VERTEX
  8
PLAN_1
 62
     2
  6
CONTINUOUS
 10
-1.114106
 20
-2.759689
  0
VERTEX
  8
PLAN_1
 62
     2
  6
CONTINUOUS
 10
-1.117559
 20
-2.759689
  0
VERTEX
  8
PLAN_1
 62
     2
  6
CONTINUOUS
 10
-1.120437
 20
-2.760839
  0
VERTEX
  8
PLAN_1
 62
     2
  6
CONTINUOUS
 10
-1.123311
 20
-2.762567
  0
VERTEX
  8
PLAN_1
 62
     2
  6
CONTINUOUS
 10
-1.125039
 20
-2.764291
  0
VERTEX
  8
PLAN_1
 62
     2
  6
CONTINUOUS
 10
-1.126764
 20
-2.766591
  0
VERTEX
  8
PLAN_1
 62
     2
  6
CONTINUOUS
 10
-1.127913
 20
-2.769469
  0
VERTEX
  8
PLAN_1
 62
     2
  6
CONTINUOUS
 10
-1.128488
 20
-2.772346
  0
VERTEX
  8
PLAN_1
 62
     2
  6
CONTINUOUS
 10
-1.129063
 20
-2.775795
  0
VERTEX
  8
PLAN_1
 62
     2
  6
CONTINUOUS
 10
-1.128488
 20
-2.778673
  0
VERTEX
  8
PLAN_1
 62
     2
  6
CONTINUOUS
 10
-1.127913
 20
-2.781551
  0
VERTEX
  8
PLAN_1
 62
     2
  6
CONTINUOUS
 10
-1.126764
 20
-2.783850
  0
VERTEX
  8
PLAN_1
 62
     2
  6
CONTINUOUS
 10
-1.125039
 20
-2.786728
  0
VERTEX
  8
PLAN_1
 62
     2
  6
CONTINUOUS
 10
-1.123311
 20
-2.788453
  0
VERTEX
  8
PLAN_1
 62
     2
  6
CONTINUOUS
 10
-1.120437
 20
-2.790177
  0
VERTEX
  8
PLAN_1
 62
     2
  6
CONTINUOUS
 10
-1.117559
 20
-2.791331
  0
VERTEX
  8
PLAN_1
 62
     2
  6
CONTINUOUS
 10
-1.113531
 20
-2.791906
  0
SEQEND
  8
0
  0
POLYLINE
  8
PLAN_1
 62
     2
  6
CONTINUOUS
 66
     1
 40
0.003000
 41
0.003000
  0
VERTEX
  8
PLAN_1
 62
     2
  6
CONTINUOUS
 10
-1.056579
 20
-2.799961
  0
VERTEX
  8
PLAN_1
 62
     2
  6
CONTINUOUS
 10
-1.060606
 20
-2.799961
  0
VERTEX
  8
PLAN_1
 62
     2
  6
CONTINUOUS
 10
-1.064059
 20
-2.798807
  0
VERTEX
  8
PLAN_1
 62
     2
  6
CONTINUOUS
 10
-1.066933
 20
-2.797657
  0
VERTEX
  8
PLAN_1
 62
     2
  6
CONTINUOUS
 10
-1.069811
 20
-2.796508
  0
VERTEX
  8
PLAN_1
 62
     2
  6
CONTINUOUS
 10
-1.072110
 20
-2.794205
  0
VERTEX
  8
PLAN_1
 62
     2
  6
CONTINUOUS
 10
-1.073839
 20
-2.791906
  0
VERTEX
  8
PLAN_1
 62
     2
  6
CONTINUOUS
 10
-1.075563
 20
-2.789602
  0
VERTEX
  8
PLAN_1
 62
     2
  6
CONTINUOUS
 10
-1.077287
 20
-2.786728
  0
VERTEX
  8
PLAN_1
 62
     2
  6
CONTINUOUS
 10
-1.079591
 20
-2.780976
  0
VERTEX
  8
PLAN_1
 62
     2
  6
CONTINUOUS
 10
-1.080740
 20
-2.774646
  0
VERTEX
  8
PLAN_1
 62
     2
  6
CONTINUOUS
 10
-1.081890
 20
-2.768319
  0
VERTEX
  8
PLAN_1
 62
     2
  6
CONTINUOUS
 10
-1.081890
 20
-2.762567
  0
VERTEX
  8
PLAN_1
 62
     2
  6
CONTINUOUS
 10
-1.081890
 20
-2.756236
  0
VERTEX
  8
PLAN_1
 62
     2
  6
CONTINUOUS
 10
-1.080740
 20
-2.749909
  0
VERTEX
  8
PLAN_1
 62
     2
  6
CONTINUOUS
 10
-1.079591
 20
-2.744157
  0
VERTEX
  8
PLAN_1
 62
     2
  6
CONTINUOUS
 10
-1.077287
 20
-2.737827
  0
VERTEX
  8
PLAN_1
 62
     2
  6
CONTINUOUS
 10
-1.075563
 20
-2.735528
  0
VERTEX
  8
PLAN_1
 62
     2
  6
CONTINUOUS
 10
-1.073839
 20
-2.732650
  0
VERTEX
  8
PLAN_1
 62
     2
  6
CONTINUOUS
 10
-1.072110
 20
-2.730350
  0
VERTEX
  8
PLAN_1
 62
     2
  6
CONTINUOUS
 10
-1.069811
 20
-2.728622
  0
VERTEX
  8
PLAN_1
 62
     2
  6
CONTINUOUS
 10
-1.066933
 20
-2.726898
  0
VERTEX
  8
PLAN_1
 62
     2
  6
CONTINUOUS
 10
-1.064059
 20
-2.725748
  0
VERTEX
  8
PLAN_1
 62
     2
  6
CONTINUOUS
 10
-1.060606
 20
-2.725173
  0
VERTEX
  8
PLAN_1
 62
     2
  6
CONTINUOUS
 10
-1.056579
 20
-2.725173
  0
VERTEX
  8
PLAN_1
 62
     2
  6
CONTINUOUS
 10
-1.053126
 20
-2.725173
  0
VERTEX
  8
PLAN_1
 62
     2
  6
CONTINUOUS
 10
-1.049673
 20
-2.725748
  0
VERTEX
  8
PLAN_1
 62
     2
  6
CONTINUOUS
 10
-1.046799
 20
-2.726898
  0
VERTEX
  8
PLAN_1
 62
     2
  6
CONTINUOUS
 10
-1.043921
 20
-2.728622
  0
VERTEX
  8
PLAN_1
 62
     2
  6
CONTINUOUS
 10
-1.041622
 20
-2.730350
  0
VERTEX
  8
PLAN_1
 62
     2
  6
CONTINUOUS
 10
-1.039894
 20
-2.732650
  0
VERTEX
  8
PLAN_1
 62
     2
  6
CONTINUOUS
 10
-1.037594
 20
-2.735528
  0
VERTEX
  8
PLAN_1
 62
     2
  6
CONTINUOUS
 10
-1.036445
 20
-2.737827
  0
VERTEX
  8
PLAN_1
 62
     2
  6
CONTINUOUS
 10
-1.034142
 20
-2.744157
  0
VERTEX
  8
PLAN_1
 62
     2
  6
CONTINUOUS
 10
-1.032417
 20
-2.749909
  0
VERTEX
  8
PLAN_1
 62
     2
  6
CONTINUOUS
 10
-1.031843
 20
-2.756236
  0
VERTEX
  8
PLAN_1
 62
     2
  6
CONTINUOUS
 10
-1.031843
 20
-2.762567
  0
VERTEX
  8
PLAN_1
 62
     2
  6
CONTINUOUS
 10
-1.031843
 20
-2.768319
  0
VERTEX
  8
PLAN_1
 62
     2
  6
CONTINUOUS
 10
-1.032417
 20
-2.774646
  0
VERTEX
  8
PLAN_1
 62
     2
  6
CONTINUOUS
 10
-1.034142
 20
-2.780976
  0
VERTEX
  8
PLAN_1
 62
     2
  6
CONTINUOUS
 10
-1.036445
 20
-2.786728
  0
VERTEX
  8
PLAN_1
 62
     2
  6
CONTINUOUS
 10
-1.037594
 20
-2.789602
  0
VERTEX
  8
PLAN_1
 62
     2
  6
CONTINUOUS
 10
-1.039894
 20
-2.791906
  0
VERTEX
  8
PLAN_1
 62
     2
  6
CONTINUOUS
 10
-1.041622
 20
-2.794205
  0
VERTEX
  8
PLAN_1
 62
     2
  6
CONTINUOUS
 10
-1.043921
 20
-2.796508
  0
VERTEX
  8
PLAN_1
 62
     2
  6
CONTINUOUS
 10
-1.046799
 20
-2.797657
  0
VERTEX
  8
PLAN_1
 62
     2
  6
CONTINUOUS
 10
-1.049673
 20
-2.798807
  0
VERTEX
  8
PLAN_1
 62
     2
  6
CONTINUOUS
 10
-1.053126
 20
-2.799961
  0
VERTEX
  8
PLAN_1
 62
     2
  6
CONTINUOUS
 10
-1.056579
 20
-2.799961
  0
SEQEND
  8
0
  0
POLYLINE
  8
PLAN_1
 62
     2
  6
CONTINUOUS
 66
     1
 40
0.003000
 41
0.003000
  0
VERTEX
  8
PLAN_1
 62
     2
  6
CONTINUOUS
 10
-1.056579
 20
-2.733224
  0
VERTEX
  8
PLAN_1
 62
     2
  6
CONTINUOUS
 10
-1.060606
 20
-2.733799
  0
VERTEX
  8
PLAN_1
 62
     2
  6
CONTINUOUS
 10
-1.063480
 20
-2.734953
  0
VERTEX
  8
PLAN_1
 62
     2
  6
CONTINUOUS
 10
-1.066358
 20
-2.737827
  0
VERTEX
  8
PLAN_1
 62
     2
  6
CONTINUOUS
 10
-1.068661
 20
-2.740705
  0
VERTEX
  8
PLAN_1
 62
     2
  6
CONTINUOUS
 10
-1.069811
 20
-2.745307
  0
VERTEX
  8
PLAN_1
 62
     2
  6
CONTINUOUS
 10
-1.070961
 20
-2.749909
  0
VERTEX
  8
PLAN_1
 62
     2
  6
CONTINUOUS
 10
-1.072110
 20
-2.755661
  0
VERTEX
  8
PLAN_1
 62
     2
  6
CONTINUOUS
 10
-1.072110
 20
-2.762567
  0
VERTEX
  8
PLAN_1
 62
     2
  6
CONTINUOUS
 10
-1.072110
 20
-2.768894
  0
VERTEX
  8
PLAN_1
 62
     2
  6
CONTINUOUS
 10
-1.070961
 20
-2.774646
  0
VERTEX
  8
PLAN_1
 62
     2
  6
CONTINUOUS
 10
-1.069811
 20
-2.779823
  0
VERTEX
  8
PLAN_1
 62
     2
  6
CONTINUOUS
 10
-1.068661
 20
-2.783850
  0
VERTEX
  8
PLAN_1
 62
     2
  6
CONTINUOUS
 10
-1.066358
 20
-2.787303
  0
VERTEX
  8
PLAN_1
 62
     2
  6
CONTINUOUS
 10
-1.063480
 20
-2.789602
  0
VERTEX
  8
PLAN_1
 62
     2
  6
CONTINUOUS
 10
-1.060606
 20
-2.791331
  0
VERTEX
  8
PLAN_1
 62
     2
  6
CONTINUOUS
 10
-1.056579
 20
-2.791906
  0
VERTEX
  8
PLAN_1
 62
     2
  6
CONTINUOUS
 10
-1.053126
 20
-2.791331
  0
VERTEX
  8
PLAN_1
 62
     2
  6
CONTINUOUS
 10
-1.050252
 20
-2.789602
  0
VERTEX
  8
PLAN_1
 62
     2
  6
CONTINUOUS
 10
-1.047374
 20
-2.787303
  0
VERTEX
  8
PLAN_1
 62
     2
  6
CONTINUOUS
 10
-1.045071
 20
-2.783850
  0
VERTEX
  8
PLAN_1
 62
     2
  6
CONTINUOUS
 10
-1.043346
 20
-2.779823
  0
VERTEX
  8
PLAN_1
 62
     2
  6
CONTINUOUS
 10
-1.042197
 20
-2.774646
  0
VERTEX
  8
PLAN_1
 62
     2
  6
CONTINUOUS
 10
-1.041622
 20
-2.768894
  0
VERTEX
  8
PLAN_1
 62
     2
  6
CONTINUOUS
 10
-1.041622
 20
-2.762567
  0
VERTEX
  8
PLAN_1
 62
     2
  6
CONTINUOUS
 10
-1.041622
 20
-2.755661
  0
VERTEX
  8
PLAN_1
 62
     2
  6
CONTINUOUS
 10
-1.042197
 20
-2.749909
  0
VERTEX
  8
PLAN_1
 62
     2
  6
CONTINUOUS
 10
-1.043346
 20
-2.745307
  0
VERTEX
  8
PLAN_1
 62
     2
  6
CONTINUOUS
 10
-1.045071
 20
-2.740705
  0
VERTEX
  8
PLAN_1
 62
     2
  6
CONTINUOUS
 10
-1.047374
 20
-2.737827
  0
VERTEX
  8
PLAN_1
 62
     2
  6
CONTINUOUS
 10
-1.050252
 20
-2.734953
  0
VERTEX
  8
PLAN_1
 62
     2
  6
CONTINUOUS
 10
-1.053126
 20
-2.733799
  0
VERTEX
  8
PLAN_1
 62
     2
  6
CONTINUOUS
 10
-1.056579
 20
-2.733224
  0
SEQEND
  8
0
  0
POLYLINE
  8
PLAN_1
 62
     2
  6
CONTINUOUS
 66
     1
 40
0.004024
 41
0.004024
  0
VERTEX
  8
PLAN_1
 62
     2
  6
CONTINUOUS
 10
-1.698598
 20
4.326134
  0
VERTEX
  8
PLAN_1
 62
     2
  6
CONTINUOUS
 10
0.088244
 20
4.326134
  0
SEQEND
  8
0
  0
SOLID
  8
PLAN_1
 62
     2
 10
0.117587
 20
4.326134
 11
0.058906
 21
4.341669
 12
0.117587
 22
4.326134
 13
0.058906
 23
4.310602
  0
POLYLINE
  8
PLAN_1
 62
     2
  6
CONTINUOUS
 66
     1
 40
0.003000
 41
0.003000
  0
VERTEX
  8
PLAN_1
 62
     2
  6
CONTINUOUS
 10
0.117587
 20
4.326134
  0
VERTEX
  8
PLAN_1
 62
     2
  6
CONTINUOUS
 10
0.058906
 20
4.341669
  0
VERTEX
  8
PLAN_1
 62
     2
  6
CONTINUOUS
 10
0.058906
 20
4.310602
  0
VERTEX
  8
PLAN_1
 62
     2
  6
CONTINUOUS
 10
0.117587
 20
4.326134
  0
SEQEND
  8
0
  0
SOLID
  8
PLAN_1
 62
     2
 10
-1.727941
 20
4.326134
 11
-1.669260
 21
4.341669
 12
-1.727941
 22
4.326134
 13
-1.669260
 23
4.310602
  0
POLYLINE
  8
PLAN_1
 62
     2
  6
CONTINUOUS
 66
     1
 40
0.003000
 41
0.003000
  0
VERTEX
  8
PLAN_1
 62
     2
  6
CONTINUOUS
 10
-1.727941
 20
4.326134
  0
VERTEX
  8
PLAN_1
 62
     2
  6
CONTINUOUS
 10
-1.669260
 20
4.341669
  0
VERTEX
  8
PLAN_1
 62
     2
  6
CONTINUOUS
 10
-1.669260
 20
4.310602
  0
VERTEX
  8
PLAN_1
 62
     2
  6
CONTINUOUS
 10
-1.727941
 20
4.326134
  0
SEQEND
  8
0
  0
POLYLINE
  8
PLAN_1
 62
     2
  6
CONTINUOUS
 66
     1
 40
0.004024
 41
0.004024
  0
VERTEX
  8
PLAN_1
 62
     2
  6
CONTINUOUS
 10
-2.096701
 20
4.507350
  0
VERTEX
  8
PLAN_1
 62
     2
  6
CONTINUOUS
 10
0.088244
 20
4.507350
  0
SEQEND
  8
0
  0
SOLID
  8
PLAN_1
 62
     2
 10
0.117587
 20
4.507350
 11
0.058906
 21
4.522886
 12
0.117587
 22
4.507350
 13
0.058906
 23
4.491244
  0
POLYLINE
  8
PLAN_1
 62
     2
  6
CONTINUOUS
 66
     1
 40
0.003000
 41
0.003000
  0
VERTEX
  8
PLAN_1
 62
     2
  6
CONTINUOUS
 10
0.117587
 20
4.507350
  0
VERTEX
  8
PLAN_1
 62
     2
  6
CONTINUOUS
 10
0.058906
 20
4.522886
  0
VERTEX
  8
PLAN_1
 62
     2
  6
CONTINUOUS
 10
0.058906
 20
4.491244
  0
VERTEX
  8
PLAN_1
 62
     2
  6
CONTINUOUS
 10
0.117587
 20
4.507350
  0
SEQEND
  8
0
  0
SOLID
  8
PLAN_1
 62
     2
 10
-2.126614
 20
4.507350
 11
-2.067358
 21
4.522886
 12
-2.126614
 22
4.507350
 13
-2.067358
 23
4.491244
  0
POLYLINE
  8
PLAN_1
 62
     2
  6
CONTINUOUS
 66
     1
 40
0.003000
 41
0.003000
  0
VERTEX
  8
PLAN_1
 62
     2
  6
CONTINUOUS
 10
-2.126614
 20
4.507350
  0
VERTEX
  8
PLAN_1
 62
     2
  6
CONTINUOUS
 10
-2.067358
 20
4.522886
  0
VERTEX
  8
PLAN_1
 62
     2
  6
CONTINUOUS
 10
-2.067358
 20
4.491244
  0
VERTEX
  8
PLAN_1
 62
     2
  6
CONTINUOUS
 10
-2.126614
 20
4.507350
  0
SEQEND
  8
0
  0
POLYLINE
  8
PLAN_1
 62
     2
  6
CONTINUOUS
 66
     1
 40
0.004024
 41
0.004024
  0
VERTEX
  8
PLAN_1
 62
     2
  6
CONTINUOUS
 10
-2.397000
 20
4.326134
  0
VERTEX
  8
PLAN_1
 62
     2
  6
CONTINUOUS
 10
-2.066209
 20
4.326134
  0
SEQEND
  8
0
  0
SOLID
  8
PLAN_1
 62
     2
 10
-2.036295
 20
4.326134
 11
-2.095547
 21
4.341669
 12
-2.036295
 22
4.326134
 13
-2.095547
 23
4.310602
  0
POLYLINE
  8
PLAN_1
 62
     2
  6
CONTINUOUS
 66
     1
 40
0.003000
 41
0.003000
  0
VERTEX
  8
PLAN_1
 62
     2
  6
CONTINUOUS
 10
-2.036295
 20
4.326134
  0
VERTEX
  8
PLAN_1
 62
     2
  6
CONTINUOUS
 10
-2.095547
 20
4.341669
  0
VERTEX
  8
PLAN_1
 62
     2
  6
CONTINUOUS
 10
-2.095547
 20
4.310602
  0
VERTEX
  8
PLAN_1
 62
     2
  6
CONTINUOUS
 10
-2.036295
 20
4.326134
  0
SEQEND
  8
0
  0
SOLID
  8
PLAN_1
 62
     2
 10
-2.216358
 20
4.326134
 11
-2.157106
 21
4.341669
 12
-2.216358
 22
4.326134
 13
-2.157106
 23
4.310602
  0
POLYLINE
  8
PLAN_1
 62
     2
  6
CONTINUOUS
 66
     1
 40
0.003000
 41
0.003000
  0
VERTEX
  8
PLAN_1
 62
     2
  6
CONTINUOUS
 10
-2.216358
 20
4.326134
  0
VERTEX
  8
PLAN_1
 62
     2
  6
CONTINUOUS
 10
-2.157106
 20
4.341669
  0
VERTEX
  8
PLAN_1
 62
     2
  6
CONTINUOUS
 10
-2.157106
 20
4.310602
  0
VERTEX
  8
PLAN_1
 62
     2
  6
CONTINUOUS
 10
-2.216358
 20
4.326134
  0
SEQEND
  8
0
  0
POLYLINE
  8
PLAN_1
 62
     2
  6
CONTINUOUS
 66
     1
 40
0.004024
 41
0.004024
  0
VERTEX
  8
PLAN_1
 62
     2
  6
CONTINUOUS
 10
-2.216358
 20
4.349724
  0
VERTEX
  8
PLAN_1
 62
     2
  6
CONTINUOUS
 10
-2.216358
 20
4.171382
  0
SEQEND
  8
0
  0
POLYLINE
  8
PLAN_1
 62
     2
  6
CONTINUOUS
 66
     1
 40
0.004024
 41
0.004024
  0
VERTEX
  8
PLAN_1
 62
     2
  6
CONTINUOUS
 10
-2.036295
 20
4.349724
  0
VERTEX
  8
PLAN_1
 62
     2
  6
CONTINUOUS
 10
-2.036295
 20
4.171382
  0
SEQEND
  8
0
  0
POLYLINE
  8
PLAN_1
 62
     2
  6
CONTINUOUS
 66
     1
 40
0.004024
 41
0.004024
  0
VERTEX
  8
PLAN_1
 62
     2
  6
CONTINUOUS
 10
-1.727941
 20
4.349724
  0
VERTEX
  8
PLAN_1
 62
     2
  6
CONTINUOUS
 10
-1.727941
 20
4.026409
  0
SEQEND
  8
0
  0
POLYLINE
  8
PLAN_1
 62
     2
  6
CONTINUOUS
 66
     1
 40
0.004024
 41
0.004024
  0
VERTEX
  8
PLAN_1
 62
     2
  6
CONTINUOUS
 10
0.117587
 20
1.014776
  0
VERTEX
  8
PLAN_1
 62
     2
  6
CONTINUOUS
 10
0.117587
 20
4.113854
  0
SEQEND
  8
0
  0
POLYLINE
  8
PLAN_1
 62
     2
  6
CONTINUOUS
 66
     1
 40
0.004024
 41
0.004024
  0
VERTEX
  8
PLAN_1
 62
     2
  6
CONTINUOUS
 10
0.117587
 20
4.185189
  0
VERTEX
  8
PLAN_1
 62
     2
  6
CONTINUOUS
 10
0.117587
 20
4.530937
  0
SEQEND
  8
0
  0
POLYLINE
  8
PLAN_1
 62
     2
  6
CONTINUOUS
 66
     1
 40
0.004024
 41
0.004024
  0
VERTEX
  8
PLAN_1
 62
     2
  6
CONTINUOUS
 10
-2.126614
 20
4.444646
  0
VERTEX
  8
PLAN_1
 62
     2
  6
CONTINUOUS
 10
-2.126614
 20
4.530937
  0
SEQEND
  8
0
  0
POLYLINE
  8
PLAN_1
 62
     2
  6
CONTINUOUS
 66
     1
 40
0.003000
 41
0.003000
  0
VERTEX
  8
PLAN_1
 62
     2
  6
CONTINUOUS
 10
-2.371110
 20
4.392295
  0
VERTEX
  8
PLAN_1
 62
     2
  6
CONTINUOUS
 10
-2.369961
 20
4.393445
  0
VERTEX
  8
PLAN_1
 62
     2
  6
CONTINUOUS
 10
-2.368811
 20
4.394020
  0
VERTEX
  8
PLAN_1
 62
     2
  6
CONTINUOUS
 10
-2.367087
 20
4.394594
  0
VERTEX
  8
PLAN_1
 62
     2
  6
CONTINUOUS
 10
-2.365358
 20
4.395744
  0
VERTEX
  8
PLAN_1
 62
     2
  6
CONTINUOUS
 10
-2.363634
 20
4.396323
  0
VERTEX
  8
PLAN_1
 62
     2
  6
CONTINUOUS
 10
-2.361906
 20
4.396323
  0
VERTEX
  8
PLAN_1
 62
     2
  6
CONTINUOUS
 10
-2.359606
 20
4.396898
  0
VERTEX
  8
PLAN_1
 62
     2
  6
CONTINUOUS
 10
-2.357303
 20
4.396898
  0
VERTEX
  8
PLAN_1
 62
     2
  6
CONTINUOUS
 10
-2.352705
 20
4.396323
  0
VERTEX
  8
PLAN_1
 62
     2
  6
CONTINUOUS
 10
-2.348677
 20
4.395169
  0
VERTEX
  8
PLAN_1
 62
     2
  6
CONTINUOUS
 10
-2.344650
 20
4.393445
  0
VERTEX
  8
PLAN_1
 62
     2
  6
CONTINUOUS
 10
-2.340622
 20
4.391142
  0
VERTEX
  8
PLAN_1
 62
     2
  6
CONTINUOUS
 10
-2.337744
 20
4.387693
  0
VERTEX
  8
PLAN_1
 62
     2
  6
CONTINUOUS
 10
-2.335445
 20
4.383665
  0
VERTEX
  8
PLAN_1
 62
     2
  6
CONTINUOUS
 10
-2.333717
 20
4.379063
  0
VERTEX
  8
PLAN_1
 62
     2
  6
CONTINUOUS
 10
-2.333142
 20
4.373311
  0
VERTEX
  8
PLAN_1
 62
     2
  6
CONTINUOUS
 10
-2.333142
 20
4.369858
  0
VERTEX
  8
PLAN_1
 62
     2
  6
CONTINUOUS
 10
-2.334295
 20
4.365831
  0
VERTEX
  8
PLAN_1
 62
     2
  6
CONTINUOUS
 10
-2.335445
 20
4.361803
  0
VERTEX
  8
PLAN_1
 62
     2
  6
CONTINUOUS
 10
-2.337744
 20
4.357776
  0
VERTEX
  8
PLAN_1
 62
     2
  6
CONTINUOUS
 10
-2.339472
 20
4.355476
  0
VERTEX
  8
PLAN_1
 62
     2
  6
CONTINUOUS
 10
-2.341197
 20
4.353748
  0
VERTEX
  8
PLAN_1
 62
     2
  6
CONTINUOUS
 10
-2.343500
 20
4.352024
  0
VERTEX
  8
PLAN_1
 62
     2
  6
CONTINUOUS
 10
-2.345799
 20
4.350874
  0
VERTEX
  8
PLAN_1
 62
     2
  6
CONTINUOUS
 10
-2.348677
 20
4.349724
  0
VERTEX
  8
PLAN_1
 62
     2
  6
CONTINUOUS
 10
-2.352126
 20
4.348571
  0
VERTEX
  8
PLAN_1
 62
     2
  6
CONTINUOUS
 10
-2.355579
 20
4.347996
  0
VERTEX
  8
PLAN_1
 62
     2
  6
CONTINUOUS
 10
-2.359606
 20
4.347996
  0
VERTEX
  8
PLAN_1
 62
     2
  6
CONTINUOUS
 10
-2.363634
 20
4.347996
  0
VERTEX
  8
PLAN_1
 62
     2
  6
CONTINUOUS
 10
-2.367087
 20
4.348571
  0
VERTEX
  8
PLAN_1
 62
     2
  6
CONTINUOUS
 10
-2.371110
 20
4.349724
  0
VERTEX
  8
PLAN_1
 62
     2
  6
CONTINUOUS
 10
-2.374563
 20
4.352024
  0
VERTEX
  8
PLAN_1
 62
     2
  6
CONTINUOUS
 10
-2.377441
 20
4.354327
  0
VERTEX
  8
PLAN_1
 62
     2
  6
CONTINUOUS
 10
-2.380315
 20
4.357776
  0
VERTEX
  8
PLAN_1
 62
     2
  6
CONTINUOUS
 10
-2.382043
 20
4.362378
  0
VERTEX
  8
PLAN_1
 62
     2
  6
CONTINUOUS
 10
-2.383193
 20
4.368130
  0
VERTEX
  8
PLAN_1
 62
     2
  6
CONTINUOUS
 10
-2.373988
 20
4.368130
  0
VERTEX
  8
PLAN_1
 62
     2
  6
CONTINUOUS
 10
-2.373413
 20
4.365256
  0
VERTEX
  8
PLAN_1
 62
     2
  6
CONTINUOUS
 10
-2.372264
 20
4.362378
  0
VERTEX
  8
PLAN_1
 62
     2
  6
CONTINUOUS
 10
-2.370535
 20
4.360654
  0
VERTEX
  8
PLAN_1
 62
     2
  6
CONTINUOUS
 10
-2.368811
 20
4.358929
  0
VERTEX
  8
PLAN_1
 62
     2
  6
CONTINUOUS
 10
-2.366508
 20
4.357201
  0
VERTEX
  8
PLAN_1
 62
     2
  6
CONTINUOUS
 10
-2.364209
 20
4.356626
  0
VERTEX
  8
PLAN_1
 62
     2
  6
CONTINUOUS
 10
-2.361331
 20
4.356051
  0
VERTEX
  8
PLAN_1
 62
     2
  6
CONTINUOUS
 10
-2.358457
 20
4.355476
  0
VERTEX
  8
PLAN_1
 62
     2
  6
CONTINUOUS
 10
-2.355004
 20
4.356051
  0
VERTEX
  8
PLAN_1
 62
     2
  6
CONTINUOUS
 10
-2.352126
 20
4.357201
  0
VERTEX
  8
PLAN_1
 62
     2
  6
CONTINUOUS
 10
-2.349252
 20
4.358350
  0
VERTEX
  8
PLAN_1
 62
     2
  6
CONTINUOUS
 10
-2.346949
 20
4.360654
  0
VERTEX
  8
PLAN_1
 62
     2
  6
CONTINUOUS
 10
-2.345224
 20
4.362953
  0
VERTEX
  8
PLAN_1
 62
     2
  6
CONTINUOUS
 10
-2.344075
 20
4.365831
  0
VERTEX
  8
PLAN_1
 62
     2
  6
CONTINUOUS
 10
-2.343500
 20
4.369283
  0
VERTEX
  8
PLAN_1
 62
     2
  6
CONTINUOUS
 10
-2.342921
 20
4.372732
  0
VERTEX
  8
PLAN_1
 62
     2
  6
CONTINUOUS
 10
-2.343500
 20
4.376185
  0
VERTEX
  8
PLAN_1
 62
     2
  6
CONTINUOUS
 10
-2.344075
 20
4.379638
  0
VERTEX
  8
PLAN_1
 62
     2
  6
CONTINUOUS
 10
-2.345799
 20
4.382516
  0
VERTEX
  8
PLAN_1
 62
     2
  6
CONTINUOUS
 10
-2.347524
 20
4.384815
  0
VERTEX
  8
PLAN_1
 62
     2
  6
CONTINUOUS
 10
-2.349827
 20
4.386539
  0
VERTEX
  8
PLAN_1
 62
     2
  6
CONTINUOUS
 10
-2.352705
 20
4.387693
  0
VERTEX
  8
PLAN_1
 62
     2
  6
CONTINUOUS
 10
-2.356154
 20
4.388268
  0
VERTEX
  8
PLAN_1
 62
     2
  6
CONTINUOUS
 10
-2.359031
 20
4.388843
  0
VERTEX
  8
PLAN_1
 62
     2
  6
CONTINUOUS
 10
-2.361331
 20
4.388843
  0
VERTEX
  8
PLAN_1
 62
     2
  6
CONTINUOUS
 10
-2.363059
 20
4.388268
  0
VERTEX
  8
PLAN_1
 62
     2
  6
CONTINUOUS
 10
-2.364783
 20
4.387693
  0
VERTEX
  8
PLAN_1
 62
     2
  6
CONTINUOUS
 10
-2.366508
 20
4.387118
  0
VERTEX
  8
PLAN_1
 62
     2
  6
CONTINUOUS
 10
-2.368236
 20
4.385965
  0
VERTEX
  8
PLAN_1
 62
     2
  6
CONTINUOUS
 10
-2.369961
 20
4.384815
  0
VERTEX
  8
PLAN_1
 62
     2
  6
CONTINUOUS
 10
-2.371110
 20
4.383091
  0
VERTEX
  8
PLAN_1
 62
     2
  6
CONTINUOUS
 10
-2.372839
 20
4.381937
  0
VERTEX
  8
PLAN_1
 62
     2
  6
CONTINUOUS
 10
-2.380894
 20
4.381937
  0
VERTEX
  8
PLAN_1
 62
     2
  6
CONTINUOUS
 10
-2.375138
 20
4.421634
  0
VERTEX
  8
PLAN_1
 62
     2
  6
CONTINUOUS
 10
-2.337169
 20
4.421634
  0
VERTEX
  8
PLAN_1
 62
     2
  6
CONTINUOUS
 10
-2.337169
 20
4.412429
  0
VERTEX
  8
PLAN_1
 62
     2
  6
CONTINUOUS
 10
-2.368236
 20
4.412429
  0
VERTEX
  8
PLAN_1
 62
     2
  6
CONTINUOUS
 10
-2.371110
 20
4.392295
  0
SEQEND
  8
0
  0
POLYLINE
  8
PLAN_1
 62
     2
  6
CONTINUOUS
 66
     1
 40
0.003000
 41
0.003000
  0
VERTEX
  8
PLAN_1
 62
     2
  6
CONTINUOUS
 10
-2.319909
 20
4.360654
  0
VERTEX
  8
PLAN_1
 62
     2
  6
CONTINUOUS
 10
-2.308980
 20
4.360654
  0
VERTEX
  8
PLAN_1
 62
     2
  6
CONTINUOUS
 10
-2.308980
 20
4.350874
  0
VERTEX
  8
PLAN_1
 62
     2
  6
CONTINUOUS
 10
-2.309555
 20
4.345697
  0
VERTEX
  8
PLAN_1
 62
     2
  6
CONTINUOUS
 10
-2.310130
 20
4.342244
  0
VERTEX
  8
PLAN_1
 62
     2
  6
CONTINUOUS
 10
-2.311858
 20
4.339366
  0
VERTEX
  8
PLAN_1
 62
     2
  6
CONTINUOUS
 10
-2.313583
 20
4.337642
  0
VERTEX
  8
PLAN_1
 62
     2
  6
CONTINUOUS
 10
-2.315311
 20
4.335917
  0
VERTEX
  8
PLAN_1
 62
     2
  6
CONTINUOUS
 10
-2.317035
 20
4.335339
  0
VERTEX
  8
PLAN_1
 62
     2
  6
CONTINUOUS
 10
-2.318760
 20
4.334764
  0
VERTEX
  8
PLAN_1
 62
     2
  6
CONTINUOUS
 10
-2.319909
 20
4.334764
  0
VERTEX
  8
PLAN_1
 62
     2
  6
CONTINUOUS
 10
-2.319909
 20
4.339366
  0
VERTEX
  8
PLAN_1
 62
     2
  6
CONTINUOUS
 10
-2.318185
 20
4.339941
  0
VERTEX
  8
PLAN_1
 62
     2
  6
CONTINUOUS
 10
-2.317035
 20
4.340520
  0
VERTEX
  8
PLAN_1
 62
     2
  6
CONTINUOUS
 10
-2.315886
 20
4.341669
  0
VERTEX
  8
PLAN_1
 62
     2
  6
CONTINUOUS
 10
-2.315311
 20
4.342819
  0
VERTEX
  8
PLAN_1
 62
     2
  6
CONTINUOUS
 10
-2.314732
 20
4.344543
  0
VERTEX
  8
PLAN_1
 62
     2
  6
CONTINUOUS
 10
-2.314732
 20
4.346272
  0
VERTEX
  8
PLAN_1
 62
     2
  6
CONTINUOUS
 10
-2.314157
 20
4.347996
  0
VERTEX
  8
PLAN_1
 62
     2
  6
CONTINUOUS
 10
-2.314157
 20
4.349724
  0
VERTEX
  8
PLAN_1
 62
     2
  6
CONTINUOUS
 10
-2.319909
 20
4.349724
  0
VERTEX
  8
PLAN_1
 62
     2
  6
CONTINUOUS
 10
-2.319909
 20
4.360654
  0
SEQEND
  8
0
  0
POLYLINE
  8
PLAN_1
 62
     2
  6
CONTINUOUS
 66
     1
 40
0.003000
 41
0.003000
  0
VERTEX
  8
PLAN_1
 62
     2
  6
CONTINUOUS
 10
-2.284819
 20
4.392295
  0
VERTEX
  8
PLAN_1
 62
     2
  6
CONTINUOUS
 10
-2.283094
 20
4.393445
  0
VERTEX
  8
PLAN_1
 62
     2
  6
CONTINUOUS
 10
-2.281941
 20
4.394020
  0
VERTEX
  8
PLAN_1
 62
     2
  6
CONTINUOUS
 10
-2.280217
 20
4.394594
  0
VERTEX
  8
PLAN_1
 62
     2
  6
CONTINUOUS
 10
-2.278492
 20
4.395744
  0
VERTEX
  8
PLAN_1
 62
     2
  6
CONTINUOUS
 10
-2.276764
 20
4.396323
  0
VERTEX
  8
PLAN_1
 62
     2
  6
CONTINUOUS
 10
-2.275039
 20
4.396323
  0
VERTEX
  8
PLAN_1
 62
     2
  6
CONTINUOUS
 10
-2.272736
 20
4.396898
  0
VERTEX
  8
PLAN_1
 62
     2
  6
CONTINUOUS
 10
-2.270437
 20
4.396898
  0
VERTEX
  8
PLAN_1
 62
     2
  6
CONTINUOUS
 10
-2.265835
 20
4.396323
  0
VERTEX
  8
PLAN_1
 62
     2
  6
CONTINUOUS
 10
-2.261807
 20
4.395169
  0
VERTEX
  8
PLAN_1
 62
     2
  6
CONTINUOUS
 10
-2.257780
 20
4.393445
  0
VERTEX
  8
PLAN_1
 62
     2
  6
CONTINUOUS
 10
-2.253752
 20
4.391142
  0
VERTEX
  8
PLAN_1
 62
     2
  6
CONTINUOUS
 10
-2.250878
 20
4.387693
  0
VERTEX
  8
PLAN_1
 62
     2
  6
CONTINUOUS
 10
-2.248575
 20
4.383665
  0
VERTEX
  8
PLAN_1
 62
     2
  6
CONTINUOUS
 10
-2.246850
 20
4.379063
  0
VERTEX
  8
PLAN_1
 62
     2
  6
CONTINUOUS
 10
-2.246276
 20
4.373311
  0
VERTEX
  8
PLAN_1
 62
     2
  6
CONTINUOUS
 10
-2.246850
 20
4.369858
  0
VERTEX
  8
PLAN_1
 62
     2
  6
CONTINUOUS
 10
-2.247425
 20
4.365831
  0
VERTEX
  8
PLAN_1
 62
     2
  6
CONTINUOUS
 10
-2.248575
 20
4.361803
  0
VERTEX
  8
PLAN_1
 62
     2
  6
CONTINUOUS
 10
-2.250878
 20
4.357776
  0
VERTEX
  8
PLAN_1
 62
     2
  6
CONTINUOUS
 10
-2.252602
 20
4.355476
  0
VERTEX
  8
PLAN_1
 62
     2
  6
CONTINUOUS
 10
-2.254327
 20
4.353748
  0
VERTEX
  8
PLAN_1
 62
     2
  6
CONTINUOUS
 10
-2.256630
 20
4.352024
  0
VERTEX
  8
PLAN_1
 62
     2
  6
CONTINUOUS
 10
-2.258929
 20
4.350874
  0
VERTEX
  8
PLAN_1
 62
     2
  6
CONTINUOUS
 10
-2.261807
 20
4.349724
  0
VERTEX
  8
PLAN_1
 62
     2
  6
CONTINUOUS
 10
-2.265260
 20
4.348571
  0
VERTEX
  8
PLAN_1
 62
     2
  6
CONTINUOUS
 10
-2.268713
 20
4.347996
  0
VERTEX
  8
PLAN_1
 62
     2
  6
CONTINUOUS
 10
-2.272736
 20
4.347996
  0
VERTEX
  8
PLAN_1
 62
     2
  6
CONTINUOUS
 10
-2.276764
 20
4.347996
  0
VERTEX
  8
PLAN_1
 62
     2
  6
CONTINUOUS
 10
-2.280217
 20
4.348571
  0
VERTEX
  8
PLAN_1
 62
     2
  6
CONTINUOUS
 10
-2.284244
 20
4.349724
  0
VERTEX
  8
PLAN_1
 62
     2
  6
CONTINUOUS
 10
-2.287697
 20
4.352024
  0
VERTEX
  8
PLAN_1
 62
     2
  6
CONTINUOUS
 10
-2.290571
 20
4.354327
  0
VERTEX
  8
PLAN_1
 62
     2
  6
CONTINUOUS
 10
-2.293449
 20
4.357776
  0
VERTEX
  8
PLAN_1
 62
     2
  6
CONTINUOUS
 10
-2.295173
 20
4.362378
  0
VERTEX
  8
PLAN_1
 62
     2
  6
CONTINUOUS
 10
-2.296323
 20
4.368130
  0
VERTEX
  8
PLAN_1
 62
     2
  6
CONTINUOUS
 10
-2.287118
 20
4.368130
  0
VERTEX
  8
PLAN_1
 62
     2
  6
CONTINUOUS
 10
-2.286543
 20
4.365256
  0
VERTEX
  8
PLAN_1
 62
     2
  6
CONTINUOUS
 10
-2.285394
 20
4.362378
  0
VERTEX
  8
PLAN_1
 62
     2
  6
CONTINUOUS
 10
-2.283669
 20
4.360654
  0
VERTEX
  8
PLAN_1
 62
     2
  6
CONTINUOUS
 10
-2.281941
 20
4.358929
  0
VERTEX
  8
PLAN_1
 62
     2
  6
CONTINUOUS
 10
-2.279642
 20
4.357201
  0
VERTEX
  8
PLAN_1
 62
     2
  6
CONTINUOUS
 10
-2.277339
 20
4.356626
  0
VERTEX
  8
PLAN_1
 62
     2
  6
CONTINUOUS
 10
-2.274465
 20
4.356051
  0
VERTEX
  8
PLAN_1
 62
     2
  6
CONTINUOUS
 10
-2.271587
 20
4.355476
  0
VERTEX
  8
PLAN_1
 62
     2
  6
CONTINUOUS
 10
-2.268134
 20
4.356051
  0
VERTEX
  8
PLAN_1
 62
     2
  6
CONTINUOUS
 10
-2.265260
 20
4.357201
  0
VERTEX
  8
PLAN_1
 62
     2
  6
CONTINUOUS
 10
-2.262382
 20
4.358350
  0
VERTEX
  8
PLAN_1
 62
     2
  6
CONTINUOUS
 10
-2.260083
 20
4.360654
  0
VERTEX
  8
PLAN_1
 62
     2
  6
CONTINUOUS
 10
-2.258354
 20
4.362953
  0
VERTEX
  8
PLAN_1
 62
     2
  6
CONTINUOUS
 10
-2.257205
 20
4.365831
  0
VERTEX
  8
PLAN_1
 62
     2
  6
CONTINUOUS
 10
-2.256630
 20
4.369283
  0
VERTEX
  8
PLAN_1
 62
     2
  6
CONTINUOUS
 10
-2.256055
 20
4.372732
  0
VERTEX
  8
PLAN_1
 62
     2
  6
CONTINUOUS
 10
-2.256630
 20
4.376185
  0
VERTEX
  8
PLAN_1
 62
     2
  6
CONTINUOUS
 10
-2.257205
 20
4.379638
  0
VERTEX
  8
PLAN_1
 62
     2
  6
CONTINUOUS
 10
-2.258929
 20
4.382516
  0
VERTEX
  8
PLAN_1
 62
     2
  6
CONTINUOUS
 10
-2.260657
 20
4.384815
  0
VERTEX
  8
PLAN_1
 62
     2
  6
CONTINUOUS
 10
-2.263531
 20
4.386539
  0
VERTEX
  8
PLAN_1
 62
     2
  6
CONTINUOUS
 10
-2.265835
 20
4.387693
  0
VERTEX
  8
PLAN_1
 62
     2
  6
CONTINUOUS
 10
-2.269287
 20
4.388268
  0
VERTEX
  8
PLAN_1
 62
     2
  6
CONTINUOUS
 10
-2.272161
 20
4.388843
  0
VERTEX
  8
PLAN_1
 62
     2
  6
CONTINUOUS
 10
-2.274465
 20
4.388843
  0
VERTEX
  8
PLAN_1
 62
     2
  6
CONTINUOUS
 10
-2.276189
 20
4.388268
  0
VERTEX
  8
PLAN_1
 62
     2
  6
CONTINUOUS
 10
-2.277913
 20
4.387693
  0
VERTEX
  8
PLAN_1
 62
     2
  6
CONTINUOUS
 10
-2.279642
 20
4.387118
  0
VERTEX
  8
PLAN_1
 62
     2
  6
CONTINUOUS
 10
-2.281366
 20
4.385965
  0
VERTEX
  8
PLAN_1
 62
     2
  6
CONTINUOUS
 10
-2.283094
 20
4.384815
  0
VERTEX
  8
PLAN_1
 62
     2
  6
CONTINUOUS
 10
-2.284819
 20
4.383091
  0
VERTEX
  8
PLAN_1
 62
     2
  6
CONTINUOUS
 10
-2.285969
 20
4.381937
  0
VERTEX
  8
PLAN_1
 62
     2
  6
CONTINUOUS
 10
-2.294024
 20
4.381937
  0
VERTEX
  8
PLAN_1
 62
     2
  6
CONTINUOUS
 10
-2.288272
 20
4.421634
  0
VERTEX
  8
PLAN_1
 62
     2
  6
CONTINUOUS
 10
-2.250303
 20
4.421634
  0
VERTEX
  8
PLAN_1
 62
     2
  6
CONTINUOUS
 10
-2.250303
 20
4.412429
  0
VERTEX
  8
PLAN_1
 62
     2
  6
CONTINUOUS
 10
-2.281366
 20
4.412429
  0
VERTEX
  8
PLAN_1
 62
     2
  6
CONTINUOUS
 10
-2.284819
 20
4.392295
  0
SEQEND
  8
0
  0
POLYLINE
  8
PLAN_1
 62
     2
  6
CONTINUOUS
 66
     1
 40
0.003000
 41
0.003000
  0
VERTEX
  8
PLAN_1
 62
     2
  6
CONTINUOUS
 10
-1.046799
 20
4.573508
  0
VERTEX
  8
PLAN_1
 62
     2
  6
CONTINUOUS
 10
-1.045650
 20
4.574087
  0
VERTEX
  8
PLAN_1
 62
     2
  6
CONTINUOUS
 10
-1.044496
 20
4.575236
  0
VERTEX
  8
PLAN_1
 62
     2
  6
CONTINUOUS
 10
-1.042772
 20
4.575811
  0
VERTEX
  8
PLAN_1
 62
     2
  6
CONTINUOUS
 10
-1.041047
 20
4.576386
  0
VERTEX
  8
PLAN_1
 62
     2
  6
CONTINUOUS
 10
-1.039319
 20
4.576961
  0
VERTEX
  8
PLAN_1
 62
     2
  6
CONTINUOUS
 10
-1.037020
 20
4.577535
  0
VERTEX
  8
PLAN_1
 62
     2
  6
CONTINUOUS
 10
-1.035291
 20
4.578110
  0
VERTEX
  8
PLAN_1
 62
     2
  6
CONTINUOUS
 10
-1.032992
 20
4.578110
  0
VERTEX
  8
PLAN_1
 62
     2
  6
CONTINUOUS
 10
-1.028390
 20
4.577535
  0
VERTEX
  8
PLAN_1
 62
     2
  6
CONTINUOUS
 10
-1.023787
 20
4.576386
  0
VERTEX
  8
PLAN_1
 62
     2
  6
CONTINUOUS
 10
-1.019760
 20
4.574661
  0
VERTEX
  8
PLAN_1
 62
     2
  6
CONTINUOUS
 10
-1.016307
 20
4.571783
  0
VERTEX
  8
PLAN_1
 62
     2
  6
CONTINUOUS
 10
-1.013433
 20
4.568331
  0
VERTEX
  8
PLAN_1
 62
     2
  6
CONTINUOUS
 10
-1.010555
 20
4.564882
  0
VERTEX
  8
PLAN_1
 62
     2
  6
CONTINUOUS
 10
-1.009406
 20
4.559705
  0
VERTEX
  8
PLAN_1
 62
     2
  6
CONTINUOUS
 10
-1.008831
 20
4.554524
  0
VERTEX
  8
PLAN_1
 62
     2
  6
CONTINUOUS
 10
-1.008831
 20
4.551075
  0
VERTEX
  8
PLAN_1
 62
     2
  6
CONTINUOUS
 10
-1.009406
 20
4.547047
  0
VERTEX
  8
PLAN_1
 62
     2
  6
CONTINUOUS
 10
-1.011130
 20
4.543020
  0
VERTEX
  8
PLAN_1
 62
     2
  6
CONTINUOUS
 10
-1.013433
 20
4.538417
  0
VERTEX
  8
PLAN_1
 62
     2
  6
CONTINUOUS
 10
-1.015157
 20
4.536693
  0
VERTEX
  8
PLAN_1
 62
     2
  6
CONTINUOUS
 10
-1.016882
 20
4.534965
  0
VERTEX
  8
PLAN_1
 62
     2
  6
CONTINUOUS
 10
-1.019185
 20
4.533240
  0
VERTEX
  8
PLAN_1
 62
     2
  6
CONTINUOUS
 10
-1.021484
 20
4.531512
  0
VERTEX
  8
PLAN_1
 62
     2
  6
CONTINUOUS
 10
-1.024362
 20
4.530362
  0
VERTEX
  8
PLAN_1
 62
     2
  6
CONTINUOUS
 10
-1.027240
 20
4.529787
  0
VERTEX
  8
PLAN_1
 62
     2
  6
CONTINUOUS
 10
-1.031268
 20
4.529213
  0
VERTEX
  8
PLAN_1
 62
     2
  6
CONTINUOUS
 10
-1.035291
 20
4.528638
  0
VERTEX
  8
PLAN_1
 62
     2
  6
CONTINUOUS
 10
-1.038744
 20
4.529213
  0
VERTEX
  8
PLAN_1
 62
     2
  6
CONTINUOUS
 10
-1.042772
 20
4.529787
  0
VERTEX
  8
PLAN_1
 62
     2
  6
CONTINUOUS
 10
-1.046224
 20
4.530937
  0
VERTEX
  8
PLAN_1
 62
     2
  6
CONTINUOUS
 10
-1.049673
 20
4.532665
  0
VERTEX
  8
PLAN_1
 62
     2
  6
CONTINUOUS
 10
-1.053126
 20
4.535539
  0
VERTEX
  8
PLAN_1
 62
     2
  6
CONTINUOUS
 10
-1.056004
 20
4.538992
  0
VERTEX
  8
PLAN_1
 62
     2
  6
CONTINUOUS
 10
-1.057728
 20
4.543594
  0
VERTEX
  8
PLAN_1
 62
     2
  6
CONTINUOUS
 10
-1.058878
 20
4.549346
  0
VERTEX
  8
PLAN_1
 62
     2
  6
CONTINUOUS
 10
-1.049098
 20
4.549346
  0
VERTEX
  8
PLAN_1
 62
     2
  6
CONTINUOUS
 10
-1.048524
 20
4.545898
  0
VERTEX
  8
PLAN_1
 62
     2
  6
CONTINUOUS
 10
-1.047949
 20
4.543594
  0
VERTEX
  8
PLAN_1
 62
     2
  6
CONTINUOUS
 10
-1.046224
 20
4.541295
  0
VERTEX
  8
PLAN_1
 62
     2
  6
CONTINUOUS
 10
-1.044496
 20
4.539567
  0
VERTEX
  8
PLAN_1
 62
     2
  6
CONTINUOUS
 10
-1.042197
 20
4.538417
  0
VERTEX
  8
PLAN_1
 62
     2
  6
CONTINUOUS
 10
-1.039894
 20
4.537268
  0
VERTEX
  8
PLAN_1
 62
     2
  6
CONTINUOUS
 10
-1.037020
 20
4.536693
  0
VERTEX
  8
PLAN_1
 62
     2
  6
CONTINUOUS
 10
-1.034142
 20
4.536693
  0
VERTEX
  8
PLAN_1
 62
     2
  6
CONTINUOUS
 10
-1.030689
 20
4.537268
  0
VERTEX
  8
PLAN_1
 62
     2
  6
CONTINUOUS
 10
-1.027240
 20
4.537843
  0
VERTEX
  8
PLAN_1
 62
     2
  6
CONTINUOUS
 10
-1.024937
 20
4.539567
  0
VERTEX
  8
PLAN_1
 62
     2
  6
CONTINUOUS
 10
-1.022638
 20
4.541870
  0
VERTEX
  8
PLAN_1
 62
     2
  6
CONTINUOUS
 10
-1.020909
 20
4.544169
  0
VERTEX
  8
PLAN_1
 62
     2
  6
CONTINUOUS
 10
-1.019760
 20
4.547047
  0
VERTEX
  8
PLAN_1
 62
     2
  6
CONTINUOUS
 10
-1.018610
 20
4.549921
  0
VERTEX
  8
PLAN_1
 62
     2
  6
CONTINUOUS
 10
-1.018610
 20
4.553374
  0
VERTEX
  8
PLAN_1
 62
     2
  6
CONTINUOUS
 10
-1.018610
 20
4.557402
  0
VERTEX
  8
PLAN_1
 62
     2
  6
CONTINUOUS
 10
-1.019760
 20
4.560280
  0
VERTEX
  8
PLAN_1
 62
     2
  6
CONTINUOUS
 10
-1.021484
 20
4.563154
  0
VERTEX
  8
PLAN_1
 62
     2
  6
CONTINUOUS
 10
-1.023213
 20
4.565457
  0
VERTEX
  8
PLAN_1
 62
     2
  6
CONTINUOUS
 10
-1.025512
 20
4.567181
  0
VERTEX
  8
PLAN_1
 62
     2
  6
CONTINUOUS
 10
-1.028390
 20
4.568906
  0
VERTEX
  8
PLAN_1
 62
     2
  6
CONTINUOUS
 10
-1.031268
 20
4.569484
  0
VERTEX
  8
PLAN_1
 62
     2
  6
CONTINUOUS
 10
-1.034717
 20
4.570059
  0
VERTEX
  8
PLAN_1
 62
     2
  6
CONTINUOUS
 10
-1.036445
 20
4.569484
  0
VERTEX
  8
PLAN_1
 62
     2
  6
CONTINUOUS
 10
-1.038744
 20
4.569484
  0
VERTEX
  8
PLAN_1
 62
     2
  6
CONTINUOUS
 10
-1.040469
 20
4.568906
  0
VERTEX
  8
PLAN_1
 62
     2
  6
CONTINUOUS
 10
-1.042197
 20
4.567756
  0
VERTEX
  8
PLAN_1
 62
     2
  6
CONTINUOUS
 10
-1.043921
 20
4.567181
  0
VERTEX
  8
PLAN_1
 62
     2
  6
CONTINUOUS
 10
-1.045650
 20
4.566031
  0
VERTEX
  8
PLAN_1
 62
     2
  6
CONTINUOUS
 10
-1.046799
 20
4.564303
  0
VERTEX
  8
PLAN_1
 62
     2
  6
CONTINUOUS
 10
-1.047949
 20
4.562579
  0
VERTEX
  8
PLAN_1
 62
     2
  6
CONTINUOUS
 10
-1.056004
 20
4.563154
  0
VERTEX
  8
PLAN_1
 62
     2
  6
CONTINUOUS
 10
-1.050827
 20
4.602276
  0
VERTEX
  8
PLAN_1
 62
     2
  6
CONTINUOUS
 10
-1.012858
 20
4.602276
  0
VERTEX
  8
PLAN_1
 62
     2
  6
CONTINUOUS
 10
-1.012858
 20
4.593646
  0
VERTEX
  8
PLAN_1
 62
     2
  6
CONTINUOUS
 10
-1.043921
 20
4.593646
  0
VERTEX
  8
PLAN_1
 62
     2
  6
CONTINUOUS
 10
-1.046799
 20
4.573508
  0
SEQEND
  8
0
  0
POLYLINE
  8
PLAN_1
 62
     2
  6
CONTINUOUS
 66
     1
 40
0.003000
 41
0.003000
  0
VERTEX
  8
PLAN_1
 62
     2
  6
CONTINUOUS
 10
-0.999626
 20
4.577535
  0
VERTEX
  8
PLAN_1
 62
     2
  6
CONTINUOUS
 10
-0.999626
 20
4.582138
  0
VERTEX
  8
PLAN_1
 62
     2
  6
CONTINUOUS
 10
-0.999051
 20
4.585591
  0
VERTEX
  8
PLAN_1
 62
     2
  6
CONTINUOUS
 10
-0.997898
 20
4.589043
  0
VERTEX
  8
PLAN_1
 62
     2
  6
CONTINUOUS
 10
-0.996748
 20
4.591917
  0
VERTEX
  8
PLAN_1
 62
     2
  6
CONTINUOUS
 10
-0.995598
 20
4.594220
  0
VERTEX
  8
PLAN_1
 62
     2
  6
CONTINUOUS
 10
-0.993874
 20
4.596520
  0
VERTEX
  8
PLAN_1
 62
     2
  6
CONTINUOUS
 10
-0.992146
 20
4.598248
  0
VERTEX
  8
PLAN_1
 62
     2
  6
CONTINUOUS
 10
-0.989846
 20
4.599972
  0
VERTEX
  8
PLAN_1
 62
     2
  6
CONTINUOUS
 10
-0.985819
 20
4.601701
  0
VERTEX
  8
PLAN_1
 62
     2
  6
CONTINUOUS
 10
-0.981791
 20
4.603425
  0
VERTEX
  8
PLAN_1
 62
     2
  6
CONTINUOUS
 10
-0.977764
 20
4.604000
  0
VERTEX
  8
PLAN_1
 62
     2
  6
CONTINUOUS
 10
-0.974311
 20
4.604000
  0
VERTEX
  8
PLAN_1
 62
     2
  6
CONTINUOUS
 10
-0.969709
 20
4.603425
  0
VERTEX
  8
PLAN_1
 62
     2
  6
CONTINUOUS
 10
-0.965681
 20
4.602276
  0
VERTEX
  8
PLAN_1
 62
     2
  6
CONTINUOUS
 10
-0.961657
 20
4.600547
  0
VERTEX
  8
PLAN_1
 62
     2
  6
CONTINUOUS
 10
-0.958205
 20
4.598248
  0
VERTEX
  8
PLAN_1
 62
     2
  6
CONTINUOUS
 10
-0.955327
 20
4.594795
  0
VERTEX
  8
PLAN_1
 62
     2
  6
CONTINUOUS
 10
-0.953602
 20
4.591343
  0
VERTEX
  8
PLAN_1
 62
     2
  6
CONTINUOUS
 10
-0.951878
 20
4.586740
  0
VERTEX
  8
PLAN_1
 62
     2
  6
CONTINUOUS
 10
-0.951299
 20
4.582138
  0
VERTEX
  8
PLAN_1
 62
     2
  6
CONTINUOUS
 10
-0.951878
 20
4.577535
  0
VERTEX
  8
PLAN_1
 62
     2
  6
CONTINUOUS
 10
-0.953028
 20
4.573508
  0
VERTEX
  8
PLAN_1
 62
     2
  6
CONTINUOUS
 10
-0.954752
 20
4.570059
  0
VERTEX
  8
PLAN_1
 62
     2
  6
CONTINUOUS
 10
-0.957055
 20
4.567181
  0
VERTEX
  8
PLAN_1
 62
     2
  6
CONTINUOUS
 10
-0.959929
 20
4.564303
  0
VERTEX
  8
PLAN_1
 62
     2
  6
CONTINUOUS
 10
-0.963382
 20
4.562004
  0
VERTEX
  8
PLAN_1
 62
     2
  6
CONTINUOUS
 10
-0.966835
 20
4.559705
  0
VERTEX
  8
PLAN_1
 62
     2
  6
CONTINUOUS
 10
-0.970862
 20
4.557976
  0
VERTEX
  8
PLAN_1
 62
     2
  6
CONTINUOUS
 10
-0.978913
 20
4.553374
  0
VERTEX
  8
PLAN_1
 62
     2
  6
CONTINUOUS
 10
-0.982366
 20
4.551650
  0
VERTEX
  8
PLAN_1
 62
     2
  6
CONTINUOUS
 10
-0.984669
 20
4.549346
  0
VERTEX
  8
PLAN_1
 62
     2
  6
CONTINUOUS
 10
-0.986969
 20
4.547622
  0
VERTEX
  8
PLAN_1
 62
     2
  6
CONTINUOUS
 10
-0.988693
 20
4.545319
  0
VERTEX
  8
PLAN_1
 62
     2
  6
CONTINUOUS
 10
-0.989846
 20
4.543594
  0
VERTEX
  8
PLAN_1
 62
     2
  6
CONTINUOUS
 10
-0.990421
 20
4.541870
  0
VERTEX
  8
PLAN_1
 62
     2
  6
CONTINUOUS
 10
-0.990996
 20
4.540717
  0
VERTEX
  8
PLAN_1
 62
     2
  6
CONTINUOUS
 10
-0.990996
 20
4.539567
  0
VERTEX
  8
PLAN_1
 62
     2
  6
CONTINUOUS
 10
-0.951299
 20
4.539567
  0
VERTEX
  8
PLAN_1
 62
     2
  6
CONTINUOUS
 10
-0.951299
 20
4.530937
  0
VERTEX
  8
PLAN_1
 62
     2
  6
CONTINUOUS
 10
-1.001350
 20
4.530937
  0
VERTEX
  8
PLAN_1
 62
     2
  6
CONTINUOUS
 10
-1.001350
 20
4.536114
  0
VERTEX
  8
PLAN_1
 62
     2
  6
CONTINUOUS
 10
-1.000201
 20
4.540717
  0
VERTEX
  8
PLAN_1
 62
     2
  6
CONTINUOUS
 10
-0.998476
 20
4.545319
  0
VERTEX
  8
PLAN_1
 62
     2
  6
CONTINUOUS
 10
-0.996748
 20
4.548772
  0
VERTEX
  8
PLAN_1
 62
     2
  6
CONTINUOUS
 10
-0.993874
 20
4.552224
  0
VERTEX
  8
PLAN_1
 62
     2
  6
CONTINUOUS
 10
-0.990996
 20
4.555102
  0
VERTEX
  8
PLAN_1
 62
     2
  6
CONTINUOUS
 10
-0.988118
 20
4.557402
  0
VERTEX
  8
PLAN_1
 62
     2
  6
CONTINUOUS
 10
-0.984669
 20
4.559705
  0
VERTEX
  8
PLAN_1
 62
     2
  6
CONTINUOUS
 10
-0.974886
 20
4.565457
  0
VERTEX
  8
PLAN_1
 62
     2
  6
CONTINUOUS
 10
-0.972012
 20
4.567181
  0
VERTEX
  8
PLAN_1
 62
     2
  6
CONTINUOUS
 10
-0.969134
 20
4.568906
  0
VERTEX
  8
PLAN_1
 62
     2
  6
CONTINUOUS
 10
-0.966835
 20
4.570059
  0
VERTEX
  8
PLAN_1
 62
     2
  6
CONTINUOUS
 10
-0.965106
 20
4.572358
  0
VERTEX
  8
PLAN_1
 62
     2
  6
CONTINUOUS
 10
-0.963382
 20
4.574087
  0
VERTEX
  8
PLAN_1
 62
     2
  6
CONTINUOUS
 10
-0.962232
 20
4.576386
  0
VERTEX
  8
PLAN_1
 62
     2
  6
CONTINUOUS
 10
-0.961657
 20
4.579264
  0
VERTEX
  8
PLAN_1
 62
     2
  6
CONTINUOUS
 10
-0.961079
 20
4.582713
  0
VERTEX
  8
PLAN_1
 62
     2
  6
CONTINUOUS
 10
-0.961657
 20
4.585016
  0
VERTEX
  8
PLAN_1
 62
     2
  6
CONTINUOUS
 10
-0.962232
 20
4.587315
  0
VERTEX
  8
PLAN_1
 62
     2
  6
CONTINUOUS
 10
-0.962807
 20
4.589043
  0
VERTEX
  8
PLAN_1
 62
     2
  6
CONTINUOUS
 10
-0.964531
 20
4.591343
  0
VERTEX
  8
PLAN_1
 62
     2
  6
CONTINUOUS
 10
-0.966260
 20
4.593071
  0
VERTEX
  8
PLAN_1
 62
     2
  6
CONTINUOUS
 10
-0.969134
 20
4.594795
  0
VERTEX
  8
PLAN_1
 62
     2
  6
CONTINUOUS
 10
-0.972012
 20
4.595370
  0
VERTEX
  8
PLAN_1
 62
     2
  6
CONTINUOUS
 10
-0.976039
 20
4.595945
  0
VERTEX
  8
PLAN_1
 62
     2
  6
CONTINUOUS
 10
-0.978339
 20
4.595370
  0
VERTEX
  8
PLAN_1
 62
     2
  6
CONTINUOUS
 10
-0.980642
 20
4.595370
  0
VERTEX
  8
PLAN_1
 62
     2
  6
CONTINUOUS
 10
-0.982366
 20
4.594795
  0
VERTEX
  8
PLAN_1
 62
     2
  6
CONTINUOUS
 10
-0.984091
 20
4.593646
  0
VERTEX
  8
PLAN_1
 62
     2
  6
CONTINUOUS
 10
-0.986394
 20
4.591343
  0
VERTEX
  8
PLAN_1
 62
     2
  6
CONTINUOUS
 10
-0.988118
 20
4.588469
  0
VERTEX
  8
PLAN_1
 62
     2
  6
CONTINUOUS
 10
-0.989272
 20
4.585591
  0
VERTEX
  8
PLAN_1
 62
     2
  6
CONTINUOUS
 10
-0.989846
 20
4.582713
  0
VERTEX
  8
PLAN_1
 62
     2
  6
CONTINUOUS
 10
-0.990421
 20
4.579839
  0
VERTEX
  8
PLAN_1
 62
     2
  6
CONTINUOUS
 10
-0.990421
 20
4.577535
  0
VERTEX
  8
PLAN_1
 62
     2
  6
CONTINUOUS
 10
-0.999626
 20
4.577535
  0
SEQEND
  8
0
  0
POLYLINE
  8
PLAN_1
 62
     2
  6
CONTINUOUS
 66
     1
 40
0.003000
 41
0.003000
  0
VERTEX
  8
PLAN_1
 62
     2
  6
CONTINUOUS
 10
0.270035
 20
0.629909
  0
VERTEX
  8
PLAN_1
 62
     2
  6
CONTINUOUS
 10
0.270035
 20
0.620130
  0
VERTEX
  8
PLAN_1
 62
     2
  6
CONTINUOUS
 10
0.217685
 20
0.620130
  0
VERTEX
  8
PLAN_1
 62
     2
  6
CONTINUOUS
 10
0.217685
 20
0.603445
  0
VERTEX
  8
PLAN_1
 62
     2
  6
CONTINUOUS
 10
0.210780
 20
0.603445
  0
VERTEX
  8
PLAN_1
 62
     2
  6
CONTINUOUS
 10
0.210205
 20
0.607472
  0
VERTEX
  8
PLAN_1
 62
     2
  6
CONTINUOUS
 10
0.209630
 20
0.610925
  0
VERTEX
  8
PLAN_1
 62
     2
  6
CONTINUOUS
 10
0.209055
 20
0.613799
  0
VERTEX
  8
PLAN_1
 62
     2
  6
CONTINUOUS
 10
0.207906
 20
0.616102
  0
VERTEX
  8
PLAN_1
 62
     2
  6
CONTINUOUS
 10
0.206177
 20
0.618402
  0
VERTEX
  8
PLAN_1
 62
     2
  6
CONTINUOUS
 10
0.203878
 20
0.620130
  0
VERTEX
  8
PLAN_1
 62
     2
  6
CONTINUOUS
 10
0.201000
 20
0.621854
  0
VERTEX
  8
PLAN_1
 62
     2
  6
CONTINUOUS
 10
0.196976
 20
0.623004
  0
VERTEX
  8
PLAN_1
 62
     2
  6
CONTINUOUS
 10
0.196976
 20
0.629909
  0
VERTEX
  8
PLAN_1
 62
     2
  6
CONTINUOUS
 10
0.270035
 20
0.629909
  0
SEQEND
  8
0
  0
POLYLINE
  8
PLAN_1
 62
     2
  6
CONTINUOUS
 66
     1
 40
0.003000
 41
0.003000
  0
VERTEX
  8
PLAN_1
 62
     2
  6
CONTINUOUS
 10
0.228039
 20
0.673630
  0
VERTEX
  8
PLAN_1
 62
     2
  6
CONTINUOUS
 10
0.228039
 20
0.674205
  0
VERTEX
  8
PLAN_1
 62
     2
  6
CONTINUOUS
 10
0.228039
 20
0.674783
  0
VERTEX
  8
PLAN_1
 62
     2
  6
CONTINUOUS
 10
0.228614
 20
0.675933
  0
VERTEX
  8
PLAN_1
 62
     2
  6
CONTINUOUS
 10
0.228614
 20
0.676508
  0
VERTEX
  8
PLAN_1
 62
     2
  6
CONTINUOUS
 10
0.228614
 20
0.677083
  0
VERTEX
  8
PLAN_1
 62
     2
  6
CONTINUOUS
 10
0.228614
 20
0.677657
  0
VERTEX
  8
PLAN_1
 62
     2
  6
CONTINUOUS
 10
0.228614
 20
0.678232
  0
VERTEX
  8
PLAN_1
 62
     2
  6
CONTINUOUS
 10
0.228614
 20
0.678807
  0
VERTEX
  8
PLAN_1
 62
     2
  6
CONTINUOUS
 10
0.228039
 20
0.681110
  0
VERTEX
  8
PLAN_1
 62
     2
  6
CONTINUOUS
 10
0.228039
 20
0.683988
  0
VERTEX
  8
PLAN_1
 62
     2
  6
CONTINUOUS
 10
0.226890
 20
0.686287
  0
VERTEX
  8
PLAN_1
 62
     2
  6
CONTINUOUS
 10
0.225740
 20
0.688012
  0
VERTEX
  8
PLAN_1
 62
     2
  6
CONTINUOUS
 10
0.224012
 20
0.690315
  0
VERTEX
  8
PLAN_1
 62
     2
  6
CONTINUOUS
 10
0.222287
 20
0.691465
  0
VERTEX
  8
PLAN_1
 62
     2
  6
CONTINUOUS
 10
0.219409
 20
0.692039
  0
VERTEX
  8
PLAN_1
 62
     2
  6
CONTINUOUS
 10
0.216535
 20
0.692614
  0
VERTEX
  8
PLAN_1
 62
     2
  6
CONTINUOUS
 10
0.214807
 20
0.692614
  0
VERTEX
  8
PLAN_1
 62
     2
  6
CONTINUOUS
 10
0.213083
 20
0.692039
  0
VERTEX
  8
PLAN_1
 62
     2
  6
CONTINUOUS
 10
0.210780
 20
0.691465
  0
VERTEX
  8
PLAN_1
 62
     2
  6
CONTINUOUS
 10
0.209055
 20
0.689740
  0
VERTEX
  8
PLAN_1
 62
     2
  6
CONTINUOUS
 10
0.207331
 20
0.688012
  0
VERTEX
  8
PLAN_1
 62
     2
  6
CONTINUOUS
 10
0.206177
 20
0.685713
  0
VERTEX
  8
PLAN_1
 62
     2
  6
CONTINUOUS
 10
0.205028
 20
0.682835
  0
VERTEX
  8
PLAN_1
 62
     2
  6
CONTINUOUS
 10
0.205028
 20
0.678807
  0
VERTEX
  8
PLAN_1
 62
     2
  6
CONTINUOUS
 10
0.205602
 20
0.674783
  0
VERTEX
  8
PLAN_1
 62
     2
  6
CONTINUOUS
 10
0.206756
 20
0.671331
  0
VERTEX
  8
PLAN_1
 62
     2
  6
CONTINUOUS
 10
0.208480
 20
0.669028
  0
VERTEX
  8
PLAN_1
 62
     2
  6
CONTINUOUS
 10
0.210780
 20
0.667303
  0
VERTEX
  8
PLAN_1
 62
     2
  6
CONTINUOUS
 10
0.213657
 20
0.666154
  0
VERTEX
  8
PLAN_1
 62
     2
  6
CONTINUOUS
 10
0.215961
 20
0.665579
  0
VERTEX
  8
PLAN_1
 62
     2
  6
CONTINUOUS
 10
0.218260
 20
0.665000
  0
VERTEX
  8
PLAN_1
 62
     2
  6
CONTINUOUS
 10
0.220563
 20
0.665000
  0
VERTEX
  8
PLAN_1
 62
     2
  6
CONTINUOUS
 10
0.220563
 20
0.655795
  0
VERTEX
  8
PLAN_1
 62
     2
  6
CONTINUOUS
 10
0.216535
 20
0.656374
  0
VERTEX
  8
PLAN_1
 62
     2
  6
CONTINUOUS
 10
0.212508
 20
0.656949
  0
VERTEX
  8
PLAN_1
 62
     2
  6
CONTINUOUS
 10
0.208480
 20
0.658098
  0
VERTEX
  8
PLAN_1
 62
     2
  6
CONTINUOUS
 10
0.204453
 20
0.660398
  0
VERTEX
  8
PLAN_1
 62
     2
  6
CONTINUOUS
 10
0.202728
 20
0.662126
  0
VERTEX
  8
PLAN_1
 62
     2
  6
CONTINUOUS
 10
0.201575
 20
0.663276
  0
VERTEX
  8
PLAN_1
 62
     2
  6
CONTINUOUS
 10
0.199850
 20
0.665579
  0
VERTEX
  8
PLAN_1
 62
     2
  6
CONTINUOUS
 10
0.198701
 20
0.667878
  0
VERTEX
  8
PLAN_1
 62
     2
  6
CONTINUOUS
 10
0.198126
 20
0.670181
  0
VERTEX
  8
PLAN_1
 62
     2
  6
CONTINUOUS
 10
0.197551
 20
0.673055
  0
VERTEX
  8
PLAN_1
 62
     2
  6
CONTINUOUS
 10
0.196976
 20
0.675933
  0
VERTEX
  8
PLAN_1
 62
     2
  6
CONTINUOUS
 10
0.196976
 20
0.679386
  0
VERTEX
  8
PLAN_1
 62
     2
  6
CONTINUOUS
 10
0.196976
 20
0.684563
  0
VERTEX
  8
PLAN_1
 62
     2
  6
CONTINUOUS
 10
0.198126
 20
0.689165
  0
VERTEX
  8
PLAN_1
 62
     2
  6
CONTINUOUS
 10
0.199850
 20
0.692614
  0
VERTEX
  8
PLAN_1
 62
     2
  6
CONTINUOUS
 10
0.202154
 20
0.696067
  0
VERTEX
  8
PLAN_1
 62
     2
  6
CONTINUOUS
 10
0.205028
 20
0.698370
  0
VERTEX
  8
PLAN_1
 62
     2
  6
CONTINUOUS
 10
0.208480
 20
0.700669
  0
VERTEX
  8
PLAN_1
 62
     2
  6
CONTINUOUS
 10
0.211933
 20
0.701819
  0
VERTEX
  8
PLAN_1
 62
     2
  6
CONTINUOUS
 10
0.215961
 20
0.701819
  0
VERTEX
  8
PLAN_1
 62
     2
  6
CONTINUOUS
 10
0.219409
 20
0.701819
  0
VERTEX
  8
PLAN_1
 62
     2
  6
CONTINUOUS
 10
0.222287
 20
0.701244
  0
VERTEX
  8
PLAN_1
 62
     2
  6
CONTINUOUS
 10
0.224587
 20
0.700094
  0
VERTEX
  8
PLAN_1
 62
     2
  6
CONTINUOUS
 10
0.226315
 20
0.698945
  0
VERTEX
  8
PLAN_1
 62
     2
  6
CONTINUOUS
 10
0.228039
 20
0.697217
  0
VERTEX
  8
PLAN_1
 62
     2
  6
CONTINUOUS
 10
0.229189
 20
0.696067
  0
VERTEX
  8
PLAN_1
 62
     2
  6
CONTINUOUS
 10
0.230343
 20
0.694343
  0
VERTEX
  8
PLAN_1
 62
     2
  6
CONTINUOUS
 10
0.230917
 20
0.692614
  0
VERTEX
  8
PLAN_1
 62
     2
  6
CONTINUOUS
 10
0.231492
 20
0.692614
  0
VERTEX
  8
PLAN_1
 62
     2
  6
CONTINUOUS
 10
0.232067
 20
0.695492
  0
VERTEX
  8
PLAN_1
 62
     2
  6
CONTINUOUS
 10
0.233217
 20
0.697791
  0
VERTEX
  8
PLAN_1
 62
     2
  6
CONTINUOUS
 10
0.234945
 20
0.699520
  0
VERTEX
  8
PLAN_1
 62
     2
  6
CONTINUOUS
 10
0.237244
 20
0.701244
  0
VERTEX
  8
PLAN_1
 62
     2
  6
CONTINUOUS
 10
0.238969
 20
0.702972
  0
VERTEX
  8
PLAN_1
 62
     2
  6
CONTINUOUS
 10
0.241846
 20
0.704122
  0
VERTEX
  8
PLAN_1
 62
     2
  6
CONTINUOUS
 10
0.244724
 20
0.704697
  0
VERTEX
  8
PLAN_1
 62
     2
  6
CONTINUOUS
 10
0.248173
 20
0.704697
  0
VERTEX
  8
PLAN_1
 62
     2
  6
CONTINUOUS
 10
0.252776
 20
0.704697
  0
VERTEX
  8
PLAN_1
 62
     2
  6
CONTINUOUS
 10
0.256803
 20
0.703547
  0
VERTEX
  8
PLAN_1
 62
     2
  6
CONTINUOUS
 10
0.260831
 20
0.701244
  0
VERTEX
  8
PLAN_1
 62
     2
  6
CONTINUOUS
 10
0.264283
 20
0.698945
  0
VERTEX
  8
PLAN_1
 62
     2
  6
CONTINUOUS
 10
0.267736
 20
0.694917
  0
VERTEX
  8
PLAN_1
 62
     2
  6
CONTINUOUS
 10
0.270035
 20
0.690315
  0
VERTEX
  8
PLAN_1
 62
     2
  6
CONTINUOUS
 10
0.271185
 20
0.685138
  0
VERTEX
  8
PLAN_1
 62
     2
  6
CONTINUOUS
 10
0.271764
 20
0.678807
  0
VERTEX
  8
PLAN_1
 62
     2
  6
CONTINUOUS
 10
0.271764
 20
0.676508
  0
VERTEX
  8
PLAN_1
 62
     2
  6
CONTINUOUS
 10
0.271764
 20
0.674783
  0
VERTEX
  8
PLAN_1
 62
     2
  6
CONTINUOUS
 10
0.271185
 20
0.673055
  0
VERTEX
  8
PLAN_1
 62
     2
  6
CONTINUOUS
 10
0.271185
 20
0.671331
  0
VERTEX
  8
PLAN_1
 62
     2
  6
CONTINUOUS
 10
0.270610
 20
0.669602
  0
VERTEX
  8
PLAN_1
 62
     2
  6
CONTINUOUS
 10
0.270035
 20
0.667878
  0
VERTEX
  8
PLAN_1
 62
     2
  6
CONTINUOUS
 10
0.269461
 20
0.666154
  0
VERTEX
  8
PLAN_1
 62
     2
  6
CONTINUOUS
 10
0.268886
 20
0.665000
  0
VERTEX
  8
PLAN_1
 62
     2
  6
CONTINUOUS
 10
0.266583
 20
0.662126
  0
VERTEX
  8
PLAN_1
 62
     2
  6
CONTINUOUS
 10
0.264858
 20
0.659823
  0
VERTEX
  8
PLAN_1
 62
     2
  6
CONTINUOUS
 10
0.261980
 20
0.658098
  0
VERTEX
  8
PLAN_1
 62
     2
  6
CONTINUOUS
 10
0.259681
 20
0.656949
  0
VERTEX
  8
PLAN_1
 62
     2
  6
CONTINUOUS
 10
0.256803
 20
0.655795
  0
VERTEX
  8
PLAN_1
 62
     2
  6
CONTINUOUS
 10
0.253929
 20
0.654646
  0
VERTEX
  8
PLAN_1
 62
     2
  6
CONTINUOUS
 10
0.250476
 20
0.654646
  0
VERTEX
  8
PLAN_1
 62
     2
  6
CONTINUOUS
 10
0.247598
 20
0.654071
  0
VERTEX
  8
PLAN_1
 62
     2
  6
CONTINUOUS
 10
0.247598
 20
0.663850
  0
VERTEX
  8
PLAN_1
 62
     2
  6
CONTINUOUS
 10
0.249902
 20
0.663850
  0
VERTEX
  8
PLAN_1
 62
     2
  6
CONTINUOUS
 10
0.252776
 20
0.664425
  0
VERTEX
  8
PLAN_1
 62
     2
  6
CONTINUOUS
 10
0.255654
 20
0.665000
  0
VERTEX
  8
PLAN_1
 62
     2
  6
CONTINUOUS
 10
0.257957
 20
0.666154
  0
VERTEX
  8
PLAN_1
 62
     2
  6
CONTINUOUS
 10
0.260256
 20
0.668453
  0
VERTEX
  8
PLAN_1
 62
     2
  6
CONTINUOUS
 10
0.261980
 20
0.670756
  0
VERTEX
  8
PLAN_1
 62
     2
  6
CONTINUOUS
 10
0.263134
 20
0.674783
  0
VERTEX
  8
PLAN_1
 62
     2
  6
CONTINUOUS
 10
0.263709
 20
0.679386
  0
VERTEX
  8
PLAN_1
 62
     2
  6
CONTINUOUS
 10
0.263134
 20
0.682260
  0
VERTEX
  8
PLAN_1
 62
     2
  6
CONTINUOUS
 10
0.262559
 20
0.685713
  0
VERTEX
  8
PLAN_1
 62
     2
  6
CONTINUOUS
 10
0.261406
 20
0.688591
  0
VERTEX
  8
PLAN_1
 62
     2
  6
CONTINUOUS
 10
0.259681
 20
0.690890
  0
VERTEX
  8
PLAN_1
 62
     2
  6
CONTINUOUS
 10
0.257378
 20
0.692614
  0
VERTEX
  8
PLAN_1
 62
     2
  6
CONTINUOUS
 10
0.255079
 20
0.693768
  0
VERTEX
  8
PLAN_1
 62
     2
  6
CONTINUOUS
 10
0.252201
 20
0.694917
  0
VERTEX
  8
PLAN_1
 62
     2
  6
CONTINUOUS
 10
0.249327
 20
0.694917
  0
VERTEX
  8
PLAN_1
 62
     2
  6
CONTINUOUS
 10
0.245299
 20
0.694343
  0
VERTEX
  8
PLAN_1
 62
     2
  6
CONTINUOUS
 10
0.242421
 20
0.693189
  0
VERTEX
  8
PLAN_1
 62
     2
  6
CONTINUOUS
 10
0.239547
 20
0.691465
  0
VERTEX
  8
PLAN_1
 62
     2
  6
CONTINUOUS
 10
0.238394
 20
0.689165
  0
VERTEX
  8
PLAN_1
 62
     2
  6
CONTINUOUS
 10
0.237244
 20
0.686287
  0
VERTEX
  8
PLAN_1
 62
     2
  6
CONTINUOUS
 10
0.236669
 20
0.683409
  0
VERTEX
  8
PLAN_1
 62
     2
  6
CONTINUOUS
 10
0.236094
 20
0.680535
  0
VERTEX
  8
PLAN_1
 62
     2
  6
CONTINUOUS
 10
0.236094
 20
0.678232
  0
VERTEX
  8
PLAN_1
 62
     2
  6
CONTINUOUS
 10
0.236094
 20
0.677657
  0
VERTEX
  8
PLAN_1
 62
     2
  6
CONTINUOUS
 10
0.236094
 20
0.677083
  0
VERTEX
  8
PLAN_1
 62
     2
  6
CONTINUOUS
 10
0.236094
 20
0.676508
  0
VERTEX
  8
PLAN_1
 62
     2
  6
CONTINUOUS
 10
0.236094
 20
0.675933
  0
VERTEX
  8
PLAN_1
 62
     2
  6
CONTINUOUS
 10
0.236094
 20
0.675358
  0
VERTEX
  8
PLAN_1
 62
     2
  6
CONTINUOUS
 10
0.236094
 20
0.674783
  0
VERTEX
  8
PLAN_1
 62
     2
  6
CONTINUOUS
 10
0.236094
 20
0.674205
  0
VERTEX
  8
PLAN_1
 62
     2
  6
CONTINUOUS
 10
0.236094
 20
0.673630
  0
VERTEX
  8
PLAN_1
 62
     2
  6
CONTINUOUS
 10
0.228039
 20
0.673630
  0
SEQEND
  8
0
  0
POLYLINE
  8
PLAN_1
 62
     2
  6
CONTINUOUS
 66
     1
 40
0.003000
 41
0.003000
  0
VERTEX
  8
PLAN_1
 62
     2
  6
CONTINUOUS
 10
0.221713
 20
0.712752
  0
VERTEX
  8
PLAN_1
 62
     2
  6
CONTINUOUS
 10
0.217110
 20
0.713327
  0
VERTEX
  8
PLAN_1
 62
     2
  6
CONTINUOUS
 10
0.212508
 20
0.714476
  0
VERTEX
  8
PLAN_1
 62
     2
  6
CONTINUOUS
 10
0.207906
 20
0.716201
  0
VERTEX
  8
PLAN_1
 62
     2
  6
CONTINUOUS
 10
0.204453
 20
0.719079
  0
VERTEX
  8
PLAN_1
 62
     2
  6
CONTINUOUS
 10
0.201000
 20
0.721957
  0
VERTEX
  8
PLAN_1
 62
     2
  6
CONTINUOUS
 10
0.198701
 20
0.725984
  0
VERTEX
  8
PLAN_1
 62
     2
  6
CONTINUOUS
 10
0.196976
 20
0.731161
  0
VERTEX
  8
PLAN_1
 62
     2
  6
CONTINUOUS
 10
0.196976
 20
0.736339
  0
VERTEX
  8
PLAN_1
 62
     2
  6
CONTINUOUS
 10
0.196976
 20
0.740366
  0
VERTEX
  8
PLAN_1
 62
     2
  6
CONTINUOUS
 10
0.197551
 20
0.744390
  0
VERTEX
  8
PLAN_1
 62
     2
  6
CONTINUOUS
 10
0.198701
 20
0.747268
  0
VERTEX
  8
PLAN_1
 62
     2
  6
CONTINUOUS
 10
0.200425
 20
0.750146
  0
VERTEX
  8
PLAN_1
 62
     2
  6
CONTINUOUS
 10
0.202154
 20
0.752445
  0
VERTEX
  8
PLAN_1
 62
     2
  6
CONTINUOUS
 10
0.204453
 20
0.754748
  0
VERTEX
  8
PLAN_1
 62
     2
  6
CONTINUOUS
 10
0.206756
 20
0.756472
  0
VERTEX
  8
PLAN_1
 62
     2
  6
CONTINUOUS
 10
0.209055
 20
0.757622
  0
VERTEX
  8
PLAN_1
 62
     2
  6
CONTINUOUS
 10
0.214807
 20
0.759925
  0
VERTEX
  8
PLAN_1
 62
     2
  6
CONTINUOUS
 10
0.220563
 20
0.761075
  0
VERTEX
  8
PLAN_1
 62
     2
  6
CONTINUOUS
 10
0.225740
 20
0.761650
  0
VERTEX
  8
PLAN_1
 62
     2
  6
CONTINUOUS
 10
0.230343
 20
0.761650
  0
VERTEX
  8
PLAN_1
 62
     2
  6
CONTINUOUS
 10
0.234370
 20
0.761650
  0
VERTEX
  8
PLAN_1
 62
     2
  6
CONTINUOUS
 10
0.240122
 20
0.761075
  0
VERTEX
  8
PLAN_1
 62
     2
  6
CONTINUOUS
 10
0.247024
 20
0.759925
  0
VERTEX
  8
PLAN_1
 62
     2
  6
CONTINUOUS
 10
0.253929
 20
0.758197
  0
VERTEX
  8
PLAN_1
 62
     2
  6
CONTINUOUS
 10
0.257378
 20
0.756472
  0
VERTEX
  8
PLAN_1
 62
     2
  6
CONTINUOUS
 10
0.260831
 20
0.754748
  0
VERTEX
  8
PLAN_1
 62
     2
  6
CONTINUOUS
 10
0.263709
 20
0.752445
  0
VERTEX
  8
PLAN_1
 62
     2
  6
CONTINUOUS
 10
0.266583
 20
0.750146
  0
VERTEX
  8
PLAN_1
 62
     2
  6
CONTINUOUS
 10
0.268886
 20
0.747268
  0
VERTEX
  8
PLAN_1
 62
     2
  6
CONTINUOUS
 10
0.270610
 20
0.743815
  0
VERTEX
  8
PLAN_1
 62
     2
  6
CONTINUOUS
 10
0.271185
 20
0.739787
  0
VERTEX
  8
PLAN_1
 62
     2
  6
CONTINUOUS
 10
0.271764
 20
0.735185
  0
VERTEX
  8
PLAN_1
 62
     2
  6
CONTINUOUS
 10
0.271185
 20
0.729433
  0
VERTEX
  8
PLAN_1
 62
     2
  6
CONTINUOUS
 10
0.270035
 20
0.724831
  0
VERTEX
  8
PLAN_1
 62
     2
  6
CONTINUOUS
 10
0.267736
 20
0.720803
  0
VERTEX
  8
PLAN_1
 62
     2
  6
CONTINUOUS
 10
0.264858
 20
0.717929
  0
VERTEX
  8
PLAN_1
 62
     2
  6
CONTINUOUS
 10
0.261406
 20
0.716201
  0
VERTEX
  8
PLAN_1
 62
     2
  6
CONTINUOUS
 10
0.258531
 20
0.714476
  0
VERTEX
  8
PLAN_1
 62
     2
  6
CONTINUOUS
 10
0.255079
 20
0.713902
  0
VERTEX
  8
PLAN_1
 62
     2
  6
CONTINUOUS
 10
0.252201
 20
0.713902
  0
VERTEX
  8
PLAN_1
 62
     2
  6
CONTINUOUS
 10
0.252201
 20
0.723106
  0
VERTEX
  8
PLAN_1
 62
     2
  6
CONTINUOUS
 10
0.255079
 20
0.723106
  0
VERTEX
  8
PLAN_1
 62
     2
  6
CONTINUOUS
 10
0.257378
 20
0.723681
  0
VERTEX
  8
PLAN_1
 62
     2
  6
CONTINUOUS
 10
0.259106
 20
0.724831
  0
VERTEX
  8
PLAN_1
 62
     2
  6
CONTINUOUS
 10
0.260831
 20
0.726559
  0
VERTEX
  8
PLAN_1
 62
     2
  6
CONTINUOUS
 10
0.262559
 20
0.728283
  0
VERTEX
  8
PLAN_1
 62
     2
  6
CONTINUOUS
 10
0.263134
 20
0.730008
  0
VERTEX
  8
PLAN_1
 62
     2
  6
CONTINUOUS
 10
0.264283
 20
0.732311
  0
VERTEX
  8
PLAN_1
 62
     2
  6
CONTINUOUS
 10
0.264283
 20
0.735185
  0
VERTEX
  8
PLAN_1
 62
     2
  6
CONTINUOUS
 10
0.263709
 20
0.738638
  0
VERTEX
  8
PLAN_1
 62
     2
  6
CONTINUOUS
 10
0.262559
 20
0.742091
  0
VERTEX
  8
PLAN_1
 62
     2
  6
CONTINUOUS
 10
0.260831
 20
0.744390
  0
VERTEX
  8
PLAN_1
 62
     2
  6
CONTINUOUS
 10
0.257378
 20
0.746693
  0
VERTEX
  8
PLAN_1
 62
     2
  6
CONTINUOUS
 10
0.253929
 20
0.748992
  0
VERTEX
  8
PLAN_1
 62
     2
  6
CONTINUOUS
 10
0.249327
 20
0.750720
  0
VERTEX
  8
PLAN_1
 62
     2
  6
CONTINUOUS
 10
0.243571
 20
0.751870
  0
VERTEX
  8
PLAN_1
 62
     2
  6
CONTINUOUS
 10
0.236669
 20
0.753020
  0
VERTEX
  8
PLAN_1
 62
     2
  6
CONTINUOUS
 10
0.236669
 20
0.752445
  0
VERTEX
  8
PLAN_1
 62
     2
  6
CONTINUOUS
 10
0.238394
 20
0.751295
  0
VERTEX
  8
PLAN_1
 62
     2
  6
CONTINUOUS
 10
0.240122
 20
0.749571
  0
VERTEX
  8
PLAN_1
 62
     2
  6
CONTINUOUS
 10
0.241846
 20
0.747843
  0
VERTEX
  8
PLAN_1
 62
     2
  6
CONTINUOUS
 10
0.242996
 20
0.745543
  0
VERTEX
  8
PLAN_1
 62
     2
  6
CONTINUOUS
 10
0.244150
 20
0.743240
  0
VERTEX
  8
PLAN_1
 62
     2
  6
CONTINUOUS
 10
0.244724
 20
0.740941
  0
VERTEX
  8
PLAN_1
 62
     2
  6
CONTINUOUS
 10
0.245299
 20
0.738638
  0
VERTEX
  8
PLAN_1
 62
     2
  6
CONTINUOUS
 10
0.245299
 20
0.735764
  0
VERTEX
  8
PLAN_1
 62
     2
  6
CONTINUOUS
 10
0.244724
 20
0.731161
  0
VERTEX
  8
PLAN_1
 62
     2
  6
CONTINUOUS
 10
0.243571
 20
0.726559
  0
VERTEX
  8
PLAN_1
 62
     2
  6
CONTINUOUS
 10
0.241846
 20
0.722531
  0
VERTEX
  8
PLAN_1
 62
     2
  6
CONTINUOUS
 10
0.238969
 20
0.719079
  0
VERTEX
  8
PLAN_1
 62
     2
  6
CONTINUOUS
 10
0.235520
 20
0.716780
  0
VERTEX
  8
PLAN_1
 62
     2
  6
CONTINUOUS
 10
0.231492
 20
0.714476
  0
VERTEX
  8
PLAN_1
 62
     2
  6
CONTINUOUS
 10
0.226890
 20
0.713327
  0
VERTEX
  8
PLAN_1
 62
     2
  6
CONTINUOUS
 10
0.221713
 20
0.712752
  0
SEQEND
  8
0
  0
POLYLINE
  8
PLAN_1
 62
     2
  6
CONTINUOUS
 66
     1
 40
0.003000
 41
0.003000
  0
VERTEX
  8
PLAN_1
 62
     2
  6
CONTINUOUS
 10
0.220563
 20
0.751295
  0
VERTEX
  8
PLAN_1
 62
     2
  6
CONTINUOUS
 10
0.217685
 20
0.751295
  0
VERTEX
  8
PLAN_1
 62
     2
  6
CONTINUOUS
 10
0.214807
 20
0.750146
  0
VERTEX
  8
PLAN_1
 62
     2
  6
CONTINUOUS
 10
0.211933
 20
0.749571
  0
VERTEX
  8
PLAN_1
 62
     2
  6
CONTINUOUS
 10
0.209630
 20
0.747843
  0
VERTEX
  8
PLAN_1
 62
     2
  6
CONTINUOUS
 10
0.207906
 20
0.745543
  0
VERTEX
  8
PLAN_1
 62
     2
  6
CONTINUOUS
 10
0.206177
 20
0.743240
  0
VERTEX
  8
PLAN_1
 62
     2
  6
CONTINUOUS
 10
0.205028
 20
0.740366
  0
VERTEX
  8
PLAN_1
 62
     2
  6
CONTINUOUS
 10
0.205028
 20
0.736339
  0
VERTEX
  8
PLAN_1
 62
     2
  6
CONTINUOUS
 10
0.205028
 20
0.733461
  0
VERTEX
  8
PLAN_1
 62
     2
  6
CONTINUOUS
 10
0.206177
 20
0.730587
  0
VERTEX
  8
PLAN_1
 62
     2
  6
CONTINUOUS
 10
0.207331
 20
0.728283
  0
VERTEX
  8
PLAN_1
 62
     2
  6
CONTINUOUS
 10
0.209630
 20
0.725984
  0
VERTEX
  8
PLAN_1
 62
     2
  6
CONTINUOUS
 10
0.211933
 20
0.724256
  0
VERTEX
  8
PLAN_1
 62
     2
  6
CONTINUOUS
 10
0.214807
 20
0.723106
  0
VERTEX
  8
PLAN_1
 62
     2
  6
CONTINUOUS
 10
0.217685
 20
0.722531
  0
VERTEX
  8
PLAN_1
 62
     2
  6
CONTINUOUS
 10
0.221138
 20
0.722531
  0
VERTEX
  8
PLAN_1
 62
     2
  6
CONTINUOUS
 10
0.226315
 20
0.722531
  0
VERTEX
  8
PLAN_1
 62
     2
  6
CONTINUOUS
 10
0.229768
 20
0.723681
  0
VERTEX
  8
PLAN_1
 62
     2
  6
CONTINUOUS
 10
0.232642
 20
0.725406
  0
VERTEX
  8
PLAN_1
 62
     2
  6
CONTINUOUS
 10
0.234370
 20
0.727709
  0
VERTEX
  8
PLAN_1
 62
     2
  6
CONTINUOUS
 10
0.236094
 20
0.730008
  0
VERTEX
  8
PLAN_1
 62
     2
  6
CONTINUOUS
 10
0.236669
 20
0.732311
  0
VERTEX
  8
PLAN_1
 62
     2
  6
CONTINUOUS
 10
0.237244
 20
0.734610
  0
VERTEX
  8
PLAN_1
 62
     2
  6
CONTINUOUS
 10
0.237244
 20
0.736913
  0
VERTEX
  8
PLAN_1
 62
     2
  6
CONTINUOUS
 10
0.237244
 20
0.739213
  0
VERTEX
  8
PLAN_1
 62
     2
  6
CONTINUOUS
 10
0.236669
 20
0.741516
  0
VERTEX
  8
PLAN_1
 62
     2
  6
CONTINUOUS
 10
0.235520
 20
0.743815
  0
VERTEX
  8
PLAN_1
 62
     2
  6
CONTINUOUS
 10
0.234370
 20
0.746118
  0
VERTEX
  8
PLAN_1
 62
     2
  6
CONTINUOUS
 10
0.232067
 20
0.747843
  0
VERTEX
  8
PLAN_1
 62
     2
  6
CONTINUOUS
 10
0.229189
 20
0.749571
  0
VERTEX
  8
PLAN_1
 62
     2
  6
CONTINUOUS
 10
0.225165
 20
0.750720
  0
VERTEX
  8
PLAN_1
 62
     2
  6
CONTINUOUS
 10
0.220563
 20
0.751295
  0
SEQEND
  8
0
  0
SOLID
  8
PLAN_1
 62
     2
 10
0.270035
 20
0.789264
 11
0.270035
 21
0.778335
 12
0.258531
 22
0.789264
 13
0.258531
 23
0.778335
  0
POLYLINE
  8
PLAN_1
 62
     2
  6
CONTINUOUS
 66
     1
 40
0.003000
 41
0.003000
  0
VERTEX
  8
PLAN_1
 62
     2
  6
CONTINUOUS
 10
0.270035
 20
0.789264
  0
VERTEX
  8
PLAN_1
 62
     2
  6
CONTINUOUS
 10
0.270035
 20
0.778335
  0
VERTEX
  8
PLAN_1
 62
     2
  6
CONTINUOUS
 10
0.258531
 20
0.778335
  0
VERTEX
  8
PLAN_1
 62
     2
  6
CONTINUOUS
 10
0.258531
 20
0.789264
  0
VERTEX
  8
PLAN_1
 62
     2
  6
CONTINUOUS
 10
0.270035
 20
0.789264
  0
SEQEND
  8
0
  0
SOLID
  8
PLAN_1
 62
     2
 10
0.270035
 20
0.823780
 11
0.270035
 21
0.812850
 12
0.258531
 22
0.823780
 13
0.258531
 23
0.812850
  0
POLYLINE
  8
PLAN_1
 62
     2
  6
CONTINUOUS
 66
     1
 40
0.003000
 41
0.003000
  0
VERTEX
  8
PLAN_1
 62
     2
  6
CONTINUOUS
 10
0.270035
 20
0.823780
  0
VERTEX
  8
PLAN_1
 62
     2
  6
CONTINUOUS
 10
0.270035
 20
0.812850
  0
VERTEX
  8
PLAN_1
 62
     2
  6
CONTINUOUS
 10
0.258531
 20
0.812850
  0
VERTEX
  8
PLAN_1
 62
     2
  6
CONTINUOUS
 10
0.258531
 20
0.823780
  0
VERTEX
  8
PLAN_1
 62
     2
  6
CONTINUOUS
 10
0.270035
 20
0.823780
  0
SEQEND
  8
0
  0
SOLID
  8
PLAN_1
 62
     2
 10
0.270035
 20
0.858299
 11
0.270035
 21
0.847370
 12
0.258531
 22
0.858299
 13
0.258531
 23
0.847370
  0
POLYLINE
  8
PLAN_1
 62
     2
  6
CONTINUOUS
 66
     1
 40
0.003000
 41
0.003000
  0
VERTEX
  8
PLAN_1
 62
     2
  6
CONTINUOUS
 10
0.270035
 20
0.858299
  0
VERTEX
  8
PLAN_1
 62
     2
  6
CONTINUOUS
 10
0.270035
 20
0.847370
  0
VERTEX
  8
PLAN_1
 62
     2
  6
CONTINUOUS
 10
0.258531
 20
0.847370
  0
VERTEX
  8
PLAN_1
 62
     2
  6
CONTINUOUS
 10
0.258531
 20
0.858299
  0
VERTEX
  8
PLAN_1
 62
     2
  6
CONTINUOUS
 10
0.270035
 20
0.858299
  0
SEQEND
  8
0
  0
POLYLINE
  8
PLAN_1
 62
     2
  6
CONTINUOUS
 66
     1
 40
0.003000
 41
0.003000
  0
VERTEX
  8
PLAN_1
 62
     2
  6
CONTINUOUS
 10
0.270035
 20
0.907772
  0
VERTEX
  8
PLAN_1
 62
     2
  6
CONTINUOUS
 10
0.270035
 20
0.897992
  0
VERTEX
  8
PLAN_1
 62
     2
  6
CONTINUOUS
 10
0.217685
 20
0.897992
  0
VERTEX
  8
PLAN_1
 62
     2
  6
CONTINUOUS
 10
0.217685
 20
0.880736
  0
VERTEX
  8
PLAN_1
 62
     2
  6
CONTINUOUS
 10
0.210780
 20
0.880736
  0
VERTEX
  8
PLAN_1
 62
     2
  6
CONTINUOUS
 10
0.210205
 20
0.885339
  0
VERTEX
  8
PLAN_1
 62
     2
  6
CONTINUOUS
 10
0.209630
 20
0.888787
  0
VERTEX
  8
PLAN_1
 62
     2
  6
CONTINUOUS
 10
0.209055
 20
0.891665
  0
VERTEX
  8
PLAN_1
 62
     2
  6
CONTINUOUS
 10
0.207906
 20
0.893965
  0
VERTEX
  8
PLAN_1
 62
     2
  6
CONTINUOUS
 10
0.206177
 20
0.896268
  0
VERTEX
  8
PLAN_1
 62
     2
  6
CONTINUOUS
 10
0.203878
 20
0.897992
  0
VERTEX
  8
PLAN_1
 62
     2
  6
CONTINUOUS
 10
0.201000
 20
0.899720
  0
VERTEX
  8
PLAN_1
 62
     2
  6
CONTINUOUS
 10
0.196976
 20
0.900870
  0
VERTEX
  8
PLAN_1
 62
     2
  6
CONTINUOUS
 10
0.196976
 20
0.907772
  0
VERTEX
  8
PLAN_1
 62
     2
  6
CONTINUOUS
 10
0.270035
 20
0.907772
  0
SEQEND
  8
0
  0
POLYLINE
  8
PLAN_1
 62
     2
  6
CONTINUOUS
 66
     1
 40
0.003000
 41
0.003000
  0
VERTEX
  8
PLAN_1
 62
     2
  6
CONTINUOUS
 10
0.230917
 20
0.970480
  0
VERTEX
  8
PLAN_1
 62
     2
  6
CONTINUOUS
 10
0.232642
 20
0.973354
  0
VERTEX
  8
PLAN_1
 62
     2
  6
CONTINUOUS
 10
0.234945
 20
0.976232
  0
VERTEX
  8
PLAN_1
 62
     2
  6
CONTINUOUS
 10
0.236669
 20
0.978535
  0
VERTEX
  8
PLAN_1
 62
     2
  6
CONTINUOUS
 10
0.239547
 20
0.979685
  0
VERTEX
  8
PLAN_1
 62
     2
  6
CONTINUOUS
 10
0.241846
 20
0.980835
  0
VERTEX
  8
PLAN_1
 62
     2
  6
CONTINUOUS
 10
0.244150
 20
0.981409
  0
VERTEX
  8
PLAN_1
 62
     2
  6
CONTINUOUS
 10
0.246449
 20
0.981984
  0
VERTEX
  8
PLAN_1
 62
     2
  6
CONTINUOUS
 10
0.248752
 20
0.981984
  0
VERTEX
  8
PLAN_1
 62
     2
  6
CONTINUOUS
 10
0.253354
 20
0.981984
  0
VERTEX
  8
PLAN_1
 62
     2
  6
CONTINUOUS
 10
0.257378
 20
0.980835
  0
VERTEX
  8
PLAN_1
 62
     2
  6
CONTINUOUS
 10
0.261406
 20
0.979110
  0
VERTEX
  8
PLAN_1
 62
     2
  6
CONTINUOUS
 10
0.264858
 20
0.976232
  0
VERTEX
  8
PLAN_1
 62
     2
  6
CONTINUOUS
 10
0.267736
 20
0.972780
  0
VERTEX
  8
PLAN_1
 62
     2
  6
CONTINUOUS
 10
0.270035
 20
0.968756
  0
VERTEX
  8
PLAN_1
 62
     2
  6
CONTINUOUS
 10
0.271185
 20
0.963575
  0
VERTEX
  8
PLAN_1
 62
     2
  6
CONTINUOUS
 10
0.271764
 20
0.957248
  0
VERTEX
  8
PLAN_1
 62
     2
  6
CONTINUOUS
 10
0.271764
 20
0.955524
  0
VERTEX
  8
PLAN_1
 62
     2
  6
CONTINUOUS
 10
0.271764
 20
0.953795
  0
VERTEX
  8
PLAN_1
 62
     2
  6
CONTINUOUS
 10
0.271185
 20
0.951496
  0
VERTEX
  8
PLAN_1
 62
     2
  6
CONTINUOUS
 10
0.270610
 20
0.949193
  0
VERTEX
  8
PLAN_1
 62
     2
  6
CONTINUOUS
 10
0.270035
 20
0.946894
  0
VERTEX
  8
PLAN_1
 62
     2
  6
CONTINUOUS
 10
0.268886
 20
0.944591
  0
VERTEX
  8
PLAN_1
 62
     2
  6
CONTINUOUS
 10
0.267736
 20
0.942291
  0
VERTEX
  8
PLAN_1
 62
     2
  6
CONTINUOUS
 10
0.266008
 20
0.939988
  0
VERTEX
  8
PLAN_1
 62
     2
  6
CONTINUOUS
 10
0.263709
 20
0.937114
  0
VERTEX
  8
PLAN_1
 62
     2
  6
CONTINUOUS
 10
0.261406
 20
0.935386
  0
VERTEX
  8
PLAN_1
 62
     2
  6
CONTINUOUS
 10
0.259106
 20
0.934236
  0
VERTEX
  8
PLAN_1
 62
     2
  6
CONTINUOUS
 10
0.256803
 20
0.933087
  0
VERTEX
  8
PLAN_1
 62
     2
  6
CONTINUOUS
 10
0.254504
 20
0.932512
  0
VERTEX
  8
PLAN_1
 62
     2
  6
CONTINUOUS
 10
0.252201
 20
0.932512
  0
VERTEX
  8
PLAN_1
 62
     2
  6
CONTINUOUS
 10
0.250476
 20
0.932512
  0
VERTEX
  8
PLAN_1
 62
     2
  6
CONTINUOUS
 10
0.248752
 20
0.932512
  0
VERTEX
  8
PLAN_1
 62
     2
  6
CONTINUOUS
 10
0.245874
 20
0.932512
  0
VERTEX
  8
PLAN_1
 62
     2
  6
CONTINUOUS
 10
0.242996
 20
0.933087
  0
VERTEX
  8
PLAN_1
 62
     2
  6
CONTINUOUS
 10
0.240122
 20
0.934236
  0
VERTEX
  8
PLAN_1
 62
     2
  6
CONTINUOUS
 10
0.237819
 20
0.935386
  0
VERTEX
  8
PLAN_1
 62
     2
  6
CONTINUOUS
 10
0.235520
 20
0.937689
  0
VERTEX
  8
PLAN_1
 62
     2
  6
CONTINUOUS
 10
0.233791
 20
0.939413
  0
VERTEX
  8
PLAN_1
 62
     2
  6
CONTINUOUS
 10
0.232067
 20
0.941717
  0
VERTEX
  8
PLAN_1
 62
     2
  6
CONTINUOUS
 10
0.230917
 20
0.944591
  0
VERTEX
  8
PLAN_1
 62
     2
  6
CONTINUOUS
 10
0.229768
 20
0.942291
  0
VERTEX
  8
PLAN_1
 62
     2
  6
CONTINUOUS
 10
0.228614
 20
0.940563
  0
VERTEX
  8
PLAN_1
 62
     2
  6
CONTINUOUS
 10
0.227465
 20
0.938839
  0
VERTEX
  8
PLAN_1
 62
     2
  6
CONTINUOUS
 10
0.225740
 20
0.937689
  0
VERTEX
  8
PLAN_1
 62
     2
  6
CONTINUOUS
 10
0.223437
 20
0.936539
  0
VERTEX
  8
PLAN_1
 62
     2
  6
CONTINUOUS
 10
0.221713
 20
0.935386
  0
VERTEX
  8
PLAN_1
 62
     2
  6
CONTINUOUS
 10
0.219409
 20
0.934811
  0
VERTEX
  8
PLAN_1
 62
     2
  6
CONTINUOUS
 10
0.216535
 20
0.934811
  0
VERTEX
  8
PLAN_1
 62
     2
  6
CONTINUOUS
 10
0.213657
 20
0.934811
  0
VERTEX
  8
PLAN_1
 62
     2
  6
CONTINUOUS
 10
0.210205
 20
0.935961
  0
VERTEX
  8
PLAN_1
 62
     2
  6
CONTINUOUS
 10
0.207331
 20
0.937114
  0
VERTEX
  8
PLAN_1
 62
     2
  6
CONTINUOUS
 10
0.203878
 20
0.939413
  0
VERTEX
  8
PLAN_1
 62
     2
  6
CONTINUOUS
 10
0.201000
 20
0.942291
  0
VERTEX
  8
PLAN_1
 62
     2
  6
CONTINUOUS
 10
0.198701
 20
0.946319
  0
VERTEX
  8
PLAN_1
 62
     2
  6
CONTINUOUS
 10
0.198126
 20
0.948618
  0
VERTEX
  8
PLAN_1
 62
     2
  6
CONTINUOUS
 10
0.197551
 20
0.950921
  0
VERTEX
  8
PLAN_1
 62
     2
  6
CONTINUOUS
 10
0.196976
 20
0.953795
  0
VERTEX
  8
PLAN_1
 62
     2
  6
CONTINUOUS
 10
0.196976
 20
0.957248
  0
VERTEX
  8
PLAN_1
 62
     2
  6
CONTINUOUS
 10
0.196976
 20
0.962425
  0
VERTEX
  8
PLAN_1
 62
     2
  6
CONTINUOUS
 10
0.198701
 20
0.967602
  0
VERTEX
  8
PLAN_1
 62
     2
  6
CONTINUOUS
 10
0.200425
 20
0.971055
  0
VERTEX
  8
PLAN_1
 62
     2
  6
CONTINUOUS
 10
0.202728
 20
0.974508
  0
VERTEX
  8
PLAN_1
 62
     2
  6
CONTINUOUS
 10
0.205602
 20
0.976807
  0
VERTEX
  8
PLAN_1
 62
     2
  6
CONTINUOUS
 10
0.209055
 20
0.978535
  0
VERTEX
  8
PLAN_1
 62
     2
  6
CONTINUOUS
 10
0.212508
 20
0.979110
  0
VERTEX
  8
PLAN_1
 62
     2
  6
CONTINUOUS
 10
0.215382
 20
0.979685
  0
VERTEX
  8
PLAN_1
 62
     2
  6
CONTINUOUS
 10
0.219409
 20
0.979110
  0
VERTEX
  8
PLAN_1
 62
     2
  6
CONTINUOUS
 10
0.222287
 20
0.978535
  0
VERTEX
  8
PLAN_1
 62
     2
  6
CONTINUOUS
 10
0.224587
 20
0.977382
  0
VERTEX
  8
PLAN_1
 62
     2
  6
CONTINUOUS
 10
0.226315
 20
0.976232
  0
VERTEX
  8
PLAN_1
 62
     2
  6
CONTINUOUS
 10
0.228039
 20
0.974508
  0
VERTEX
  8
PLAN_1
 62
     2
  6
CONTINUOUS
 10
0.229189
 20
0.972780
  0
VERTEX
  8
PLAN_1
 62
     2
  6
CONTINUOUS
 10
0.230343
 20
0.971630
  0
VERTEX
  8
PLAN_1
 62
     2
  6
CONTINUOUS
 10
0.230917
 20
0.970480
  0
SEQEND
  8
0
  0
POLYLINE
  8
PLAN_1
 62
     2
  6
CONTINUOUS
 66
     1
 40
0.003000
 41
0.003000
  0
VERTEX
  8
PLAN_1
 62
     2
  6
CONTINUOUS
 10
0.249327
 20
0.942291
  0
VERTEX
  8
PLAN_1
 62
     2
  6
CONTINUOUS
 10
0.251051
 20
0.942291
  0
VERTEX
  8
PLAN_1
 62
     2
  6
CONTINUOUS
 10
0.253929
 20
0.942866
  0
VERTEX
  8
PLAN_1
 62
     2
  6
CONTINUOUS
 10
0.256228
 20
0.943441
  0
VERTEX
  8
PLAN_1
 62
     2
  6
CONTINUOUS
 10
0.258531
 20
0.945165
  0
VERTEX
  8
PLAN_1
 62
     2
  6
CONTINUOUS
 10
0.260256
 20
0.947469
  0
VERTEX
  8
PLAN_1
 62
     2
  6
CONTINUOUS
 10
0.261980
 20
0.949768
  0
VERTEX
  8
PLAN_1
 62
     2
  6
CONTINUOUS
 10
0.263134
 20
0.953220
  0
VERTEX
  8
PLAN_1
 62
     2
  6
CONTINUOUS
 10
0.263709
 20
0.957823
  0
VERTEX
  8
PLAN_1
 62
     2
  6
CONTINUOUS
 10
0.263709
 20
0.960126
  0
VERTEX
  8
PLAN_1
 62
     2
  6
CONTINUOUS
 10
0.263134
 20
0.963000
  0
VERTEX
  8
PLAN_1
 62
     2
  6
CONTINUOUS
 10
0.261980
 20
0.965303
  0
VERTEX
  8
PLAN_1
 62
     2
  6
CONTINUOUS
 10
0.260831
 20
0.967602
  0
VERTEX
  8
PLAN_1
 62
     2
  6
CONTINUOUS
 10
0.259106
 20
0.969331
  0
VERTEX
  8
PLAN_1
 62
     2
  6
CONTINUOUS
 10
0.256803
 20
0.971055
  0
VERTEX
  8
PLAN_1
 62
     2
  6
CONTINUOUS
 10
0.253929
 20
0.972205
  0
VERTEX
  8
PLAN_1
 62
     2
  6
CONTINUOUS
 10
0.249902
 20
0.972205
  0
VERTEX
  8
PLAN_1
 62
     2
  6
CONTINUOUS
 10
0.246449
 20
0.972205
  0
VERTEX
  8
PLAN_1
 62
     2
  6
CONTINUOUS
 10
0.243571
 20
0.971055
  0
VERTEX
  8
PLAN_1
 62
     2
  6
CONTINUOUS
 10
0.240697
 20
0.969906
  0
VERTEX
  8
PLAN_1
 62
     2
  6
CONTINUOUS
 10
0.238969
 20
0.968177
  0
VERTEX
  8
PLAN_1
 62
     2
  6
CONTINUOUS
 10
0.237244
 20
0.965878
  0
VERTEX
  8
PLAN_1
 62
     2
  6
CONTINUOUS
 10
0.236094
 20
0.963000
  0
VERTEX
  8
PLAN_1
 62
     2
  6
CONTINUOUS
 10
0.235520
 20
0.960126
  0
VERTEX
  8
PLAN_1
 62
     2
  6
CONTINUOUS
 10
0.235520
 20
0.957248
  0
VERTEX
  8
PLAN_1
 62
     2
  6
CONTINUOUS
 10
0.236094
 20
0.953795
  0
VERTEX
  8
PLAN_1
 62
     2
  6
CONTINUOUS
 10
0.236669
 20
0.950346
  0
VERTEX
  8
PLAN_1
 62
     2
  6
CONTINUOUS
 10
0.237819
 20
0.948043
  0
VERTEX
  8
PLAN_1
 62
     2
  6
CONTINUOUS
 10
0.239547
 20
0.945744
  0
VERTEX
  8
PLAN_1
 62
     2
  6
CONTINUOUS
 10
0.241846
 20
0.944016
  0
VERTEX
  8
PLAN_1
 62
     2
  6
CONTINUOUS
 10
0.244150
 20
0.942866
  0
VERTEX
  8
PLAN_1
 62
     2
  6
CONTINUOUS
 10
0.246449
 20
0.942291
  0
VERTEX
  8
PLAN_1
 62
     2
  6
CONTINUOUS
 10
0.249327
 20
0.942291
  0
SEQEND
  8
0
  0
POLYLINE
  8
PLAN_1
 62
     2
  6
CONTINUOUS
 66
     1
 40
0.003000
 41
0.003000
  0
VERTEX
  8
PLAN_1
 62
     2
  6
CONTINUOUS
 10
0.215961
 20
0.969906
  0
VERTEX
  8
PLAN_1
 62
     2
  6
CONTINUOUS
 10
0.214232
 20
0.969906
  0
VERTEX
  8
PLAN_1
 62
     2
  6
CONTINUOUS
 10
0.212508
 20
0.969331
  0
VERTEX
  8
PLAN_1
 62
     2
  6
CONTINUOUS
 10
0.210205
 20
0.968756
  0
VERTEX
  8
PLAN_1
 62
     2
  6
CONTINUOUS
 10
0.208480
 20
0.967028
  0
VERTEX
  8
PLAN_1
 62
     2
  6
CONTINUOUS
 10
0.207331
 20
0.965303
  0
VERTEX
  8
PLAN_1
 62
     2
  6
CONTINUOUS
 10
0.206177
 20
0.963000
  0
VERTEX
  8
PLAN_1
 62
     2
  6
CONTINUOUS
 10
0.205028
 20
0.960126
  0
VERTEX
  8
PLAN_1
 62
     2
  6
CONTINUOUS
 10
0.205028
 20
0.956673
  0
VERTEX
  8
PLAN_1
 62
     2
  6
CONTINUOUS
 10
0.205028
 20
0.953220
  0
VERTEX
  8
PLAN_1
 62
     2
  6
CONTINUOUS
 10
0.206177
 20
0.950346
  0
VERTEX
  8
PLAN_1
 62
     2
  6
CONTINUOUS
 10
0.207331
 20
0.948043
  0
VERTEX
  8
PLAN_1
 62
     2
  6
CONTINUOUS
 10
0.209055
 20
0.946894
  0
VERTEX
  8
PLAN_1
 62
     2
  6
CONTINUOUS
 10
0.210780
 20
0.945744
  0
VERTEX
  8
PLAN_1
 62
     2
  6
CONTINUOUS
 10
0.212508
 20
0.944591
  0
VERTEX
  8
PLAN_1
 62
     2
  6
CONTINUOUS
 10
0.214807
 20
0.944591
  0
VERTEX
  8
PLAN_1
 62
     2
  6
CONTINUOUS
 10
0.216535
 20
0.944016
  0
VERTEX
  8
PLAN_1
 62
     2
  6
CONTINUOUS
 10
0.218835
 20
0.944591
  0
VERTEX
  8
PLAN_1
 62
     2
  6
CONTINUOUS
 10
0.221138
 20
0.945165
  0
VERTEX
  8
PLAN_1
 62
     2
  6
CONTINUOUS
 10
0.222862
 20
0.946319
  0
VERTEX
  8
PLAN_1
 62
     2
  6
CONTINUOUS
 10
0.224587
 20
0.948043
  0
VERTEX
  8
PLAN_1
 62
     2
  6
CONTINUOUS
 10
0.225740
 20
0.950346
  0
VERTEX
  8
PLAN_1
 62
     2
  6
CONTINUOUS
 10
0.226890
 20
0.952071
  0
VERTEX
  8
PLAN_1
 62
     2
  6
CONTINUOUS
 10
0.227465
 20
0.954370
  0
VERTEX
  8
PLAN_1
 62
     2
  6
CONTINUOUS
 10
0.227465
 20
0.957248
  0
VERTEX
  8
PLAN_1
 62
     2
  6
CONTINUOUS
 10
0.227465
 20
0.960126
  0
VERTEX
  8
PLAN_1
 62
     2
  6
CONTINUOUS
 10
0.226890
 20
0.962425
  0
VERTEX
  8
PLAN_1
 62
     2
  6
CONTINUOUS
 10
0.225740
 20
0.964728
  0
VERTEX
  8
PLAN_1
 62
     2
  6
CONTINUOUS
 10
0.224012
 20
0.966453
  0
VERTEX
  8
PLAN_1
 62
     2
  6
CONTINUOUS
 10
0.222287
 20
0.968177
  0
VERTEX
  8
PLAN_1
 62
     2
  6
CONTINUOUS
 10
0.220563
 20
0.969331
  0
VERTEX
  8
PLAN_1
 62
     2
  6
CONTINUOUS
 10
0.218260
 20
0.969906
  0
VERTEX
  8
PLAN_1
 62
     2
  6
CONTINUOUS
 10
0.215961
 20
0.969906
  0
SEQEND
  8
0
  0
POLYLINE
  8
PLAN_1
 62
     2
  6
CONTINUOUS
 66
     1
 40
0.003000
 41
0.003000
  0
VERTEX
  8
PLAN_1
 62
     2
  6
CONTINUOUS
 10
0.252201
 20
1.029736
  0
VERTEX
  8
PLAN_1
 62
     2
  6
CONTINUOUS
 10
0.270035
 20
1.029736
  0
VERTEX
  8
PLAN_1
 62
     2
  6
CONTINUOUS
 10
0.270035
 20
1.020531
  0
VERTEX
  8
PLAN_1
 62
     2
  6
CONTINUOUS
 10
0.252201
 20
1.020531
  0
VERTEX
  8
PLAN_1
 62
     2
  6
CONTINUOUS
 10
0.252201
 20
0.988890
  0
VERTEX
  8
PLAN_1
 62
     2
  6
CONTINUOUS
 10
0.242996
 20
0.988890
  0
VERTEX
  8
PLAN_1
 62
     2
  6
CONTINUOUS
 10
0.196976
 20
1.022256
  0
VERTEX
  8
PLAN_1
 62
     2
  6
CONTINUOUS
 10
0.196976
 20
1.029736
  0
VERTEX
  8
PLAN_1
 62
     2
  6
CONTINUOUS
 10
0.244150
 20
1.029736
  0
VERTEX
  8
PLAN_1
 62
     2
  6
CONTINUOUS
 10
0.244150
 20
1.040665
  0
VERTEX
  8
PLAN_1
 62
     2
  6
CONTINUOUS
 10
0.252201
 20
1.040665
  0
VERTEX
  8
PLAN_1
 62
     2
  6
CONTINUOUS
 10
0.252201
 20
1.029736
  0
SEQEND
  8
0
  0
SOLID
  8
PLAN_1
 62
     2
 10
0.244150
 20
0.997520
 11
0.244150
 21
1.020531
 12
0.244150
 22
0.997520
 13
0.210780
 23
1.020531
  0
POLYLINE
  8
PLAN_1
 62
     2
  6
CONTINUOUS
 66
     1
 40
0.003000
 41
0.003000
  0
VERTEX
  8
PLAN_1
 62
     2
  6
CONTINUOUS
 10
0.244150
 20
0.997520
  0
VERTEX
  8
PLAN_1
 62
     2
  6
CONTINUOUS
 10
0.244150
 20
1.020531
  0
VERTEX
  8
PLAN_1
 62
     2
  6
CONTINUOUS
 10
0.210780
 20
1.020531
  0
VERTEX
  8
PLAN_1
 62
     2
  6
CONTINUOUS
 10
0.244150
 20
0.997520
  0
SEQEND
  8
0
  0
POLYLINE
  8
PLAN_1
 62
     2
  6
CONTINUOUS
 66
     1
 40
0.003000
 41
0.003000
  0
VERTEX
  8
PLAN_1
 62
     2
  6
CONTINUOUS
 10
-0.819559
 20
4.367555
  0
VERTEX
  8
PLAN_1
 62
     2
  6
CONTINUOUS
 10
-0.819559
 20
4.349724
  0
VERTEX
  8
PLAN_1
 62
     2
  6
CONTINUOUS
 10
-0.828764
 20
4.349724
  0
VERTEX
  8
PLAN_1
 62
     2
  6
CONTINUOUS
 10
-0.828764
 20
4.367555
  0
VERTEX
  8
PLAN_1
 62
     2
  6
CONTINUOUS
 10
-0.860406
 20
4.367555
  0
VERTEX
  8
PLAN_1
 62
     2
  6
CONTINUOUS
 10
-0.860406
 20
4.376760
  0
VERTEX
  8
PLAN_1
 62
     2
  6
CONTINUOUS
 10
-0.827039
 20
4.422783
  0
VERTEX
  8
PLAN_1
 62
     2
  6
CONTINUOUS
 10
-0.819559
 20
4.422783
  0
VERTEX
  8
PLAN_1
 62
     2
  6
CONTINUOUS
 10
-0.819559
 20
4.375610
  0
VERTEX
  8
PLAN_1
 62
     2
  6
CONTINUOUS
 10
-0.808630
 20
4.375610
  0
VERTEX
  8
PLAN_1
 62
     2
  6
CONTINUOUS
 10
-0.808630
 20
4.367555
  0
VERTEX
  8
PLAN_1
 62
     2
  6
CONTINUOUS
 10
-0.819559
 20
4.367555
  0
SEQEND
  8
0
  0
SOLID
  8
PLAN_1
 62
     2
 10
-0.851776
 20
4.375610
 11
-0.828764
 21
4.375610
 12
-0.851776
 22
4.375610
 13
-0.828764
 23
4.408976
  0
POLYLINE
  8
PLAN_1
 62
     2
  6
CONTINUOUS
 66
     1
 40
0.003000
 41
0.003000
  0
VERTEX
  8
PLAN_1
 62
     2
  6
CONTINUOUS
 10
-0.851776
 20
4.375610
  0
VERTEX
  8
PLAN_1
 62
     2
  6
CONTINUOUS
 10
-0.828764
 20
4.375610
  0
VERTEX
  8
PLAN_1
 62
     2
  6
CONTINUOUS
 10
-0.828764
 20
4.408976
  0
VERTEX
  8
PLAN_1
 62
     2
  6
CONTINUOUS
 10
-0.851776
 20
4.375610
  0
SEQEND
  8
0
  0
POLYLINE
  8
PLAN_1
 62
     2
  6
CONTINUOUS
 66
     1
 40
0.003000
 41
0.003000
  0
VERTEX
  8
PLAN_1
 62
     2
  6
CONTINUOUS
 10
-0.761457
 20
4.367555
  0
VERTEX
  8
PLAN_1
 62
     2
  6
CONTINUOUS
 10
-0.761457
 20
4.349724
  0
VERTEX
  8
PLAN_1
 62
     2
  6
CONTINUOUS
 10
-0.770661
 20
4.349724
  0
VERTEX
  8
PLAN_1
 62
     2
  6
CONTINUOUS
 10
-0.770661
 20
4.367555
  0
VERTEX
  8
PLAN_1
 62
     2
  6
CONTINUOUS
 10
-0.802299
 20
4.367555
  0
VERTEX
  8
PLAN_1
 62
     2
  6
CONTINUOUS
 10
-0.802299
 20
4.376760
  0
VERTEX
  8
PLAN_1
 62
     2
  6
CONTINUOUS
 10
-0.768933
 20
4.422783
  0
VERTEX
  8
PLAN_1
 62
     2
  6
CONTINUOUS
 10
-0.761457
 20
4.422783
  0
VERTEX
  8
PLAN_1
 62
     2
  6
CONTINUOUS
 10
-0.761457
 20
4.375610
  0
VERTEX
  8
PLAN_1
 62
     2
  6
CONTINUOUS
 10
-0.750524
 20
4.375610
  0
VERTEX
  8
PLAN_1
 62
     2
  6
CONTINUOUS
 10
-0.750524
 20
4.367555
  0
VERTEX
  8
PLAN_1
 62
     2
  6
CONTINUOUS
 10
-0.761457
 20
4.367555
  0
SEQEND
  8
0
  0
SOLID
  8
PLAN_1
 62
     2
 10
-0.794248
 20
4.375610
 11
-0.770661
 21
4.375610
 12
-0.794248
 22
4.375610
 13
-0.770661
 23
4.408976
  0
POLYLINE
  8
PLAN_1
 62
     2
  6
CONTINUOUS
 66
     1
 40
0.003000
 41
0.003000
  0
VERTEX
  8
PLAN_1
 62
     2
  6
CONTINUOUS
 10
-0.794248
 20
4.375610
  0
VERTEX
  8
PLAN_1
 62
     2
  6
CONTINUOUS
 10
-0.770661
 20
4.375610
  0
VERTEX
  8
PLAN_1
 62
     2
  6
CONTINUOUS
 10
-0.770661
 20
4.408976
  0
VERTEX
  8
PLAN_1
 62
     2
  6
CONTINUOUS
 10
-0.794248
 20
4.375610
  0
SEQEND
  8
0
  0
ENDSEC
  0
EOF
