999
DXF file: C:\Users\sesa63760\Dev\_Creo\CAD\MCADID0003092_3D-CAD\drw0001_1.dxf
999
Pro/ENGINEER 2019471 by Parametric Technology Corporation
  0
SECTION
  2
HEADER
  9
$ACADVER
  1
AC1024
  9
$DWGCODEPAGE
  3
ANSI_1252
  9
$EXTMAX
 10
58.0066772807
 20
82.0380150113
 30
0.0
  9
$EXTMIN
 10
0.0
 20
0.0
 30
0.0
  9
$LIMMIN
 10
0.0
 20
0.0
  9
$LIMMAX
 10
58.0066772807
 20
82.0380150113
  9
$VIEWCTR
 10
29.0033386404
 20
41.0190075056
  9
$VIEWSIZE
 40
82.0380150113
  9
$CLAYER
  8
0
  9
$LTSCALE
 40
5.3476632007
  9
$CELTYPE
  6
BYLAYER
  9
$DIMSCALE
 40
1.0
  9
$DIMASZ
 40
0.6905556819
  9
$DIMEXO
 40
1.0
  9
$DIMDLI
 40
3.6947491205
  9
$DIMEXE
 40
1.0
  9
$DIMCEN
 40
0.8750721601
  9
$DIMLFAC
 40
1.0
  9
$DIMBLK
  1
_FILLED
  9
$DIMALT
 70
0
  9
$DIMALTF
 40
0.0393700787
  9
$DIMTXT
 40
0.9667779547
  9
$DIMTOL
 70
1
  9
$DIMLIM
 70
0
  9
$DIMTFAC
 40
1.0
  9
$DIMTP
 40
0.01
  9
$DIMTM
 40
0.01
  9
$DIMGAP
 40
0.625
  9
$DIMDSEP
 70
46
  9
$AUNITS
 70
0
  9
$PDMODE
 70
3
  9
$PDSIZE
 40
0.3125
  9
$HANDSEED
  5
27E
  9
$TILEMODE
 70
1
  9
$MEASUREMENT
 70
1
  9
$INSUNITS
 70
4
  0
ENDSEC
  0
SECTION
  2
CLASSES
  0
CLASS
  1
ACDBDICTIONARYWDFLT
  2
AcDbDictionaryWithDefault
  3
AutoCAD 2000
 90
0
 91
1
280
0
281
0
  0
CLASS
  1
ACDBPLACEHOLDER
  2
AcDbPlaceHolder
  3
AutoCAD 2000
 90
0
 91
1
280
0
281
0
  0
CLASS
  1
LAYOUT
  2
AcDbLayout
  3
AutoCAD 2000
 90
0
 91
0
280
0
281
0
  0
ENDSEC
  0
SECTION
  2
TABLES
  0
TABLE
  2
VPORT
  5
8
100
AcDbSymbolTable
 70
2
  0
VPORT
  5
1F4
100
AcDbSymbolTableRecord
100
AcDbViewportTableRecord
  2
*ACTIVE
 70
0
 10
0.0
 20
0.0
 11
1.0
 21
1.0
 12
29.0033386404
 22
41.0190075056
 13
0.0
 23
0.0
 14
1.0
 24
1.0
 15
0.0
 25
0.0
 16
0.0
 26
0.0
 36
1.0
 17
0.0
 27
0.0
 37
0.0
 40
82.0380150113
 41
0.7070707071
 42
50.0
 43
0.0
 44
0.0
 50
0.0
 51
0.0
 71
0
 72
100
 73
1
 74
1
 75
0
 76
0
 77
0
 78
0
  0
ENDTAB
  0
TABLE
  2
LTYPE
  5
5
100
AcDbSymbolTable
 70
6
  0
LTYPE
  5
14
100
AcDbSymbolTableRecord
100
AcDbLinetypeTableRecord
  2
BYBLOCK
 70
0
  3

 72
65
 73
0
 40
0.0
  0
LTYPE
  5
15
100
AcDbSymbolTableRecord
100
AcDbLinetypeTableRecord
  2
BYLAYER
 70
0
  3

 72
65
 73
0
 40
0.0
  0
LTYPE
  5
16
100
AcDbSymbolTableRecord
100
AcDbLinetypeTableRecord
  2
CONTINUOUS
 70
64
  3
Solid line
 72
65
 73
0
 40
0.0
  0
LTYPE
  5
1F5
100
AcDbSymbolTableRecord
100
AcDbLinetypeTableRecord
  2
CENTER
 70
64
  3
____ _ ____ _ ____ _ ____ _ ____ _ ____ _ ____
 72
65
 73
4
 40
0.6
 49
0.375
 74
0
 49
-0.075
 74
0
 49
0.075
 74
0
 49
-0.075
 74
0
  0
LTYPE
  5
1F6
100
AcDbSymbolTableRecord
100
AcDbLinetypeTableRecord
  2
HIDDEN
 70
64
  3
- - - - - - - - - - - - - - - - - - - -
 72
65
 73
2
 40
0.2
 49
0.1
 74
0
 49
-0.1
 74
0
  0
LTYPE
  5
1F7
100
AcDbSymbolTableRecord
100
AcDbLinetypeTableRecord
  2
PHANTOM
 70
64
  3
_____ _ _ _____ _ _ _____ _ _ _____
 72
65
 73
6
 40
0.8
 49
0.45
 74
0
 49
-0.05
 74
0
 49
0.1
 74
0
 49
-0.05
 74
0
 49
0.1
 74
0
 49
-0.05
 74
0
  0
LTYPE
  5
1F8
100
AcDbSymbolTableRecord
100
AcDbLinetypeTableRecord
  2
DOT
 70
64
  3
. . . . . . . . . . . . . . . . . . . .
 72
65
 73
2
 40
0.2
 49
0.1
 74
0
 49
-0.1
 74
0
  0
LTYPE
  5
1F9
100
AcDbSymbolTableRecord
100
AcDbLinetypeTableRecord
  2
DASHED
 70
64
  3
- - - - - - - - - - - - - - - - - - - -
 72
65
 73
2
 40
0.2
 49
0.1
 74
0
 49
-0.1
 74
0
  0
ENDTAB
  0
TABLE
  2
LAYER
  5
2
100
AcDbSymbolTable
 70
36
  0
LAYER
  5
10
100
AcDbSymbolTableRecord
100
AcDbLayerTableRecord
  2
0
 70
0
 62
7
  6
CONTINUOUS
370
-3
390
F
  0
LAYER
  5
1FA
100
AcDbSymbolTableRecord
100
AcDbLayerTableRecord
  2
DEFAULT_1
 70
0
 62
7
  6
CENTER
370
-3
390
F
  0
LAYER
  5
1FB
100
AcDbSymbolTableRecord
100
AcDbLayerTableRecord
  2
DEFAULT_2
 70
0
 62
7
  6
HIDDEN
370
-3
390
F
  0
LAYER
  5
1FC
100
AcDbSymbolTableRecord
100
AcDbLayerTableRecord
  2
DEFAULT_3
 70
0
 62
7
  6
PHANTOM
370
-3
390
F
  0
LAYER
  5
1FD
100
AcDbSymbolTableRecord
100
AcDbLayerTableRecord
  2
00_COMPONENTS
 70
0
 62
7
  6
CONTINUOUS
370
-3
390
F
  0
LAYER
  5
1FE
100
AcDbSymbolTableRecord
100
AcDbLayerTableRecord
  2
01_1_DEFAULT_DATUMS
 70
0
 62
7
  6
CONTINUOUS
370
-3
390
F
  0
LAYER
  5
1FF
100
AcDbSymbolTableRecord
100
AcDbLayerTableRecord
  2
01_PLANES
 70
0
 62
7
  6
CONTINUOUS
370
-3
390
F
  0
LAYER
  5
200
100
AcDbSymbolTableRecord
100
AcDbLayerTableRecord
  2
02_COORD_SYS
 70
0
 62
7
  6
CONTINUOUS
370
-3
390
F
  0
LAYER
  5
201
100
AcDbSymbolTableRecord
100
AcDbLayerTableRecord
  2
03_AXES
 70
0
 62
7
  6
CONTINUOUS
370
-3
390
F
  0
LAYER
  5
202
100
AcDbSymbolTableRecord
100
AcDbLayerTableRecord
  2
04_POINTS
 70
0
 62
7
  6
CONTINUOUS
370
-3
390
F
  0
LAYER
  5
203
100
AcDbSymbolTableRecord
100
AcDbLayerTableRecord
  2
05_CURVES
 70
0
 62
7
  6
CONTINUOUS
370
-3
390
F
  0
LAYER
  5
204
100
AcDbSymbolTableRecord
100
AcDbLayerTableRecord
  2
06_SURFS
 70
0
 62
7
  6
CONTINUOUS
370
-3
390
F
  0
LAYER
  5
205
100
AcDbSymbolTableRecord
100
AcDbLayerTableRecord
  2
07_COSMETICS
 70
0
 62
7
  6
CONTINUOUS
370
-3
390
F
  0
LAYER
  5
206
100
AcDbSymbolTableRecord
100
AcDbLayerTableRecord
  2
10_NOTES
 70
0
 62
7
  6
CONTINUOUS
370
-3
390
F
  0
LAYER
  5
207
100
AcDbSymbolTableRecord
100
AcDbLayerTableRecord
  2
11_NOTES_PUB
 70
0
 62
7
  6
CONTINUOUS
370
-3
390
F
  0
LAYER
  5
208
100
AcDbSymbolTableRecord
100
AcDbLayerTableRecord
  2
13_REF_GTOL
 70
0
 62
7
  6
CONTINUOUS
370
-3
390
F
  0
LAYER
  5
209
100
AcDbSymbolTableRecord
100
AcDbLayerTableRecord
  2
16_MISC
 70
0
 62
7
  6
CONTINUOUS
370
-3
390
F
  0
LAYER
  5
20A
100
AcDbSymbolTableRecord
100
AcDbLayerTableRecord
  2
17_NO_PRINT
 70
0
 62
7
  6
CONTINUOUS
370
-3
390
F
  0
LAYER
  5
20B
100
AcDbSymbolTableRecord
100
AcDbLayerTableRecord
  2
18_DATUM_CAMS_JOINTS
 70
0
 62
7
  6
CONTINUOUS
370
-3
390
F
  0
LAYER
  5
20C
100
AcDbSymbolTableRecord
100
AcDbLayerTableRecord
  2
19_DATUM_FUNCTIONAL
 70
0
 62
7
  6
CONTINUOUS
370
-3
390
F
  0
LAYER
  5
20D
100
AcDbSymbolTableRecord
100
AcDbLayerTableRecord
  2
20_DATUM_KINEMATIC_SCHEME
 70
0
 62
7
  6
CONTINUOUS
370
-3
390
F
  0
ENDTAB
  0
TABLE
  2
STYLE
  5
3
100
AcDbSymbolTable
 70
1
  0
STYLE
  5
11
100
AcDbSymbolTableRecord
100
AcDbTextStyleTableRecord
  2
STANDARD
 70
0
 40
0.0
 41
1.0
 50
0.0
 71
0
 42
0.2
  3
ARIAL.TTF
  4

  0
STYLE
  5
20E
100
AcDbSymbolTableRecord
100
AcDbTextStyleTableRecord
  2
TEXTSTYLE_1
 70
0
 40
0.0
 41
0.8
 50
0.0
 71
0
 42
0.2
  3
gdt
  4

  0
ENDTAB
  0
TABLE
  2
VIEW
  5
6
100
AcDbSymbolTable
 70
0
  0
ENDTAB
  0
TABLE
  2
UCS
  5
7
100
AcDbSymbolTable
 70
0
  0
ENDTAB
  0
TABLE
  2
APPID
  5
9
100
AcDbSymbolTable
 70
1
  0
APPID
  5
20F
100
AcDbSymbolTableRecord
100
AcDbRegAppTableRecord
  2
ACAD
 70
0
  0
ENDTAB
  0
TABLE
  2
BLOCK_RECORD
  5
1
100
AcDbSymbolTable
 70
0
  0
BLOCK_RECORD
  5
210
100
AcDbSymbolTableRecord
100
AcDbBlockTableRecord
  2
*Model_Space
  0
BLOCK_RECORD
  5
211
100
AcDbSymbolTableRecord
100
AcDbBlockTableRecord
  2
*Paper_Space
  0
BLOCK_RECORD
  5
212
100
AcDbSymbolTableRecord
100
AcDbBlockTableRecord
  2
_FILLED
  0
ENDTAB
  0
TABLE
  2
DIMSTYLE
  5
A
100
AcDbSymbolTable
 70
1
100
AcDbDimStyleTable
 71
0
  0
DIMSTYLE
105
213
100
AcDbSymbolTableRecord
100
AcDbDimStyleTableRecord
  2
STANDARD
 70
0
  3

  4

 40
1.0
 41
0.6905556819
 42
1.0
 43
0.38
 44
1.0
 45
0.0
 46
0.0
 47
0.01
 48
0.01
140
0.9667779547
141
0.09
142
0.0
143
25.4
144
1.0
145
0.0
146
1.0
147
0.625
 71
1
 72
0
 73
0
 74
0
 75
0
 76
0
 77
1
 78
8
 79
2
170
0
171
1
172
0
173
0
174
0
175
0
176
0
177
0
178
0
270
2
179
2
271
2
272
2
273
2
274
2
275
0
280
0
281
0
282
0
283
1
284
8
285
0
286
0
287
3
288
0
340
11
278
46
341
212
342
212
343
212
344
212
  0
ENDTAB
  0
ENDSEC
  0
SECTION
  2
BLOCKS
  0
BLOCK
  5
20
100
AcDbEntity
  8
0
100
AcDbBlockBegin
  2
*Model_Space
 70
0
 10
0.0
 20
0.0
 30
0.0
  3
*Model_Space
  1

  0
ENDBLK
  5
21
100
AcDbEntity
  8
0
100
AcDbBlockEnd
  0
BLOCK
  5
1C
100
AcDbEntity
  8
0
100
AcDbBlockBegin
  2
*Paper_Space
 70
0
 10
0.0
 20
0.0
 30
0.0
  3
*Paper_Space
  1

  0
ENDBLK
  5
1D
100
AcDbEntity
  8
0
100
AcDbBlockEnd
  0
BLOCK
  5
214
100
AcDbEntity
  8
0
100
AcDbBlockBegin
  2
_FILLED
 70
64
 10
0.0
 20
0.0
  3
_FILLED
  1

  0
SOLID
  5
215
100
AcDbEntity
  8
0
  6
BYBLOCK
 62
0
100
AcDbTrace
 10
0.0
 20
0.0
 11
-1.0
 21
0.25
 12
-1.0
 22
-0.25
 13
-1.0
 23
-0.25
  0
ENDBLK
  5
216
100
AcDbEntity
  8
0
  6
BYBLOCK
 62
0
100
AcDbBlockEnd
  0
ENDSEC
  0
SECTION
  2
ENTITIES
  0
LINE
  5
217
100
AcDbEntity
  8
0
100
AcDbLine
 62
7
  6
BYLAYER
 10
6.6955469221
 20
37.8362043901
 11
6.6955469221
 21
24.915706841
  0
LINE
  5
218
100
AcDbEntity
  8
0
100
AcDbLine
 62
7
  6
BYLAYER
 10
41.6536915864
 20
74.2020046614
 11
42.192509197
 21
74.5131000483
  0
LINE
  5
219
100
AcDbEntity
  8
0
100
AcDbLine
 62
7
  6
BYLAYER
 10
30.9404631484
 20
12.3325213026
 11
20.3556738648
 21
18.4435139957
  0
LINE
  5
21A
100
AcDbEntity
  8
0
100
AcDbLine
 62
7
  6
BYLAYER
 10
38.3115742335
 20
9.870842069
 11
32.4940539255
 21
13.2295130015
  0
LINE
  5
21B
100
AcDbEntity
  8
0
100
AcDbLine
 62
7
  6
BYLAYER
 10
7.0850024112
 20
39.5441297094
 11
6.6958395956
 21
37.8362044284
  0
LINE
  5
21C
100
AcDbEntity
  8
0
100
AcDbLine
 62
7
  6
BYLAYER
 10
7.7489619878
 20
40.9747671397
 11
7.0850024112
 21
39.5441297094
  0
LWPOLYLINE
  5
21D
100
AcDbEntity
  8
0
100
AcDbPolyline
 62
7
  6
BYLAYER
 90
8
 70
0
 10
42.192509197
 20
74.5131000483
 10
41.2294884947
 20
73.6276672455
 10
41.0267543356
 20
72.5965352602
 10
41.6192146329
 20
71.6111453001
 10
42.8953281097
 20
70.8704979507
 10
44.5977290284
 20
70.5233385961
 10
46.3963062911
 20
70.6369195418
 10
47.939897043
 20
71.1949191955
  0
LINE
  5
21E
100
AcDbEntity
  8
0
100
AcDbLine
 62
7
  6
BYLAYER
 10
32.4940539255
 20
22.5621356293
 11
38.3115742335
 21
19.2034646968
  0
LINE
  5
21F
100
AcDbEntity
  8
0
100
AcDbLine
 62
7
  6
BYLAYER
 10
14.090767547
 20
45.2921674223
 11
7.7489619878
 21
40.9747671397
  0
LINE
  5
220
100
AcDbEntity
  8
0
100
AcDbLine
 62
7
  6
BYLAYER
 10
20.3556738648
 20
31.3640115448
 11
30.9404631484
 21
25.2530188517
  0
LINE
  5
221
100
AcDbEntity
  8
0
100
AcDbLine
 62
7
  6
BYLAYER
 10
19.9319620277
 20
32.9109350416
 11
19.9319620277
 21
42.8616993281
  0
LINE
  5
222
100
AcDbEntity
  8
0
100
AcDbLine
 62
7
  6
BYLAYER
 10
20.3556738648
 20
18.4435139957
 11
20.3556738648
 21
31.3640115448
  0
LINE
  5
223
100
AcDbEntity
  8
0
100
AcDbLine
 62
7
  6
BYLAYER
 10
20.9133437621
 20
42.7098837442
 11
20.9133437621
 21
33.0239548624
  0
LINE
  5
224
100
AcDbEntity
  8
0
100
AcDbLine
 62
7
  6
BYLAYER
 10
19.9319620277
 20
42.8616993281
 11
20.6940802228
 21
44.5038396851
  0
LINE
  5
225
100
AcDbEntity
  8
0
100
AcDbLine
 62
7
  6
BYLAYER
 10
22.1309152201
 20
45.3333918058
 11
20.9133437621
 21
42.7098837442
  0
LINE
  5
226
100
AcDbEntity
  8
0
100
AcDbLine
 62
7
  6
BYLAYER
 10
30.9402816652
 20
50.4194515346
 11
22.1309152201
 21
45.3333918058
  0
LINE
  5
227
100
AcDbEntity
  8
0
100
AcDbLine
 62
7
  6
BYLAYER
 10
20.6940802228
 20
44.5038396851
 11
20.3755513809
 21
44.3199380702
  0
LINE
  5
228
100
AcDbEntity
  8
0
100
AcDbLine
 62
7
  6
BYLAYER
 10
38.3113313728
 20
52.881166204
 11
32.493859506
 21
49.5224673044
  0
LINE
  5
229
100
AcDbEntity
  8
0
100
AcDbLine
 62
7
  6
BYLAYER
 10
20.7730275225
 20
36.7567776798
 11
20.9133437621
 21
36.7137040865
  0
LINE
  5
22A
100
AcDbEntity
  8
0
100
AcDbLine
 62
7
  6
BYLAYER
 10
47.2917929661
 20
24.3881654509
 11
41.4742726581
 21
27.7468363835
  0
LINE
  5
22B
100
AcDbEntity
  8
0
100
AcDbLine
 62
7
  6
BYLAYER
 10
49.1076293588
 20
23.3398288127
 11
49.5566517931
 21
23.0805781773
  0
LINE
  5
22C
100
AcDbEntity
  8
0
100
AcDbLine
 62
7
  6
BYLAYER
 10
32.4940539255
 20
22.5621356293
 11
30.9404631484
 21
25.2530188517
  0
LINE
  5
22D
100
AcDbEntity
  8
0
100
AcDbLine
 62
7
  6
BYLAYER
 10
39.920681881
 20
30.4377196059
 11
36.0860965525
 21
32.6515683936
  0
LWPOLYLINE
  5
22E
100
AcDbEntity
  8
0
100
AcDbPolyline
 62
7
  6
BYLAYER
 90
5
 70
0
 10
40.24020312
 20
53.7552953312
 10
39.5494277708
 20
52.9762840844
 10
39.4184598269
 20
51.6101650033
 10
40.269768106
 20
50.3208631988
 10
41.0251046903
 20
49.7817328874
  0
LINE
  5
22F
100
AcDbEntity
  8
0
100
AcDbLine
 62
7
  6
BYLAYER
 10
37.1051964226
 20
37.4557215964
 11
35.2238573846
 21
38.0332458576
  0
LINE
  5
230
100
AcDbEntity
  8
0
100
AcDbLine
 62
7
  6
BYLAYER
 10
39.9205751746
 20
45.2347939522
 11
36.0860217758
 21
43.0209267301
  0
LINE
  5
231
100
AcDbEntity
  8
0
100
AcDbLine
 62
7
  6
BYLAYER
 10
20.3755513809
 20
44.3199380702
 11
14.090767547
 21
45.2921674223
  0
LINE
  5
232
100
AcDbEntity
  8
0
100
AcDbLine
 62
7
  6
BYLAYER
 10
41.4741530153
 20
44.337809722
 11
47.2916248822
 21
47.6965086216
  0
LINE
  5
233
100
AcDbEntity
  8
0
100
AcDbLine
 62
7
  6
BYLAYER
 10
17.4342442441
 20
46.3209086417
 11
21.8026924873
 21
45.6451282622
  0
LINE
  5
234
100
AcDbEntity
  8
0
100
AcDbLine
 62
7
  6
BYLAYER
 10
39.920681881
 20
30.4377196059
 11
41.4742726581
 21
27.7468363835
  0
LINE
  5
235
100
AcDbEntity
  8
0
100
AcDbLine
 62
7
  6
BYLAYER
 10
36.0860217758
 20
37.7685828474
 11
36.0860217758
 21
43.0209267301
  0
LINE
  5
236
100
AcDbEntity
  8
0
100
AcDbLine
 62
7
  6
BYLAYER
 10
38.3115742335
 20
19.2034646968
 11
38.3115742335
 21
9.870842069
  0
LINE
  5
237
100
AcDbEntity
  8
0
100
AcDbLine
 62
7
  6
BYLAYER
 10
40.24020312
 20
32.8679113172
 11
40.24020312
 21
29.884295658
  0
LINE
  5
238
100
AcDbEntity
  8
0
100
AcDbLine
 62
7
  6
BYLAYER
 10
40.24020312
 20
52.1148482268
 11
40.24020312
 21
72.23183478
  0
LINE
  5
239
100
AcDbEntity
  8
0
100
AcDbLine
 62
7
  6
BYLAYER
 10
41.4741530153
 20
44.337809722
 11
30.9402816652
 21
50.4194515346
  0
LINE
  5
23A
100
AcDbEntity
  8
0
100
AcDbLine
 62
7
  6
BYLAYER
 10
39.9205751746
 20
32.314296403
 11
41.4741530153
 21
35.0051870942
  0
LINE
  5
23B
100
AcDbEntity
  8
0
100
AcDbLine
 62
7
  6
BYLAYER
 10
47.2916248822
 20
38.3638859938
 11
41.4741530153
 21
35.0051870942
  0
LINE
  5
23C
100
AcDbEntity
  8
0
100
AcDbLine
 62
7
  6
BYLAYER
 10
39.9205751746
 20
32.314296403
 11
38.2954421155
 21
31.3760309946
  0
LINE
  5
23D
100
AcDbEntity
  8
0
100
AcDbLine
 62
7
  6
BYLAYER
 10
39.920681881
 20
30.4377196059
 11
30.9404631484
 21
25.2530188517
  0
LINE
  5
23E
100
AcDbEntity
  8
0
100
AcDbLine
 62
7
  6
BYLAYER
 10
47.2916248822
 20
47.6965086216
 11
47.2916248822
 21
38.3638859938
  0
LINE
  5
23F
100
AcDbEntity
  8
0
100
AcDbLine
 62
7
  6
BYLAYER
 10
32.4940539255
 20
22.5621356293
 11
41.4742726581
 21
27.7468363835
  0
LINE
  5
240
100
AcDbEntity
  8
0
100
AcDbLine
 62
7
  6
BYLAYER
 10
49.89220312
 20
39.2601182075
 11
49.89220312
 21
23.4798045092
  0
LINE
  5
241
100
AcDbEntity
  8
0
100
AcDbLine
 62
7
  6
BYLAYER
 10
49.89220312
 20
52.1148482268
 11
49.89220312
 21
72.23183478
  0
LINE
  5
242
100
AcDbEntity
  8
0
100
AcDbLine
 62
7
  6
BYLAYER
 10
41.025295371
 20
23.3398691292
 11
40.5762806956
 21
23.0806229734
  0
LINE
  5
243
100
AcDbEntity
  8
0
100
AcDbLine
 62
7
  6
BYLAYER
 10
52.17820312
 20
51.5963691919
 11
52.17820312
 21
42.2637465641
  0
LINE
  5
244
100
AcDbEntity
  8
0
100
AcDbLine
 62
7
  6
BYLAYER
 10
52.1784274502
 20
20.4882941822
 11
52.1784274502
 21
11.1556715544
  0
LINE
  5
245
100
AcDbEntity
  8
0
100
AcDbLine
 62
7
  6
BYLAYER
 10
30.9404631484
 20
12.3325213026
 11
32.4940539255
 21
13.2295130015
  0
LINE
  5
246
100
AcDbEntity
  8
0
100
AcDbLine
 62
7
  6
BYLAYER
 10
47.9399466994
 20
74.5130713788
 11
48.4787736206
 21
74.2019706164
  0
ARC
  5
247
100
AcDbEntity
  8
0
100
AcDbCircle
 62
7
  6
BYLAYER
 10
43.4774725939
 20
48.5383095422
 40
6.8828997045
100
AcDbArc
 50
118.338544807
 51
119.988312188
  0
ARC
  5
248
100
AcDbEntity
  8
0
100
AcDbCircle
 62
7
  6
BYLAYER
 10
46.7268205066
 20
49.2836348178
 40
5.6626743929
100
AcDbArc
 50
55.7020305848
 51
60.0215561223
  0
ARC
  5
249
100
AcDbEntity
  8
0
100
AcDbCircle
 62
7
  6
BYLAYER
 10
46.687672145
 20
72.1218789613
 40
2.6894472456
100
AcDbArc
 50
47.2523015484
 51
49.0510772667
  0
SPLINE
  5
24A
100
AcDbEntity
  8
0
100
AcDbSpline
 62
7
  6
BYLAYER
 70
0
 71
3
 72
14
 73
10
 74
0
 42
0.0000001
 43
0.0000001
 44
0.0000000001
 40
0.0
 40
0.0
 40
0.0
 40
0.0
 40
0.2892443175
 40
0.4225654763
 40
0.5485130759
 40
0.6678887194
 40
0.7818622368
 40
0.8919526657
 40
1.0
 40
1.0
 40
1.0
 40
1.0
 10
41.6536915864
 20
74.2020046614
 30
0.0
 10
41.441881336
 20
74.0797166862
 30
0.0
 10
41.1452252799
 20
73.8754222031
 30
0.0
 10
40.8095420918
 20
73.5542217952
 30
0.0
 10
40.6052531922
 20
73.3065870447
 30
0.0
 10
40.4437975008
 20
73.0480921486
 30
0.0
 10
40.3269491304
 20
72.7809906263
 30
0.0
 10
40.2560439126
 20
72.5080262203
 30
0.0
 10
40.240229865
 20
72.3231966364
 30
0.0
 10
40.2402305277
 20
72.2318347801
 30
0.0
  0
SPLINE
  5
24B
100
AcDbEntity
  8
0
100
AcDbSpline
 62
7
  6
BYLAYER
 70
0
 71
3
 72
10
 73
6
 74
0
 42
0.0000001
 43
0.0000001
 44
0.0000000001
 40
0.0
 40
0.0
 40
0.0
 40
0.0
 40
0.2751842022
 40
0.6557297611
 40
1.0
 40
1.0
 40
1.0
 40
1.0
 10
40.0372387547
 20
54.4997774381
 30
0.0
 10
39.8473865703
 20
54.3901668826
 30
0.0
 10
39.4074974248
 20
54.106606609
 30
0.0
 10
38.8008243283
 20
53.5836799106
 30
0.0
 10
38.4472575033
 20
53.1193717515
 30
0.0
 10
38.3113313728
 20
52.881166204
 30
0.0
  0
SPLINE
  5
24C
100
AcDbEntity
  8
0
100
AcDbSpline
 62
7
  6
BYLAYER
 70
0
 71
3
 72
15
 73
11
 74
0
 42
0.0000001
 43
0.0000001
 44
0.0000000001
 40
0.0
 40
0.0
 40
0.0
 40
0.0
 40
0.1160949447
 40
0.2404292948
 40
0.3703172515
 40
0.5028523614
 40
0.6350116259
 40
0.7637740039
 40
0.8863660582
 40
1.0
 40
1.0
 40
1.0
 40
1.0
 10
36.5581472437
 20
32.3336744803
 30
0.0
 10
36.6401937436
 20
32.4608733544
 30
0.0
 10
36.7979749765
 20
32.7322291662
 30
0.0
 10
37.0088968201
 20
33.1669461458
 30
0.0
 10
37.1981273703
 20
33.6347402416
 30
0.0
 10
37.3606308942
 20
34.1232060414
 30
0.0
 10
37.4921127271
 20
34.6194035916
 30
0.0
 10
37.5891125692
 20
35.1103123946
 30
0.0
 10
37.6490045236
 20
35.5827806731
 30
0.0
 10
37.6640231663
 20
35.8908565692
 30
0.0
 10
37.6640231663
 20
36.0390123179
 30
0.0
  0
SPLINE
  5
24D
100
AcDbEntity
  8
0
100
AcDbSpline
 62
7
  6
BYLAYER
 70
0
 71
3
 72
15
 73
11
 74
0
 42
0.0000001
 43
0.0000001
 44
0.0000000001
 40
0.0
 40
0.0
 40
0.0
 40
0.0
 40
0.1485453482
 40
0.2895095608
 40
0.4227388686
 40
0.5486438544
 40
0.668000958
 40
0.7819412982
 40
0.8919891708
 40
1.0
 40
1.0
 40
1.0
 40
1.0
 10
11.8393938093
 20
34.2069138622
 30
0.0
 10
11.6389451327
 20
34.3226403415
 30
0.0
 10
11.2573744415
 20
34.5645560372
 30
0.0
 10
10.7356051951
 20
34.9682887959
 30
0.0
 10
10.2843364322
 20
35.4002734721
 30
0.0
 10
9.9080575828
 20
35.8563521733
 30
0.0
 10
9.6106068008
 20
36.3325639496
 30
0.0
 10
9.3952353058
 20
36.8245823232
 30
0.0
 10
9.2648024069
 20
37.3274542605
 30
0.0
 10
9.2355618522
 20
37.6679065789
 30
0.0
 10
9.2355755773
 20
37.8362043437
 30
0.0
  0
SPLINE
  5
24E
100
AcDbEntity
  8
0
100
AcDbSpline
 62
7
  6
BYLAYER
 70
0
 71
3
 72
15
 73
11
 74
0
 42
0.0000001
 43
0.0000001
 44
0.0000000001
 40
0.0
 40
0.0
 40
0.0
 40
0.0
 40
0.1485555334
 40
0.2895107144
 40
0.4227342068
 40
0.5486413618
 40
0.6680017539
 40
0.7819402176
 40
0.8919885811
 40
1.0
 40
1.0
 40
1.0
 40
1.0
 10
36.0860965525
 20
32.6515683936
 30
0.0
 10
35.7997215784
 20
32.8169033216
 30
0.0
 10
35.2546066033
 20
33.1624821718
 30
0.0
 10
34.5092512738
 20
33.739263377
 30
0.0
 10
33.8645881808
 20
34.3563528888
 30
0.0
 10
33.3270784813
 20
35.0079144519
 30
0.0
 10
32.9020767031
 20
35.6881863173
 30
0.0
 10
32.5944806675
 20
36.3911056624
 30
0.0
 10
32.4080636406
 20
37.1094727365
 30
0.0
 10
32.3663631992
 20
37.5958423826
 30
0.0
 10
32.3663631939
 20
37.8362691478
 30
0.0
  0
SPLINE
  5
24F
100
AcDbEntity
  8
0
100
AcDbSpline
 62
7
  6
BYLAYER
 70
0
 71
3
 72
21
 73
17
 74
0
 42
0.0000001
 43
0.0000001
 44
0.0000000001
 40
0.0
 40
0.0
 40
0.0
 40
0.0
 40
0.0753044501
 40
0.1511406077
 40
0.3016436092
 40
0.4468174994
 40
0.5160886548
 40
0.5825135815
 40
0.6457414639
 40
0.7055371896
 40
0.7617997923
 40
0.8146028715
 40
0.8642164349
 40
0.9111375065
 40
0.9560916578
 40
1.0
 40
1.0
 40
1.0
 40
1.0
 10
20.3556738648
 20
18.4435139957
 30
0.0
 10
19.940719897
 20
18.395855055
 30
0.0
 10
19.1044668877
 20
18.3276009521
 30
0.0
 10
17.4307599701
 20
18.2979587584
 30
0.0
 10
15.3703754245
 20
18.4570410452
 30
0.0
 10
13.3828042443
 20
18.8759748135
 30
0.0
 10
11.9021560316
 20
19.3646925947
 30
0.0
 10
10.8838845955
 20
19.7928742533
 30
0.0
 10
9.9528918375
 20
20.2832355888
 30
0.0
 10
9.1202187492
 20
20.8300170503
 30
0.0
 10
8.39598198
 20
21.4271644733
 30
0.0
 10
7.7888833274
 20
22.0678561748
 30
0.0
 10
7.3067571205
 20
22.7451381482
 30
0.0
 10
6.9564368904
 20
23.4515150946
 30
0.0
 10
6.7433896833
 20
24.1780391524
 30
0.0
 10
6.6955632473
 20
24.672165893
 30
0.0
 10
6.6955553976
 20
24.9157068762
 30
0.0
  0
SPLINE
  5
250
100
AcDbEntity
  8
0
100
AcDbSpline
 62
7
  6
BYLAYER
 70
0
 71
3
 72
21
 73
17
 74
0
 42
0.0000001
 43
0.0000001
 44
0.0000000001
 40
0.0
 40
0.0
 40
0.0
 40
0.0
 40
0.0593574261
 40
0.122098241
 40
0.1876732874
 40
0.2555275582
 40
0.3952426326
 40
0.4657144251
 40
0.5355547137
 40
0.6040232625
 40
0.6704287096
 40
0.7341539998
 40
0.7946837952
 40
0.8516403385
 40
0.9048275697
 40
1.0
 40
1.0
 40
1.0
 40
1.0
 10
50.0953918155
 20
8.2522633083
 30
0.0
 10
49.8754197058
 20
8.1252631096
 30
0.0
 10
49.4078638757
 20
7.8895691957
 30
0.0
 10
48.6581106414
 20
7.5988832351
 30
0.0
 10
47.8506810758
 20
7.3653444715
 30
0.0
 10
46.7042014176
 20
7.132986485
 30
0.0
 10
45.5133221721
 20
7.032290816
 30
0.0
 10
44.3146436466
 20
7.0615504122
 30
0.0
 10
43.4246398698
 20
7.1491727639
 30
0.0
 10
42.5610212574
 20
7.3010801726
 30
0.0
 10
41.7374823483
 20
7.5147251837
 30
0.0
 10
40.9671271254
 20
7.7868156264
 30
0.0
 10
40.2623786379
 20
8.1130340112
 30
0.0
 10
39.6338104482
 20
8.4887133561
 30
0.0
 10
38.9381557075
 20
9.0262437715
 30
0.0
 10
38.51342215
 20
9.5171209254
 30
0.0
 10
38.3115742335
 20
9.870842069
 30
0.0
  0
SPLINE
  5
251
100
AcDbEntity
  8
0
100
AcDbSpline
 62
7
  6
BYLAYER
 70
0
 71
3
 72
15
 73
11
 74
0
 42
0.0000001
 43
0.0000001
 44
0.0000000001
 40
0.0
 40
0.0
 40
0.0
 40
0.0
 40
0.1141515602
 40
0.2373205681
 40
0.366969127
 40
0.4999915357
 40
0.6330160032
 40
0.7626660112
 40
0.8858476376
 40
1.0
 40
1.0
 40
1.0
 40
1.0
 10
49.1075992253
 20
23.3398114077
 30
0.0
 10
48.8309603341
 20
23.4995341821
 30
0.0
 10
48.2260357815
 20
23.7812348566
 30
0.0
 10
47.2409437692
 20
24.0806626616
 30
0.0
 10
46.174418859
 20
24.2649721551
 30
0.0
 10
45.0665199965
 20
24.3271785037
 30
0.0
 10
43.9586174158
 20
24.2649929518
 30
0.0
 10
42.8920381911
 20
24.0807268071
 30
0.0
 10
41.9069064201
 20
23.7812843146
 30
0.0
 10
41.3019388863
 20
23.4995883838
 30
0.0
 10
41.025295371
 20
23.3398691292
 30
0.0
  0
SPLINE
  5
252
100
AcDbEntity
  8
0
100
AcDbSpline
 62
7
  6
BYLAYER
 70
0
 71
3
 72
13
 73
9
 74
0
 42
0.0000001
 43
0.0000001
 44
0.0000000001
 40
0.0
 40
0.0
 40
0.0
 40
0.0
 40
0.1080954494
 40
0.2182373225
 40
0.3322515541
 40
0.4516786582
 40
0.7106577908
 40
1.0
 40
1.0
 40
1.0
 40
1.0
 10
48.2414086342
 20
21.0067732229
 30
0.0
 10
48.2414191881
 20
20.9466674123
 30
0.0
 10
48.2309678173
 20
20.8250706316
 30
0.0
 10
48.1843329241
 20
20.6454997753
 30
0.0
 10
48.1075038405
 20
20.4697547987
 30
0.0
 10
47.9619700465
 20
20.2368357131
 30
0.0
 10
47.7035307839
 20
19.9649737998
 30
0.0
 10
47.4508332304
 20
19.7910519415
 30
0.0
 10
47.3115008276
 20
19.7106088215
 30
0.0
  0
SPLINE
  5
253
100
AcDbEntity
  8
0
100
AcDbSpline
 62
7
  6
BYLAYER
 70
0
 71
3
 72
22
 73
18
 74
0
 42
0.0000001
 43
0.0000001
 44
0.0000000001
 40
0.0
 40
0.0
 40
0.0
 40
0.0
 40
0.0623736056
 40
0.1287725198
 40
0.1983823492
 40
0.2703754359
 40
0.4173945886
 40
0.4904374238
 40
0.5617461301
 40
0.6303626788
 40
0.6954705691
 40
0.7564352559
 40
0.8128879904
 40
0.8648053607
 40
0.9125928121
 40
0.9571804802
 40
1.0
 40
1.0
 40
1.0
 40
1.0
 10
47.3115008276
 20
19.7106088215
 30
0.0
 10
47.1974808478
 20
19.6447797484
 30
0.0
 10
46.9529712009
 20
19.5243015378
 30
0.0
 10
46.5586624864
 20
19.3813149261
 30
0.0
 10
46.1324099739
 20
19.273130966
 30
0.0
 10
45.5300900386
 20
19.1777218508
 30
0.0
 10
44.9102476737
 20
19.1606082078
 30
0.0
 10
44.2976829596
 20
19.2214994753
 30
0.0
 10
43.8553431513
 20
19.3051973555
 30
0.0
 10
43.4388453911
 20
19.425271064
 30
0.0
 10
43.0569058694
 20
19.579101041
 30
0.0
 10
42.7176045376
 20
19.7636675
 30
0.0
 10
42.428026063
 20
19.9752812858
 30
0.0
 10
42.1942863689
 20
20.2099363114
 30
0.0
 10
42.0219130035
 20
20.4635888381
 30
0.0
 10
41.9155919751
 20
20.7310990204
 30
0.0
 10
41.8914621366
 20
20.9163894073
 30
0.0
 10
41.8914462663
 20
21.0067732113
 30
0.0
  0
SPLINE
  5
254
100
AcDbEntity
  8
0
100
AcDbSpline
 62
7
  6
BYLAYER
 70
0
 71
3
 72
15
 73
11
 74
0
 42
0.0000001
 43
0.0000001
 44
0.0000000001
 40
0.0
 40
0.0
 40
0.0
 40
0.0
 40
0.1080111152
 40
0.2180595722
 40
0.332002574
 40
0.4513482818
 40
0.5772515788
 40
0.7105020275
 40
0.8514845746
 40
1.0
 40
1.0
 40
1.0
 40
1.0
 10
52.1784072517
 20
11.1556715818
 30
0.0
 10
52.1783947607
 20
11.0210350774
 30
0.0
 10
52.1549998966
 20
10.7486811384
 30
0.0
 10
52.0506830624
 20
10.3463741367
 30
0.0
 10
51.8783484789
 20
9.9527959072
 30
0.0
 10
51.6404621585
 20
9.571805547
 30
0.0
 10
51.3394147633
 20
9.206954904
 30
0.0
 10
50.9783741493
 20
8.8613379315
 30
0.0
 10
50.5609381181
 20
8.5383725493
 30
0.0
 10
50.2557153293
 20
8.3448255796
 30
0.0
 10
50.0953918155
 20
8.2522633083
 30
0.0
  0
SPLINE
  5
255
100
AcDbEntity
  8
0
100
AcDbSpline
 62
7
  6
BYLAYER
 70
0
 71
3
 72
10
 73
6
 74
0
 42
0.0000001
 43
0.0000001
 44
0.0000000001
 40
0.0
 40
0.0
 40
0.0
 40
0.0
 40
0.2334005982
 40
0.4790268277
 40
1.0
 40
1.0
 40
1.0
 40
1.0
 10
50.0951674852
 20
39.360338318
 30
0.0
 10
49.8939079806
 20
39.2441417824
 30
0.0
 10
49.4682446624
 20
39.0269549439
 30
0.0
 10
48.5433975029
 20
38.6557485759
 30
0.0
 10
47.8012150923
 20
38.4608143069
 30
0.0
 10
47.2916248822
 20
38.3638859938
 30
0.0
  0
SPLINE
  5
256
100
AcDbEntity
  8
0
100
AcDbSpline
 62
7
  6
BYLAYER
 70
0
 71
3
 72
17
 73
13
 74
0
 42
0.0000001
 43
0.0000001
 44
0.0000000001
 40
0.0
 40
0.0
 40
0.0
 40
0.0
 40
0.0478528405
 40
0.0962848732
 40
0.1458380727
 40
0.1969982308
 40
0.3054952267
 40
0.424101011
 40
0.5535991204
 40
0.6936239995
 40
0.8430725714
 40
1.0
 40
1.0
 40
1.0
 40
1.0
 10
52.1784072517
 20
20.4882942096
 30
0.0
 10
52.1784172046
 20
20.5955749835
 30
0.0
 10
52.1636485919
 20
20.8117165698
 30
0.0
 10
52.0976032283
 20
21.1328502714
 30
0.0
 10
51.9882079131
 20
21.4497895261
 30
0.0
 10
51.7815217137
 20
21.8719443168
 30
0.0
 10
51.4112575322
 20
22.3804095907
 30
0.0
 10
50.8232190764
 20
22.9276692772
 30
0.0
 10
50.0977797884
 20
23.4138038327
 30
0.0
 10
49.2522495892
 20
23.8284361104
 30
0.0
 10
48.3066601029
 20
24.162058524
 30
0.0
 10
47.6374107029
 20
24.3224279133
 30
0.0
 10
47.2917929661
 20
24.3881654509
 30
0.0
  0
SPLINE
  5
257
100
AcDbEntity
  8
0
100
AcDbSpline
 62
7
  6
BYLAYER
 70
0
 71
3
 72
25
 73
21
 74
0
 42
0.0000001
 43
0.0000001
 44
0.0000000001
 40
0.0
 40
0.0
 40
0.0
 40
0.0
 40
0.0213317896
 40
0.0428922639
 40
0.0648974205
 40
0.0875426548
 40
0.1353174576
 40
0.1872182107
 40
0.2436564371
 40
0.3046042271
 40
0.3696911038
 40
0.438287812
 40
0.5095743366
 40
0.5825988645
 40
0.6563293685
 40
0.729705421
 40
0.8016833329
 40
0.8712698269
 40
0.9376260788
 40
1.0
 40
1.0
 40
1.0
 40
1.0
 10
27.0155385071
 20
37.8362044018
 30
0.0
 10
27.0155362685
 20
37.7100906834
 30
0.0
 10
26.9992117248
 20
37.4562220977
 30
0.0
 10
26.9263134747
 20
37.0785775009
 30
0.0
 10
26.805332444
 20
36.7052818072
 30
0.0
 10
26.5770289508
 20
36.20767602
 30
0.0
 10
26.1674691028
 20
35.6049380048
 30
0.0
 10
25.5131605996
 20
34.9479967952
 30
0.0
 10
24.7022625797
 20
34.3554572968
 30
0.0
 10
23.7521899792
 20
33.8387509582
 30
0.0
 10
22.6828088309
 20
33.4079143523
 30
0.0
 10
21.5165766605
 20
33.0717864583
 30
0.0
 10
20.2781313848
 20
32.8374089441
 30
0.0
 10
18.9938036648
 20
32.7097079386
 30
0.0
 10
17.6909651793
 20
32.6913570156
 30
0.0
 10
16.3973816008
 20
32.7827802004
 30
0.0
 10
15.1407072129
 20
32.9820895503
 30
0.0
 10
13.9474214284
 20
33.284941852
 30
0.0
 10
12.8432923322
 20
33.685096887
 30
0.0
 10
12.1587469381
 20
34.0225394184
 30
0.0
 10
11.8393938093
 20
34.2069138622
 30
0.0
  0
SPLINE
  5
258
100
AcDbEntity
  8
0
100
AcDbSpline
 62
7
  6
BYLAYER
 70
0
 71
3
 72
15
 73
11
 74
0
 42
0.0000001
 43
0.0000001
 44
0.0000000001
 40
0.0
 40
0.0
 40
0.0
 40
0.0
 40
0.1080090604
 40
0.2180554152
 40
0.331999272
 40
0.4513503604
 40
0.5772551371
 40
0.7104978927
 40
0.8514744023
 40
1.0
 40
1.0
 40
1.0
 40
1.0
 10
52.1781944704
 20
42.2637465636
 30
0.0
 10
52.17819504
 20
42.1291124089
 30
0.0
 10
52.1547698226
 20
41.8567648346
 30
0.0
 10
52.0504809018
 20
41.4544567217
 30
0.0
 10
51.8781317351
 20
41.0608761641
 30
0.0
 10
51.6402371756
 20
40.6798798805
 30
0.0
 10
51.3391891701
 20
40.315030073
 30
0.0
 10
50.9781641889
 20
39.9694183516
 30
0.0
 10
50.5607350461
 20
39.6464490692
 30
0.0
 10
50.2555022313
 20
39.4529070742
 30
0.0
 10
50.0951674852
 20
39.360338318
 30
0.0
  0
SPLINE
  5
259
100
AcDbEntity
  8
0
100
AcDbSpline
 62
7
  6
BYLAYER
 70
0
 71
3
 72
15
 73
11
 74
0
 42
0.0000001
 43
0.0000001
 44
0.0000000001
 40
0.0
 40
0.0
 40
0.0
 40
0.0
 40
0.1070235731
 40
0.2162378074
 40
0.3296234563
 40
0.4487800298
 40
0.5748811751
 40
0.7086347895
 40
0.8503596224
 40
1.0
 40
1.0
 40
1.0
 40
1.0
 10
52.1781956243
 20
51.5963691883
 30
0.0
 10
52.1781926367
 20
51.7368313379
 30
0.0
 10
52.1526463182
 20
52.0212410405
 30
0.0
 10
52.0390492427
 20
52.4407372034
 30
0.0
 10
51.8515475765
 20
52.8502784228
 30
0.0
 10
51.5930015709
 20
53.2454987527
 30
0.0
 10
51.2663533542
 20
53.6224143829
 30
0.0
 10
50.8754041228
 20
53.9775451348
 30
0.0
 10
50.4242164998
 20
54.3072948792
 30
0.0
 10
50.0950275443
 20
54.5030614569
 30
0.0
 10
49.9221820137
 20
54.596309002
 30
0.0
  0
SPLINE
  5
25A
100
AcDbEntity
  8
0
100
AcDbSpline
 62
7
  6
BYLAYER
 70
0
 71
3
 72
14
 73
10
 74
0
 42
0.0000001
 43
0.0000001
 44
0.0000000001
 40
0.0
 40
0.0
 40
0.0
 40
0.0
 40
0.1080464757
 40
0.2181321684
 40
0.3321060954
 40
0.4515026273
 40
0.5774652051
 40
0.7107274636
 40
1.0
 40
1.0
 40
1.0
 40
1.0
 10
49.8921757123
 20
72.23183478
 30
0.0
 10
49.8921750496
 20
72.3231934405
 30
0.0
 10
49.876359559
 20
72.5080124014
 30
0.0
 10
49.8054762634
 20
72.780969357
 30
0.0
 10
49.6886322892
 20
73.0480814491
 30
0.0
 10
49.527135337
 20
73.3065787228
 30
0.0
 10
49.3228521252
 20
73.5541775391
 30
0.0
 10
48.9872517974
 20
73.8754268317
 30
0.0
 10
48.6905969674
 20
74.0796708269
 30
0.0
 10
48.4787736206
 20
74.2019706163
 30
0.0
  0
SPLINE
  5
25B
100
AcDbEntity
  8
0
100
AcDbSpline
 62
7
  6
BYLAYER
 70
0
 71
3
 72
9
 73
5
 74
0
 42
0.0000001
 43
0.0000001
 44
0.0000000001
 40
0.0
 40
0.0
 40
0.0
 40
0.0
 40
0.2596471113
 40
1.0
 40
1.0
 40
1.0
 40
1.0
 10
22.1414247474
 20
45.3901329774
 30
0.0
 10
22.1364738129
 20
45.3975121619
 30
0.0
 10
22.1170473513
 20
45.4256879858
 30
0.0
 10
22.0961338943
 20
45.4528542859
 30
0.0
 10
22.0797159304
 20
45.4721534648
 30
0.0
  0
SPLINE
  5
25C
100
AcDbEntity
  8
0
100
AcDbSpline
 62
7
  6
BYLAYER
 70
0
 71
3
 72
10
 73
6
 74
0
 42
0.0000001
 43
0.0000001
 44
0.0000000001
 40
0.0
 40
0.0
 40
0.0
 40
0.0
 40
0.5344327618
 40
0.7720208672
 40
1.0
 40
1.0
 40
1.0
 40
1.0
 10
22.0797159304
 20
45.4721534648
 30
0.0
 10
22.0413024397
 20
45.5173082012
 30
0.0
 10
21.9774533184
 20
45.5772035771
 30
0.0
 10
21.878014987
 20
45.6277330819
 30
0.0
 10
21.8276834048
 20
45.6412550073
 30
0.0
 10
21.8026915412
 20
45.6451221816
 30
0.0
  0
SPLINE
  5
25D
100
AcDbEntity
  8
0
100
AcDbSpline
 62
7
  6
BYLAYER
 70
0
 71
3
 72
15
 73
11
 74
0
 42
0.0000001
 43
0.0000001
 44
0.0000000001
 40
0.0
 40
0.0
 40
0.0
 40
0.0
 40
0.1141531019
 40
0.2373230407
 40
0.3669709745
 40
0.4999902257
 40
0.6330160719
 40
0.7626612086
 40
0.8858533956
 40
1.0
 40
1.0
 40
1.0
 40
1.0
 10
47.9399374333
 20
74.5130660295
 30
0.0
 10
47.7432124019
 20
74.626646143
 30
0.0
 10
47.3130392945
 20
74.8269691725
 30
0.0
 10
46.6125221452
 20
75.0398881977
 30
0.0
 10
45.8541085042
 20
75.1709420182
 30
0.0
 10
45.0662731671
 20
75.2151825372
 30
0.0
 10
44.2784460597
 20
75.1709446514
 30
0.0
 10
43.5199691667
 20
75.0399410752
 30
0.0
 10
42.8194378137
 20
74.8269789202
 30
0.0
 10
42.3892236985
 20
74.6266725407
 30
0.0
 10
42.192509197
 20
74.5131000483
 30
0.0
  0
SPLINE
  5
25E
100
AcDbEntity
  8
0
100
AcDbSpline
 62
7
  6
BYLAYER
 70
0
 71
3
 72
15
 73
11
 74
0
 42
0.0000001
 43
0.0000001
 44
0.0000000001
 40
0.0
 40
0.0
 40
0.0
 40
0.0
 40
0.1733172874
 40
0.3330452529
 40
0.477864787
 40
0.6074261649
 40
0.7221970726
 40
0.8236849853
 40
0.9147593157
 40
1.0
 40
1.0
 40
1.0
 40
1.0
 10
37.6640231663
 20
36.0390123179
 30
0.0
 10
37.6640231663
 20
36.1321319088
 30
0.0
 10
37.6584688777
 20
36.3111456638
 30
0.0
 10
37.6316237084
 20
36.566754566
 30
0.0
 10
37.5866748645
 20
36.7959984889
 30
0.0
 10
37.5242133605
 20
36.9960742954
 30
0.0
 10
37.4446687575
 20
37.1648008851
 30
0.0
 10
37.3484515574
 20
37.3003625068
 30
0.0
 10
37.2357682953
 20
37.400547416
 30
0.0
 10
37.1489681713
 20
37.4422498544
 30
0.0
 10
37.1051894849
 20
37.4556989982
 30
0.0
  0
SPLINE
  5
25F
100
AcDbEntity
  8
0
100
AcDbSpline
 62
7
  6
BYLAYER
 70
0
 71
3
 72
22
 73
18
 74
0
 42
0.0000001
 43
0.0000001
 44
0.0000000001
 40
0.0
 40
0.0
 40
0.0
 40
0.0
 40
0.1446095026
 40
0.2112324682
 40
0.2741999546
 40
0.3338892824
 40
0.3908660805
 40
0.4458997787
 40
0.4999133052
 40
0.5539273559
 40
0.6089615352
 40
0.6659428125
 40
0.7256252873
 40
0.7885890456
 40
0.855229957
 40
0.9257348178
 40
1.0
 40
1.0
 40
1.0
 40
1.0
 10
49.5566184515
 20
23.080558939
 30
0.0
 10
49.8353306765
 20
22.9196402661
 30
0.0
 10
50.2256421662
 20
22.6508705632
 30
0.0
 10
50.6672980687
 20
22.2282519762
 30
0.0
 10
50.9360444256
 20
21.9024188188
 30
0.0
 10
51.1485636284
 20
21.562307908
 30
0.0
 10
51.3023257099
 20
21.2108664636
 30
0.0
 10
51.3955284171
 20
20.8516157697
 30
0.0
 10
51.4267410976
 20
20.4882956383
 30
0.0
 10
51.3955294129
 20
20.1249776766
 30
0.0
 10
51.3023506354
 20
19.7657022575
 30
0.0
 10
51.1485100007
 20
19.4143066526
 30
0.0
 10
50.9361047778
 20
19.0741308982
 30
0.0
 10
50.6673093259
 20
18.748362984
 30
0.0
 10
50.3449331405
 20
18.439772341
 30
0.0
 10
49.9722199489
 20
18.1514139111
 30
0.0
 10
49.6997098659
 20
17.9786043101
 30
0.0
 10
49.5565742049
 20
17.895965391
 30
0.0
  0
SPLINE
  5
260
100
AcDbEntity
  8
0
100
AcDbSpline
 62
7
  6
BYLAYER
 70
0
 71
3
 72
15
 73
11
 74
0
 42
0.0000001
 43
0.0000001
 44
0.0000000001
 40
0.0
 40
0.0
 40
0.0
 40
0.0
 40
0.1485265712
 40
0.2895018331
 40
0.4227430655
 40
0.5486475025
 40
0.6679990471
 40
0.7819430405
 40
0.8919898912
 40
1.0
 40
1.0
 40
1.0
 40
1.0
 10
50.0951674852
 20
48.6929609458
 30
0.0
 10
50.2555033264
 20
48.7855303343
 30
0.0
 10
50.5607366489
 20
48.9790711229
 30
0.0
 10
50.978163513
 20
49.3020399471
 30
0.0
 10
51.3391861266
 20
49.6476487175
 30
0.0
 10
51.6402328822
 20
50.0124973417
 30
0.0
 10
51.8781304772
 20
50.393492161
 30
0.0
 10
52.0504811608
 20
50.7870739584
 30
0.0
 10
52.1547696827
 20
51.189384091
 30
0.0
 10
52.178198488
 20
51.4617336897
 30
0.0
 10
52.1781956243
 20
51.5963691883
 30
0.0
  0
SPLINE
  5
261
100
AcDbEntity
  8
0
100
AcDbSpline
 62
7
  6
BYLAYER
 70
0
 71
3
 72
13
 73
9
 74
0
 42
0.0000001
 43
0.0000001
 44
0.0000000001
 40
0.0
 40
0.0
 40
0.0
 40
0.0
 40
0.1080954494
 40
0.2182373225
 40
0.3322515541
 40
0.4516786582
 40
0.7106577908
 40
1.0
 40
1.0
 40
1.0
 40
1.0
 10
41.8914462663
 20
21.0067732113
 30
0.0
 10
41.8914357124
 20
21.0668790219
 30
0.0
 10
41.9018870832
 20
21.1884758026
 30
0.0
 10
41.9485219764
 20
21.3680466589
 30
0.0
 10
42.0253510599
 20
21.5437916355
 30
0.0
 10
42.170884854
 20
21.7767107211
 30
0.0
 10
42.4293241166
 20
22.0485726344
 30
0.0
 10
42.6820216701
 20
22.2224944926
 30
0.0
 10
42.8213540729
 20
22.3029376127
 30
0.0
  0
SPLINE
  5
262
100
AcDbEntity
  8
0
100
AcDbSpline
 62
7
  6
BYLAYER
 70
0
 71
3
 72
28
 73
24
 74
0
 42
0.0000001
 43
0.0000001
 44
0.0000000001
 40
0.0
 40
0.0
 40
0.0
 40
0.0
 40
0.0576818916
 40
0.0842583637
 40
0.1094606785
 40
0.1335006349
 40
0.1566580104
 40
0.1792810381
 40
0.2017655067
 40
0.2245193667
 40
0.247924626
 40
0.2978296331
 40
0.3248819167
 40
0.3534635313
 40
0.4152563465
 40
0.4829443933
 40
0.5555111363
 40
0.6314879772
 40
0.7091275707
 40
0.786561075
 40
0.8619294069
 40
0.9335439308
 40
1.0
 40
1.0
 40
1.0
 40
1.0
 10
49.9177192441
 20
53.9616735657
 30
0.0
 10
50.1649265661
 20
53.7926285403
 30
0.0
 10
50.5071456084
 20
53.5137174249
 30
0.0
 10
50.8806164996
 20
53.0838820695
 30
0.0
 10
51.1004259548
 20
52.7559108605
 30
0.0
 10
51.2651758758
 20
52.4165971717
 30
0.0
 10
51.3730868043
 20
52.0689704052
 30
0.0
 10
51.4225356366
 20
51.7163962596
 30
0.0
 10
51.4130984871
 20
51.3625663295
 30
0.0
 10
51.3445916177
 20
51.0111874369
 30
0.0
 10
51.1727769494
 20
50.5410827347
 30
0.0
 10
50.8846140276
 20
50.0979415375
 30
0.0
 10
50.5094872483
 20
49.6977198933
 30
0.0
 10
50.046388015
 20
49.2994277773
 30
0.0
 10
49.348192527
 20
48.8594164122
 30
0.0
 10
48.3813679044
 20
48.4437733236
 30
0.0
 10
47.2973383802
 20
48.1405139348
 30
0.0
 10
46.1343693499
 20
47.9601867206
 30
0.0
 10
44.9334484423
 20
47.9090382941
 30
0.0
 10
43.7372791948
 20
47.9889459236
 30
0.0
 10
42.5881170108
 20
48.1970370668
 30
0.0
 10
41.5270008619
 20
48.5259751213
 30
0.0
 10
40.8749034186
 20
48.8315048772
 30
0.0
 10
40.5760937537
 20
49.0040188148
 30
0.0
  0
SPLINE
  5
263
100
AcDbEntity
  8
0
100
AcDbSpline
 62
7
  6
BYLAYER
 70
0
 71
3
 72
21
 73
17
 74
0
 42
0.0000001
 43
0.0000001
 44
0.0000000001
 40
0.0
 40
0.0
 40
0.0
 40
0.0
 40
0.1465404451
 40
0.2143710933
 40
0.2786295318
 40
0.3396486473
 40
0.3979186362
 40
0.4540825137
 40
0.5089376166
 40
0.563393084
 40
0.6183907998
 40
0.6748226296
 40
0.7334723806
 40
0.7949628466
 40
0.8597470017
 40
1.0
 40
1.0
 40
1.0
 40
1.0
 10
40.5760937537
 20
49.0040188148
 30
0.0
 10
40.310672602
 20
49.1572563215
 30
0.0
 10
39.9378144417
 20
49.4119941383
 30
0.0
 10
39.5107376704
 20
49.8097336373
 30
0.0
 10
39.2465108646
 20
50.1164152925
 30
0.0
 10
39.0326730863
 20
50.4364821612
 30
0.0
 10
38.8712216846
 20
50.7673599702
 30
0.0
 10
38.7638233893
 20
51.1061792523
 30
0.0
 10
38.712013746
 20
51.4498546941
 30
0.0
 10
38.7161871289
 20
51.7949869532
 30
0.0
 10
38.7765921891
 20
52.1381172803
 30
0.0
 10
38.8921241334
 20
52.4759713151
 30
0.0
 10
39.061693142
 20
52.8053677573
 30
0.0
 10
39.2833203526
 20
53.1236251861
 30
0.0
 10
39.655135851
 20
53.5402757067
 30
0.0
 10
39.9922354789
 20
53.8112471621
 30
0.0
 10
40.2351684477
 20
53.9756439448
 30
0.0
  0
SPLINE
  5
264
100
AcDbEntity
  8
0
100
AcDbSpline
 62
7
  6
BYLAYER
 70
0
 71
3
 72
15
 73
11
 74
0
 42
0.0000001
 43
0.0000001
 44
0.0000000001
 40
0.0
 40
0.0
 40
0.0
 40
0.0
 40
0.10801166
 40
0.2180602282
 40
0.3319988302
 40
0.4513592716
 40
0.5772663831
 40
0.710489749
 40
0.8514447311
 40
1.0
 40
1.0
 40
1.0
 40
1.0
 10
32.3663631939
 20
37.8362691478
 30
0.0
 10
32.3663631887
 20
38.0766933453
 30
0.0
 10
32.4080627501
 20
38.5630576836
 30
0.0
 10
32.5944757332
 20
39.2814171918
 30
0.0
 10
32.9020652686
 20
39.9843294701
 30
0.0
 10
33.3270581155
 20
40.664595041
 30
0.0
 10
33.864556789
 20
41.3161511862
 30
0.0
 10
34.50920691
 20
41.9332363753
 30
0.0
 10
35.2545476106
 20
42.5100144392
 30
0.0
 10
35.7996522014
 20
42.8555921662
 30
0.0
 10
36.0860217758
 20
43.0209267301
 30
0.0
  0
SPLINE
  5
265
100
AcDbEntity
  8
0
100
AcDbSpline
 62
7
  6
BYLAYER
 70
0
 71
3
 72
29
 73
25
 74
0
 42
0.0000001
 43
0.0000001
 44
0.0000000001
 40
0.0
 40
0.0
 40
0.0
 40
0.0
 40
0.0603311826
 40
0.0881331947
 40
0.1144012935
 40
0.139300678
 40
0.1630731712
 40
0.1860332574
 40
0.2085678816
 40
0.2311024529
 40
0.2540627619
 40
0.2778340252
 40
0.3027371083
 40
0.3290080358
 40
0.3568040596
 40
0.4171369882
 40
0.4836721805
 40
0.555463115
 40
0.6310305506
 40
0.7085643218
 40
0.7860991876
 40
0.8616671581
 40
0.933464961
 40
1.0
 40
1.0
 40
1.0
 40
1.0
 10
41.025295371
 20
23.3398691292
 30
0.0
 10
40.7744501039
 20
23.1950444111
 30
0.0
 10
40.4231252611
 20
22.953142458
 30
0.0
 10
40.0256487078
 20
22.5727365927
 30
0.0
 10
39.783714266
 20
22.2795164553
 30
0.0
 10
39.5925562942
 20
21.9733655901
 30
0.0
 10
39.4540916285
 20
21.6571095075
 30
0.0
 10
39.3702381244
 20
21.3337594859
 30
0.0
 10
39.3421388059
 20
21.0067716818
 30
0.0
 10
39.3702403579
 20
20.6797803724
 30
0.0
 10
39.4541167598
 20
20.3564458667
 30
0.0
 10
39.5925158139
 20
20.0401443845
 30
0.0
 10
39.7837927633
 20
19.7340301473
 30
0.0
 10
40.0256626926
 20
19.4407851858
 30
0.0
 10
40.4232750204
 20
19.060356601
 30
0.0
 10
41.0389036234
 20
18.6363725698
 30
0.0
 10
41.9066721589
 20
18.2324187961
 30
0.0
 10
42.8920612649
 20
17.9328243087
 30
0.0
 10
43.9584892929
 20
17.7485781024
 30
0.0
 10
45.066399344
 20
17.6863653673
 30
0.0
 10
46.1742799033
 20
17.7485598186
 30
0.0
 10
47.2408448126
 20
17.9328265564
 30
0.0
 10
48.2259611979
 20
18.2322676934
 30
0.0
 10
48.8309198399
 20
18.5139602592
 30
0.0
 10
49.1075595295
 20
18.673677305
 30
0.0
  0
SPLINE
  5
266
100
AcDbEntity
  8
0
100
AcDbSpline
 62
7
  6
BYLAYER
 70
0
 71
3
 72
21
 73
17
 74
0
 42
0.0000001
 43
0.0000001
 44
0.0000000001
 40
0.0
 40
0.0
 40
0.0
 40
0.0
 40
0.1446321076
 40
0.2112820245
 40
0.2742547259
 40
0.3339462249
 40
0.3909362173
 40
0.4459785842
 40
0.500000912
 40
0.5540230027
 40
0.6090655837
 40
0.6660521266
 40
0.7257518492
 40
0.7887305873
 40
0.8553653453
 40
1.0
 40
1.0
 40
1.0
 40
1.0
 10
49.1075595295
 20
18.673677305
 30
0.0
 10
49.3584016512
 20
18.818500207
 30
0.0
 10
49.7097223632
 20
19.0603988236
 30
0.0
 10
50.1071955631
 20
19.4407987323
 30
0.0
 10
50.3491290354
 20
19.7340143054
 30
0.0
 10
50.5402875108
 20
20.0401603787
 30
0.0
 10
50.6787541936
 20
20.3564115775
 30
0.0
 10
50.7626113291
 20
20.6797567586
 30
0.0
 10
50.7907158482
 20
21.0067399328
 30
0.0
 10
50.7626209707
 20
21.3337270628
 30
0.0
 10
50.6787529596
 20
21.6570576986
 30
0.0
 10
50.5403621899
 20
21.9733568216
 30
0.0
 10
50.3491002769
 20
22.2794660014
 30
0.0
 10
50.1072234475
 20
22.5727204326
 30
0.0
 10
49.7097304196
 20
22.9530868584
 30
0.0
 10
49.3584433344
 20
23.194981746
 30
0.0
 10
49.1075992253
 20
23.3398114077
 30
0.0
  0
SPLINE
  5
267
100
AcDbEntity
  8
0
100
AcDbSpline
 62
7
  6
BYLAYER
 70
0
 71
3
 72
22
 73
18
 74
0
 42
0.0000001
 43
0.0000001
 44
0.0000000001
 40
0.0
 40
0.0
 40
0.0
 40
0.0
 40
0.0623736056
 40
0.1287725198
 40
0.1983823492
 40
0.2703754359
 40
0.4173945886
 40
0.4904374238
 40
0.5617461301
 40
0.6303626788
 40
0.6954705691
 40
0.7564352559
 40
0.8128879904
 40
0.8648053607
 40
0.9125928121
 40
0.9571804802
 40
1.0
 40
1.0
 40
1.0
 40
1.0
 10
42.8213540729
 20
22.3029376127
 30
0.0
 10
42.9353740527
 20
22.3687666857
 30
0.0
 10
43.1798836996
 20
22.4892448964
 30
0.0
 10
43.5741924141
 20
22.6322315081
 30
0.0
 10
44.0004449266
 20
22.7404154681
 30
0.0
 10
44.6027648619
 20
22.8358245834
 30
0.0
 10
45.2226072268
 20
22.8529382263
 30
0.0
 10
45.8351719409
 20
22.7920469588
 30
0.0
 10
46.2775117492
 20
22.7083490786
 30
0.0
 10
46.6940095094
 20
22.5882753701
 30
0.0
 10
47.0759490311
 20
22.4344453932
 30
0.0
 10
47.4152503629
 20
22.2498789342
 30
0.0
 10
47.7048288375
 20
22.0382651483
 30
0.0
 10
47.9385685316
 20
21.8036101227
 30
0.0
 10
48.110941897
 20
21.5499575961
 30
0.0
 10
48.2172629254
 20
21.2824474137
 30
0.0
 10
48.2413927639
 20
21.0971570269
 30
0.0
 10
48.2414086342
 20
21.0067732229
 30
0.0
  0
SPLINE
  5
268
100
AcDbEntity
  8
0
100
AcDbSpline
 62
7
  6
BYLAYER
 70
0
 71
3
 72
21
 73
17
 74
0
 42
0.0000001
 43
0.0000001
 44
0.0000000001
 40
0.0
 40
0.0
 40
0.0
 40
0.0
 40
0.0951724303
 40
0.1483596615
 40
0.2053162048
 40
0.2658460002
 40
0.3295712904
 40
0.3959767375
 40
0.4644452863
 40
0.5342855749
 40
0.6047573674
 40
0.7444724418
 40
0.8123267126
 40
0.877901759
 40
0.9406425739
 40
1.0
 40
1.0
 40
1.0
 40
1.0
 10
38.3115742335
 20
19.2034646968
 30
0.0
 10
38.51342215
 20
18.8497435531
 30
0.0
 10
38.9381557075
 20
18.3588663993
 30
0.0
 10
39.6338104482
 20
17.8213359839
 30
0.0
 10
40.2623786379
 20
17.4456566389
 30
0.0
 10
40.9671271254
 20
17.1194382542
 30
0.0
 10
41.7374823483
 20
16.8473478115
 30
0.0
 10
42.5610212574
 20
16.6337028004
 30
0.0
 10
43.4246398698
 20
16.4817953917
 30
0.0
 10
44.3146436466
 20
16.39417304
 30
0.0
 10
45.5133221721
 20
16.3649134438
 30
0.0
 10
46.7042014176
 20
16.4656091128
 30
0.0
 10
47.8506810758
 20
16.6979670993
 30
0.0
 10
48.6581106414
 20
16.9315058629
 30
0.0
 10
49.4078638757
 20
17.2221918235
 30
0.0
 10
49.8754197058
 20
17.4578857374
 30
0.0
 10
50.0953918155
 20
17.5848859361
 30
0.0
  0
SPLINE
  5
269
100
AcDbEntity
  8
0
100
AcDbSpline
 62
7
  6
BYLAYER
 70
0
 71
3
 72
15
 73
11
 74
0
 42
0.0000001
 43
0.0000001
 44
0.0000000001
 40
0.0
 40
0.0
 40
0.0
 40
0.0
 40
0.1485154254
 40
0.2894979725
 40
0.4227484212
 40
0.5486517182
 40
0.667997426
 40
0.7819404278
 40
0.8919888848
 40
1.0
 40
1.0
 40
1.0
 40
1.0
 10
50.0953918155
 20
17.5848859361
 30
0.0
 10
50.2557153293
 20
17.6774482074
 30
0.0
 10
50.5609381181
 20
17.870995177
 30
0.0
 10
50.9783741493
 20
18.1939605592
 30
0.0
 10
51.3394147633
 20
18.5395775318
 30
0.0
 10
51.6404621585
 20
18.9044281747
 30
0.0
 10
51.8783484789
 20
19.285418535
 30
0.0
 10
52.0506830624
 20
19.6789967645
 30
0.0
 10
52.1549998966
 20
20.0813037662
 30
0.0
 10
52.1783947607
 20
20.3536577052
 30
0.0
 10
52.1784072517
 20
20.4882942096
 30
0.0
  0
SPLINE
  5
26A
100
AcDbEntity
  8
0
100
AcDbSpline
 62
7
  6
BYLAYER
 70
0
 71
3
 72
30
 73
26
 74
0
 42
0.0000001
 43
0.0000001
 44
0.0000000001
 40
0.0
 40
0.0
 40
0.0
 40
0.0
 40
0.0665295123
 40
0.1383206856
 40
0.2138823047
 40
0.2914112269
 40
0.3689403959
 40
0.444503784
 40
0.5162906386
 40
0.5828215613
 40
0.6431501741
 40
0.6709441193
 40
0.6972130284
 40
0.7221142969
 40
0.7458838836
 40
0.7688427732
 40
0.7913759947
 40
0.813909371
 40
0.8368682755
 40
0.8606394398
 40
0.8855374758
 40
0.9118043973
 40
0.9396053626
 40
0.9690183067
 40
1.0
 40
1.0
 40
1.0
 40
1.0
 10
49.5565742049
 20
17.895965391
 30
0.0
 10
49.2492018079
 20
17.7185049141
 30
0.0
 10
48.5770409796
 20
17.4055173482
 30
0.0
 10
47.4824897284
 20
17.0728094524
 30
0.0
 10
46.2974401887
 20
16.8680620573
 30
0.0
 10
45.0664701759
 20
16.7989506857
 30
0.0
 10
43.8354543878
 20
16.8680678372
 30
0.0
 10
42.6505211373
 20
17.0727811307
 30
0.0
 10
41.5556331236
 20
17.4056608548
 30
0.0
 10
40.5914397831
 20
17.8544932259
 30
0.0
 10
39.9074072589
 20
18.3255810888
 30
0.0
 10
39.4656116217
 20
18.7482694381
 30
0.0
 10
39.1968678882
 20
19.0740926906
 30
0.0
 10
38.9843274118
 20
19.4142102505
 30
0.0
 10
38.830552019
 20
19.7656556388
 30
0.0
 10
38.7373364554
 20
20.1249122438
 30
0.0
 10
38.7061134161
 20
20.4882388606
 30
0.0
 10
38.7373170636
 20
20.8515639793
 30
0.0
 10
38.8304902195
 20
21.210846889
 30
0.0
 10
38.9843277348
 20
21.5622500486
 30
0.0
 10
39.1967321774
 20
21.902433218
 30
0.0
 10
39.465529129
 20
22.2282081913
 30
0.0
 10
39.7879089284
 20
22.5368054002
 30
0.0
 10
40.1606277136
 20
22.8251697271
 30
0.0
 10
40.4331424551
 20
22.997982565
 30
0.0
 10
40.5762806956
 20
23.0806229734
 30
0.0
  0
SPLINE
  5
26B
100
AcDbEntity
  8
0
100
AcDbSpline
 62
7
  6
BYLAYER
 70
0
 71
3
 72
15
 73
11
 74
0
 42
0.0000001
 43
0.0000001
 44
0.0000000001
 40
0.0
 40
0.0
 40
0.0
 40
0.0
 40
0.0736692101
 40
0.1550251199
 40
0.2497565342
 40
0.3613387392
 40
0.4916185511
 40
0.6415046178
 40
0.8111035262
 40
1.0
 40
1.0
 40
1.0
 40
1.0
 10
21.8026915412
 20
45.6451221816
 30
0.0
 10
21.7620224886
 20
45.6514152022
 30
0.0
 10
21.673492689
 20
45.6489928908
 30
0.0
 10
21.5406310607
 20
45.6012244759
 30
0.0
 10
21.4052909071
 20
45.5126576361
 30
0.0
 10
21.2669592769
 20
45.384400683
 30
0.0
 10
21.1253965437
 20
45.2170057978
 30
0.0
 10
20.9811141099
 20
45.0109975921
 30
0.0
 10
20.8347390797
 20
44.7674313516
 30
0.0
 10
20.741225464
 20
44.5902326748
 30
0.0
 10
20.6940189675
 20
44.4958595828
 30
0.0
  0
SPLINE
  5
26C
100
AcDbEntity
  8
0
100
AcDbSpline
 62
7
  6
BYLAYER
 70
0
 71
3
 72
21
 73
17
 74
0
 42
0.0000001
 43
0.0000001
 44
0.0000000001
 40
0.0
 40
0.0
 40
0.0
 40
0.0
 40
0.0439083401
 40
0.0888624897
 40
0.1357835594
 40
0.1853971206
 40
0.2382001982
 40
0.2944627994
 40
0.3542585237
 40
0.4174864055
 40
0.4839113316
 40
0.5531824872
 40
0.6983563795
 40
0.8488593856
 40
0.9246955483
 40
1.0
 40
1.0
 40
1.0
 40
1.0
 10
6.695555398
 20
37.8362044253
 30
0.0
 10
6.6955632469
 20
37.5926634538
 30
0.0
 10
6.7433896878
 20
37.0985367362
 30
0.0
 10
6.9564368595
 20
36.3720127006
 30
0.0
 10
7.3067570848
 20
35.665635788
 30
0.0
 10
7.7888832363
 20
34.9883538151
 30
0.0
 10
8.3959818663
 20
34.3476621315
 30
0.0
 10
9.1202186008
 20
33.7505147071
 30
0.0
 10
9.9528916605
 20
33.2037332359
 30
0.0
 10
10.8838844051
 20
32.7133719065
 30
0.0
 10
11.9021558208
 20
32.2851902155
 30
0.0
 10
13.3828040399
 20
31.7964724224
 30
0.0
 10
15.3703752497
 20
31.3775386129
 30
0.0
 10
17.4307598612
 20
31.2184563048
 30
0.0
 10
19.1044668409
 20
31.2480985056
 30
0.0
 10
19.940719888
 20
31.3163526031
 30
0.0
 10
20.3556738648
 20
31.3640115448
 30
0.0
  0
SPLINE
  5
26D
100
AcDbEntity
  8
0
100
AcDbSpline
 62
7
  6
BYLAYER
 70
0
 71
3
 72
26
 73
22
 74
0
 42
0.0000001
 43
0.0000001
 44
0.0000000001
 40
0.0
 40
0.0
 40
0.0
 40
0.0
 40
0.066135527
 40
0.1372353787
 40
0.2120391031
 40
0.2890455905
 40
0.3665776976
 40
0.4429332652
 40
0.5164831601
 40
0.5858015417
 40
0.6498020035
 40
0.7079049743
 40
0.7602440482
 40
0.7846001225
 40
0.808004507
 40
0.8307539787
 40
0.8531903361
 40
0.8756828204
 40
0.8985955209
 40
0.9468361775
 40
1.0
 40
1.0
 40
1.0
 40
1.0
 10
41.0251046903
 20
49.7817328874
 30
0.0
 10
41.2811855038
 20
49.6338879055
 30
0.0
 10
41.8380912108
 20
49.3702518963
 30
0.0
 10
42.7430791159
 20
49.0804835442
 30
0.0
 10
43.7233720733
 20
48.8891756283
 30
0.0
 10
44.74700102
 20
48.8024144629
 30
0.0
 10
45.7810176217
 20
48.8230759385
 30
0.0
 10
46.7918723884
 20
48.9504287407
 30
0.0
 10
47.746923529
 20
49.1804284244
 30
0.0
 10
48.6155028849
 20
49.5057530977
 30
0.0
 10
49.3701122854
 20
49.9166450656
 30
0.0
 10
49.9868015027
 20
50.4009048241
 30
0.0
 10
50.3782187542
 20
50.8671298826
 30
0.0
 10
50.5945016777
 20
51.2603871885
 30
0.0
 10
50.7067303044
 20
51.5561881857
 30
0.0
 10
50.7717704618
 20
51.8571206708
 30
0.0
 10
50.7886304039
 20
52.1605149864
 30
0.0
 10
50.7572302095
 20
52.4634886202
 30
0.0
 10
50.6497761204
 20
52.8697265914
 30
0.0
 10
50.3876306068
 20
53.3683950443
 30
0.0
 10
50.0813864105
 20
53.7083188383
 30
0.0
 10
49.9064164223
 20
53.8692094598
 30
0.0
  0
SPLINE
  5
26E
100
AcDbEntity
  8
0
100
AcDbSpline
 62
7
  6
BYLAYER
 70
0
 71
3
 72
20
 73
16
 74
0
 42
0.0000001
 43
0.0000001
 44
0.0000000001
 40
0.0
 40
0.0
 40
0.0
 40
0.0
 40
0.0438772132
 40
0.0888050856
 40
0.1357137319
 40
0.1853350876
 40
0.2381641617
 40
0.294470259
 40
0.3543219491
 40
0.4176131293
 40
0.484102617
 40
0.5534314636
 40
0.6986732559
 40
0.8491354329
 40
1.0
 40
1.0
 40
1.0
 40
1.0
 10
9.2355755773
 20
37.8362043437
 30
0.0
 10
9.235591099
 20
38.0265328463
 30
0.0
 10
9.2731176558
 20
38.4127300804
 30
0.0
 10
9.4404142728
 20
38.9804285853
 30
0.0
 10
9.7154480627
 20
39.5322010936
 30
0.0
 10
10.0938971475
 20
40.0610063517
 30
0.0
 10
10.5702967207
 20
40.561006362
 30
0.0
 10
11.1385260856
 20
41.0266491974
 30
0.0
 10
11.7916497182
 20
41.4526199042
 30
0.0
 10
12.5216753457
 20
41.8341482814
 30
0.0
 10
13.3198803371
 20
42.1666802505
 30
0.0
 10
14.4798799243
 20
42.5452356502
 30
0.0
 10
16.0359955778
 20
42.8674840878
 30
0.0
 10
17.9726632536
 20
43.0094489126
 30
0.0
 10
19.2821959853
 20
42.9395499444
 30
0.0
 10
19.9319620277
 20
42.8616993281
 30
0.0
  0
SPLINE
  5
26F
100
AcDbEntity
  8
0
100
AcDbSpline
 62
7
  6
BYLAYER
 70
0
 71
3
 72
18
 73
14
 74
0
 42
0.0000001
 43
0.0000001
 44
0.0000000001
 40
0.0
 40
0.0
 40
0.0
 40
0.0
 40
0.0436570435
 40
0.0878560286
 40
0.1333535247
 40
0.1808487487
 40
0.2839505369
 40
0.3406422826
 40
0.4010029482
 40
0.5327494716
 40
0.6783798033
 40
0.8353512642
 40
1.0
 40
1.0
 40
1.0
 40
1.0
 10
35.2238787633
 20
38.0332312085
 30
0.0
 10
35.1748832243
 20
38.0482762027
 30
0.0
 10
35.0733833064
 20
38.0699076773
 30
0.0
 10
34.9161641134
 20
38.0751269579
 30
0.0
 10
34.7558487683
 20
38.0530379612
 30
0.0
 10
34.5350160903
 20
37.9850648364
 30
0.0
 10
34.3215683114
 20
37.8610104395
 30
0.0
 10
34.1239231491
 20
37.6940658784
 30
0.0
 10
33.9214641925
 20
37.4827789877
 30
0.0
 10
33.6899803289
 20
37.1583451271
 30
0.0
 10
33.4559756391
 20
36.7038541449
 30
0.0
 10
33.2611024824
 20
36.1901035522
 30
0.0
 10
33.1589676786
 20
35.8261228021
 30
0.0
 10
33.1134370047
 20
35.6382637498
 30
0.0
  0
SPLINE
  5
270
100
AcDbEntity
  8
0
100
AcDbSpline
 62
7
  6
BYLAYER
 70
0
 71
3
 72
19
 73
15
 74
0
 42
0.0000001
 43
0.0000001
 44
0.0000000001
 40
0.0
 40
0.0
 40
0.0
 40
0.0
 40
0.0312880096
 40
0.0650319366
 40
0.1030906895
 40
0.146577351
 40
0.1959751299
 40
0.2513367109
 40
0.3123956823
 40
0.3786754745
 40
0.5241190096
 40
0.6812601946
 40
0.8425405836
 40
1.0
 40
1.0
 40
1.0
 40
1.0
 10
37.1051894849
 20
37.4556989982
 30
0.0
 10
37.0580224209
 20
37.4701890773
 30
0.0
 10
36.9544567438
 20
37.4842826329
 30
0.0
 10
36.7921983462
 20
37.4578091814
 30
0.0
 10
36.6233183953
 20
37.3870534564
 30
0.0
 10
36.4494803408
 20
37.2740734315
 30
0.0
 10
36.2722770447
 20
37.1207040199
 30
0.0
 10
36.0938700059
 20
36.9289606678
 30
0.0
 10
35.9165616914
 20
36.7014611018
 30
0.0
 10
35.677574654
 20
36.3433923645
 30
0.0
 10
35.4020975335
 20
35.8294497645
 30
0.0
 10
35.1226330349
 20
35.1522801172
 30
0.0
 10
34.9008021827
 20
34.4343003763
 30
0.0
 10
34.7966504983
 20
33.9415966148
 30
0.0
 10
34.7580394363
 20
33.6962960732
 30
0.0
  0
SPLINE
  5
271
100
AcDbEntity
  8
0
100
AcDbSpline
 62
7
  6
BYLAYER
 70
0
 71
3
 72
18
 73
14
 74
0
 42
0.0000001
 43
0.0000001
 44
0.0000000001
 40
0.0
 40
0.0
 40
0.0
 40
0.0
 40
0.1495965085
 40
0.2194426056
 40
0.2859465699
 40
0.4097691212
 40
0.5244770388
 40
0.5800689656
 40
0.6353866754
 40
0.6912051875
 40
0.7482693492
 40
0.8684249592
 40
1.0
 40
1.0
 40
1.0
 40
1.0
 10
47.939897043
 20
71.1949191955
 30
0.0
 10
48.093691851
 20
71.2837121393
 30
0.0
 10
48.310989039
 20
71.4300215239
 30
0.0
 10
48.5654415491
 20
71.6553457652
 30
0.0
 10
48.7762068367
 20
71.8816155907
 30
0.0
 10
48.981376186
 20
72.1839759681
 30
0.0
 10
49.0999633267
 20
72.5173964667
 30
0.0
 10
49.1331742366
 20
72.7840168873
 30
0.0
 10
49.1289126394
 20
72.9826111843
 30
0.0
 10
49.0955921514
 20
73.1801875357
 30
0.0
 10
49.0115173745
 20
73.4445946801
 30
0.0
 10
48.8303092685
 20
73.7679086971
 30
0.0
 10
48.6278848578
 20
73.9908465378
 30
0.0
 10
48.5131916071
 20
74.0968739437
 30
0.0
  0
SPLINE
  5
272
100
AcDbEntity
  8
0
100
AcDbSpline
 62
7
  6
BYLAYER
 70
0
 71
3
 72
9
 73
5
 74
0
 42
0.0000001
 43
0.0000001
 44
0.0000000001
 40
0.0
 40
0.0
 40
0.0
 40
0.0
 40
0.2400312447
 40
1.0
 40
1.0
 40
1.0
 40
1.0
 10
48.4502981371
 20
74.153202692
 30
0.0
 10
48.4125338059
 20
74.1859850962
 30
0.0
 10
48.2515145235
 20
74.3182939974
 30
0.0
 10
48.0770571526
 20
74.4338993206
 30
0.0
 10
47.9399374333
 20
74.5130660295
 30
0.0
  0
SPLINE
  5
273
100
AcDbEntity
  8
0
100
AcDbSpline
 62
7
  6
BYLAYER
 70
0
 71
3
 72
23
 73
19
 74
0
 42
0.0000001
 43
0.0000001
 44
0.0000000001
 40
0.0
 40
0.0
 40
0.0
 40
0.0
 40
0.0623726908
 40
0.128752234
 40
0.1983485842
 40
0.2703358339
 40
0.3437254667
 40
0.417467181
 40
0.4905029774
 40
0.5618019672
 40
0.630412063
 40
0.6955096082
 40
0.7564675384
 40
0.8129148124
 40
0.86482252
 40
0.9126054346
 40
0.9571873369
 40
1.0
 40
1.0
 40
1.0
 40
1.0
 10
48.4787146536
 20
50.1446783455
 30
0.0
 10
48.3053833495
 20
50.0446060678
 30
0.0
 10
47.9337544533
 20
49.8614517692
 30
0.0
 10
47.3343926403
 20
49.644166892
 30
0.0
 10
46.6865802668
 20
49.479737798
 30
0.0
 10
46.0043813952
 20
49.3716053713
 30
0.0
 10
45.3021582418
 20
49.3219346289
 30
0.0
 10
44.5948975275
 20
49.3318726216
 30
0.0
 10
43.8976946217
 20
49.4012391525
 30
0.0
 10
43.2253867006
 20
49.5284663543
 30
0.0
 10
42.5922666878
 20
49.7109083874
 30
0.0
 10
42.0117474805
 20
49.944819119
 30
0.0
 10
41.4959848604
 20
50.2253167789
 30
0.0
 10
41.0557912564
 20
50.5469463767
 30
0.0
 10
40.7005913717
 20
50.9037004187
 30
0.0
 10
40.4384783511
 20
51.2891813771
 30
0.0
 10
40.2769451145
 20
51.6958342255
 30
0.0
 10
40.2402419422
 20
51.9774682394
 30
0.0
 10
40.2402387689
 20
52.1148482317
 30
0.0
  0
SPLINE
  5
274
100
AcDbEntity
  8
0
100
AcDbSpline
 62
7
  6
BYLAYER
 70
0
 71
3
 72
14
 73
10
 74
0
 42
0.0000001
 43
0.0000001
 44
0.0000000001
 40
0.0
 40
0.0
 40
0.0
 40
0.0
 40
0.2892443175
 40
0.4225654763
 40
0.5485130759
 40
0.6678887194
 40
0.7818622368
 40
0.8919526657
 40
1.0
 40
1.0
 40
1.0
 40
1.0
 10
48.4787146536
 20
70.2616648987
 30
0.0
 10
48.690524904
 20
70.3839528739
 30
0.0
 10
48.9871809601
 20
70.588247357
 30
0.0
 10
49.3228641482
 20
70.9094477649
 30
0.0
 10
49.5271530478
 20
71.1570825154
 30
0.0
 10
49.6886087392
 20
71.4155774114
 30
0.0
 10
49.8054571096
 20
71.6826789338
 30
0.0
 10
49.8763623274
 20
71.9556433398
 30
0.0
 10
49.892176375
 20
72.1404729237
 30
0.0
 10
49.8921757123
 20
72.23183478
 30
0.0
  0
SPLINE
  5
275
100
AcDbEntity
  8
0
100
AcDbSpline
 62
7
  6
BYLAYER
 70
0
 71
3
 72
14
 73
10
 74
0
 42
0.0000001
 43
0.0000001
 44
0.0000000001
 40
0.0
 40
0.0
 40
0.0
 40
0.0
 40
0.108044108
 40
0.2181338116
 40
0.3321071037
 40
0.4514835629
 40
0.5774329279
 40
0.7107567863
 40
1.0
 40
1.0
 40
1.0
 40
1.0
 10
49.8921674711
 20
52.1148482219
 30
0.0
 10
49.8921695815
 20
52.0234892796
 30
0.0
 10
49.8763554221
 20
51.8386630527
 30
0.0
 10
49.8054481361
 20
51.5657040555
 30
0.0
 10
49.6886107584
 20
51.298598541
 30
0.0
 10
49.5271525856
 20
51.0401031393
 30
0.0
 10
49.3228646907
 20
50.7924628216
 30
0.0
 10
48.9871785337
 20
50.4712624602
 30
0.0
 10
48.6905236648
 20
50.2669656052
 30
0.0
 10
48.4787146536
 20
50.1446783455
 30
0.0
  0
SPLINE
  5
276
100
AcDbEntity
  8
0
100
AcDbSpline
 62
7
  6
BYLAYER
 70
0
 71
3
 72
23
 73
19
 74
0
 42
0.0000001
 43
0.0000001
 44
0.0000000001
 40
0.0
 40
0.0
 40
0.0
 40
0.0
 40
0.0428130997
 40
0.0873948672
 40
0.1351778162
 40
0.1870856304
 40
0.2435329977
 40
0.3044910125
 40
0.3695882715
 40
0.4381976855
 40
0.509495904
 40
0.5825318263
 40
0.6562755181
 40
0.7296662108
 40
0.8016530599
 40
0.8712488173
 40
0.9376277666
 40
1.0
 40
1.0
 40
1.0
 40
1.0
 10
40.2402305277
 20
72.2318347801
 30
0.0
 10
40.2402315242
 20
72.0944531407
 30
0.0
 10
40.2769358258
 20
71.8128176582
 30
0.0
 10
40.4384643672
 20
71.4061610163
 30
0.0
 10
40.7005816663
 20
71.0206813782
 30
0.0
 10
41.0557819189
 20
70.6639259923
 30
0.0
 10
41.4959763257
 20
70.3422939305
 30
0.0
 10
42.0117407981
 20
70.0617980907
 30
0.0
 10
42.5922585528
 20
69.827888659
 30
0.0
 10
43.2253741269
 20
69.645447065
 30
0.0
 10
43.8976791992
 20
69.5182211114
 30
0.0
 10
44.5948876459
 20
69.4488541659
 30
0.0
 10
45.3021597938
 20
69.438917766
 30
0.0
 10
46.0043927398
 20
69.4885885553
 30
0.0
 10
46.6865925094
 20
69.5967249752
 30
0.0
 10
47.3344005403
 20
69.7611549919
 30
0.0
 10
47.9337581062
 20
69.9784394529
 30
0.0
 10
48.3053843101
 20
70.1615931756
 30
0.0
 10
48.4787146536
 20
70.2616648987
 30
0.0
  0
SPLINE
  5
277
100
AcDbEntity
  8
0
100
AcDbSpline
 62
7
  6
BYLAYER
 70
0
 71
3
 72
10
 73
6
 74
0
 42
0.0000001
 43
0.0000001
 44
0.0000000001
 40
0.0
 40
0.0
 40
0.0
 40
0.0
 40
0.5209731723
 40
0.7665994018
 40
1.0
 40
1.0
 40
1.0
 40
1.0
 10
47.2916248822
 20
47.6965086216
 30
0.0
 10
47.8012150923
 20
47.7934369347
 30
0.0
 10
48.5433975029
 20
47.9883712037
 30
0.0
 10
49.4682446624
 20
48.3595775717
 30
0.0
 10
49.8939079806
 20
48.5767644102
 30
0.0
 10
50.0951674852
 20
48.6929609458
 30
0.0
  0
SPLINE
  5
278
100
AcDbEntity
  8
0
100
AcDbSpline
 62
7
  6
BYLAYER
 70
0
 71
3
 72
14
 73
10
 74
0
 42
0.0000001
 43
0.0000001
 44
0.0000000001
 40
0.0
 40
0.0
 40
0.0
 40
0.0
 40
0.1485938791
 40
0.2896323992
 40
0.5484450989
 40
0.6678499645
 40
0.7818446596
 40
0.8919408807
 40
1.0
 40
1.0
 40
1.0
 40
1.0
 10
24.411700035
 20
41.465494918
 30
0.0
 10
24.6121238915
 20
41.3497827683
 30
0.0
 10
24.9937838221
 20
41.1077604553
 30
0.0
 10
25.6698136133
 20
40.584760912
 30
0.0
 10
26.2332006652
 20
39.9919489656
 30
0.0
 10
26.6404273222
 20
39.3398461718
 30
0.0
 10
26.8558870733
 20
38.8478277898
 30
0.0
 10
26.9862493972
 20
38.3449452177
 30
0.0
 10
27.0155414945
 20
38.0045015782
 30
0.0
 10
27.0155385071
 20
37.8362044018
 30
0.0
  0
SPLINE
  5
279
100
AcDbEntity
  8
0
100
AcDbSpline
 62
7
  6
BYLAYER
 70
0
 71
3
 72
11
 73
7
 74
0
 42
0.0000001
 43
0.0000001
 44
0.0000000001
 40
0.0
 40
0.0
 40
0.0
 40
0.0
 40
0.2649343088
 40
0.5211363155
 40
0.7666708513
 40
1.0
 40
1.0
 40
1.0
 40
1.0
 10
20.9133437621
 20
42.7098837442
 30
0.0
 10
21.236835761
 20
42.6482052105
 30
0.0
 10
21.8691226403
 20
42.5042423289
 30
0.0
 10
22.7805325981
 20
42.2225160356
 30
0.0
 10
23.6293697283
 20
41.8815622587
 30
0.0
 10
24.1605222117
 20
41.6105092213
 30
0.0
 10
24.411700035
 20
41.465494918
 30
0.0
  0
ELLIPSE
  5
27A
100
AcDbEntity
  8
0
100
AcDbEllipse
 62
7
  6
BYLAYER
 10
14.090767547
 20
38.8319186477
 30
0.0
 11
4.2035109112
 21
7.1881857761
 31
0.0
 40
0.5273672021
 41
0.2050726363
 42
0.8369761883
  0
ELLIPSE
  5
27B
100
AcDbEntity
  8
0
100
AcDbEllipse
 62
7
  6
BYLAYER
 10
21.1525906396
 20
39.0315458818
 30
0.0
 11
0.3652994144
 21
2.2780890398
 31
0.0
 40
0.2129159182
 41
1.0607556192
 42
3.1118479521
  0
ENDSEC
  0
SECTION
  2
OBJECTS
  0
DICTIONARY
  5
C
100
AcDbDictionary
280
0
281
1
  3
ACAD_GROUP
350
D
  3
ACAD_MLINESTYLE
350
17
  3
ACAD_LAYOUT
350
1A
  3
ACAD_PLOTSETTINGS
350
19
  3
ACAD_PLOTSTYLENAME
350
E
  0
DICTIONARY
  5
D
102
{ACAD_REACTORS
330
C
102
}
100
AcDbDictionary
280
0
281
1
  0
ACDBDICTIONARYWDFLT
  5
E
102
{ACAD_REACTORS
330
C
102
}
100
AcDbDictionary
281
1
  3
Normal
350
F
100
AcDbDictionaryWithDefault
340
F
  0
DICTIONARY
  5
17
102
{ACAD_REACTORS
330
C
102
}
100
AcDbDictionary
280
0
281
1
  3
Standard
350
18
  0
DICTIONARY
  5
19
102
{ACAD_REACTORS
330
C
102
}
100
AcDbDictionary
281
1
  0
DICTIONARY
  5
1A
102
{ACAD_REACTORS
330
C
102
}
100
AcDbDictionary
281
1
  3
Model
350
27C
  3
Layout1
350
27D
  0
ACDBPLACEHOLDER
  5
F
102
{ACAD_REACTORS
330
E
102
}
  0
MLINESTYLE
  5
18
102
{ACAD_REACTORS
330
17
102
}
100
AcDbMlineStyle
  2
STANDARD
 70
0
  3

 62
256
 51
90.0
 52
90.0
 71
2
 49
0.5
 62
256
  6
BYLAYER
 49
-0.5
 62
256
  6
BYLAYER
  0
LAYOUT
  5
27C
102
{ACAD_REACTORS
330
1A
102
}
100
AcDbPlotSettings
  1

  2
none_device
  4

  6

 40
0.0
 41
0.0
 42
0.0
 43
0.0
 44
210.0
 45
297.0
 46
0.0
 47
0.0
 48
0.0
 49
0.0
140
0.0
141
0.0
142
1.0
143
1.0
 70
1024
 72
1
 73
0
 74
0
  7

 75
0
147
1.0
148
0.0
149
0.0
100
AcDbLayout
  1
Model
 70
0
 71
0
 10
0.0
 20
0.0
 11
210.0
 21
297.0
 12
0.0
 22
0.0
 32
0.0
 14
0.0
 24
0.0
 34
0.0
 15
0.0
 25
0.0
 35
0.0
146
0.0
 13
0.0
 23
0.0
 33
0.0
 16
1.0
 26
0.0
 36
0.0
 17
0.0
 27
1.0
 37
0.0
 76
0
330
210
345
0
346
0
  0
LAYOUT
  5
27D
102
{ACAD_REACTORS
330
1A
102
}
100
AcDbPlotSettings
  1

  2
none_device
  4

  6

 40
0.0
 41
0.0
 42
0.0
 43
0.0
 44
210.0
 45
297.0
 46
0.0
 47
0.0
 48
0.0
 49
0.0
140
0.0
141
0.0
142
1.0
143
1.0
 70
0
 72
1
 73
0
 74
0
  7

 75
0
147
1.0
148
0.0
149
0.0
100
AcDbLayout
  1
Layout1
 70
0
 71
1
 10
0.0
 20
0.0
 11
210.0
 21
297.0
 12
0.0
 22
0.0
 32
0.0
 14
0.0
 24
0.0
 34
0.0
 15
0.0
 25
0.0
 35
0.0
146
0.0
 13
0.0
 23
0.0
 33
0.0
 16
1.0
 26
0.0
 36
0.0
 17
0.0
 27
1.0
 37
0.0
 76
0
330
211
345
0
346
0
  0
ENDSEC
  0
EOF
