999
DXF file: C:\Users\sesa63760\Dev\_Creo\CAD\MCADID0003080_3D-CAD\drw0001_1.dxf
999
Pro/ENGINEER 2019471 by Parametric Technology Corporation
  0
SECTION
  2
HEADER
  9
$ACADVER
  1
AC1024
  9
$DWGCODEPAGE
  3
ANSI_1252
  9
$EXTMAX
 10
124.966660288
 20
176.7385624073
 30
0.0
  9
$EXTMIN
 10
0.0
 20
0.0
 30
0.0
  9
$LIMMIN
 10
0.0
 20
0.0
  9
$LIMMAX
 10
124.966660288
 20
176.7385624073
  9
$VIEWCTR
 10
62.483330144
 20
88.3692812036
  9
$VIEWSIZE
 40
176.7385624073
  9
$CLAYER
  8
0
  9
$LTSCALE
 40
11.5207359199
  9
$CELTYPE
  6
BYLAYER
  9
$DIMSCALE
 40
1.0
  9
$DIMASZ
 40
1.4876983368
  9
$DIMEXO
 40
1.0
  9
$DIMDLI
 40
7.959781181
  9
$DIMEXE
 40
1.0
  9
$DIMCEN
 40
1.8852113323
  9
$DIMLFAC
 40
1.0
  9
$DIMBLK
  1
_FILLED
  9
$DIMALT
 70
0
  9
$DIMALTF
 40
0.0393700787
  9
$DIMTXT
 40
2.0827776715
  9
$DIMTOL
 70
1
  9
$DIMLIM
 70
0
  9
$DIMTFAC
 40
1.0
  9
$DIMTP
 40
0.01
  9
$DIMTM
 40
0.01
  9
$DIMGAP
 40
0.625
  9
$DIMDSEP
 70
46
  9
$AUNITS
 70
0
  9
$PDMODE
 70
3
  9
$PDSIZE
 40
0.3125
  9
$HANDSEED
  5
2A2
  9
$TILEMODE
 70
1
  9
$MEASUREMENT
 70
1
  9
$INSUNITS
 70
4
  0
ENDSEC
  0
SECTION
  2
CLASSES
  0
CLASS
  1
ACDBDICTIONARYWDFLT
  2
AcDbDictionaryWithDefault
  3
AutoCAD 2000
 90
0
 91
1
280
0
281
0
  0
CLASS
  1
ACDBPLACEHOLDER
  2
AcDbPlaceHolder
  3
AutoCAD 2000
 90
0
 91
1
280
0
281
0
  0
CLASS
  1
LAYOUT
  2
AcDbLayout
  3
AutoCAD 2000
 90
0
 91
0
280
0
281
0
  0
ENDSEC
  0
SECTION
  2
TABLES
  0
TABLE
  2
VPORT
  5
8
100
AcDbSymbolTable
 70
2
  0
VPORT
  5
1F4
100
AcDbSymbolTableRecord
100
AcDbViewportTableRecord
  2
*ACTIVE
 70
0
 10
0.0
 20
0.0
 11
1.0
 21
1.0
 12
62.483330144
 22
88.3692812036
 13
0.0
 23
0.0
 14
1.0
 24
1.0
 15
0.0
 25
0.0
 16
0.0
 26
0.0
 36
1.0
 17
0.0
 27
0.0
 37
0.0
 40
176.7385624073
 41
0.7070707071
 42
50.0
 43
0.0
 44
0.0
 50
0.0
 51
0.0
 71
0
 72
100
 73
1
 74
1
 75
0
 76
0
 77
0
 78
0
  0
ENDTAB
  0
TABLE
  2
LTYPE
  5
5
100
AcDbSymbolTable
 70
6
  0
LTYPE
  5
14
100
AcDbSymbolTableRecord
100
AcDbLinetypeTableRecord
  2
BYBLOCK
 70
0
  3

 72
65
 73
0
 40
0.0
  0
LTYPE
  5
15
100
AcDbSymbolTableRecord
100
AcDbLinetypeTableRecord
  2
BYLAYER
 70
0
  3

 72
65
 73
0
 40
0.0
  0
LTYPE
  5
16
100
AcDbSymbolTableRecord
100
AcDbLinetypeTableRecord
  2
CONTINUOUS
 70
64
  3
Solid line
 72
65
 73
0
 40
0.0
  0
LTYPE
  5
1F5
100
AcDbSymbolTableRecord
100
AcDbLinetypeTableRecord
  2
CENTER
 70
64
  3
____ _ ____ _ ____ _ ____ _ ____ _ ____ _ ____
 72
65
 73
4
 40
0.6
 49
0.375
 74
0
 49
-0.075
 74
0
 49
0.075
 74
0
 49
-0.075
 74
0
  0
LTYPE
  5
1F6
100
AcDbSymbolTableRecord
100
AcDbLinetypeTableRecord
  2
HIDDEN
 70
64
  3
- - - - - - - - - - - - - - - - - - - -
 72
65
 73
2
 40
0.2
 49
0.1
 74
0
 49
-0.1
 74
0
  0
LTYPE
  5
1F7
100
AcDbSymbolTableRecord
100
AcDbLinetypeTableRecord
  2
PHANTOM
 70
64
  3
_____ _ _ _____ _ _ _____ _ _ _____
 72
65
 73
6
 40
0.8
 49
0.45
 74
0
 49
-0.05
 74
0
 49
0.1
 74
0
 49
-0.05
 74
0
 49
0.1
 74
0
 49
-0.05
 74
0
  0
LTYPE
  5
1F8
100
AcDbSymbolTableRecord
100
AcDbLinetypeTableRecord
  2
DOT
 70
64
  3
. . . . . . . . . . . . . . . . . . . .
 72
65
 73
2
 40
0.2
 49
0.1
 74
0
 49
-0.1
 74
0
  0
LTYPE
  5
1F9
100
AcDbSymbolTableRecord
100
AcDbLinetypeTableRecord
  2
DASHED
 70
64
  3
- - - - - - - - - - - - - - - - - - - -
 72
65
 73
2
 40
0.2
 49
0.1
 74
0
 49
-0.1
 74
0
  0
ENDTAB
  0
TABLE
  2
LAYER
  5
2
100
AcDbSymbolTable
 70
36
  0
LAYER
  5
10
100
AcDbSymbolTableRecord
100
AcDbLayerTableRecord
  2
0
 70
0
 62
7
  6
CONTINUOUS
370
-3
390
F
  0
LAYER
  5
1FA
100
AcDbSymbolTableRecord
100
AcDbLayerTableRecord
  2
DEFAULT_1
 70
0
 62
7
  6
CENTER
370
-3
390
F
  0
LAYER
  5
1FB
100
AcDbSymbolTableRecord
100
AcDbLayerTableRecord
  2
DEFAULT_2
 70
0
 62
7
  6
HIDDEN
370
-3
390
F
  0
LAYER
  5
1FC
100
AcDbSymbolTableRecord
100
AcDbLayerTableRecord
  2
DEFAULT_3
 70
0
 62
7
  6
PHANTOM
370
-3
390
F
  0
LAYER
  5
1FD
100
AcDbSymbolTableRecord
100
AcDbLayerTableRecord
  2
00_COMPONENTS
 70
0
 62
7
  6
CONTINUOUS
370
-3
390
F
  0
LAYER
  5
1FE
100
AcDbSymbolTableRecord
100
AcDbLayerTableRecord
  2
01_1_DEFAULT_DATUMS
 70
0
 62
7
  6
CONTINUOUS
370
-3
390
F
  0
LAYER
  5
1FF
100
AcDbSymbolTableRecord
100
AcDbLayerTableRecord
  2
01_PLANES
 70
0
 62
7
  6
CONTINUOUS
370
-3
390
F
  0
LAYER
  5
200
100
AcDbSymbolTableRecord
100
AcDbLayerTableRecord
  2
02_COORD_SYS
 70
0
 62
7
  6
CONTINUOUS
370
-3
390
F
  0
LAYER
  5
201
100
AcDbSymbolTableRecord
100
AcDbLayerTableRecord
  2
03_AXES
 70
0
 62
7
  6
CONTINUOUS
370
-3
390
F
  0
LAYER
  5
202
100
AcDbSymbolTableRecord
100
AcDbLayerTableRecord
  2
04_POINTS
 70
0
 62
7
  6
CONTINUOUS
370
-3
390
F
  0
LAYER
  5
203
100
AcDbSymbolTableRecord
100
AcDbLayerTableRecord
  2
05_CURVES
 70
0
 62
7
  6
CONTINUOUS
370
-3
390
F
  0
LAYER
  5
204
100
AcDbSymbolTableRecord
100
AcDbLayerTableRecord
  2
06_SURFS
 70
0
 62
7
  6
CONTINUOUS
370
-3
390
F
  0
LAYER
  5
205
100
AcDbSymbolTableRecord
100
AcDbLayerTableRecord
  2
07_COSMETICS
 70
0
 62
7
  6
CONTINUOUS
370
-3
390
F
  0
LAYER
  5
206
100
AcDbSymbolTableRecord
100
AcDbLayerTableRecord
  2
10_NOTES
 70
0
 62
7
  6
CONTINUOUS
370
-3
390
F
  0
LAYER
  5
207
100
AcDbSymbolTableRecord
100
AcDbLayerTableRecord
  2
11_NOTES_PUB
 70
0
 62
7
  6
CONTINUOUS
370
-3
390
F
  0
LAYER
  5
208
100
AcDbSymbolTableRecord
100
AcDbLayerTableRecord
  2
13_REF_GTOL
 70
0
 62
7
  6
CONTINUOUS
370
-3
390
F
  0
LAYER
  5
209
100
AcDbSymbolTableRecord
100
AcDbLayerTableRecord
  2
16_MISC
 70
0
 62
7
  6
CONTINUOUS
370
-3
390
F
  0
LAYER
  5
20A
100
AcDbSymbolTableRecord
100
AcDbLayerTableRecord
  2
17_NO_PRINT
 70
0
 62
7
  6
CONTINUOUS
370
-3
390
F
  0
LAYER
  5
20B
100
AcDbSymbolTableRecord
100
AcDbLayerTableRecord
  2
18_DATUM_CAMS_JOINTS
 70
0
 62
7
  6
CONTINUOUS
370
-3
390
F
  0
LAYER
  5
20C
100
AcDbSymbolTableRecord
100
AcDbLayerTableRecord
  2
19_DATUM_FUNCTIONAL
 70
0
 62
7
  6
CONTINUOUS
370
-3
390
F
  0
LAYER
  5
20D
100
AcDbSymbolTableRecord
100
AcDbLayerTableRecord
  2
20_DATUM_KINEMATIC_SCHEME
 70
0
 62
7
  6
CONTINUOUS
370
-3
390
F
  0
ENDTAB
  0
TABLE
  2
STYLE
  5
3
100
AcDbSymbolTable
 70
1
  0
STYLE
  5
11
100
AcDbSymbolTableRecord
100
AcDbTextStyleTableRecord
  2
STANDARD
 70
0
 40
0.0
 41
1.0
 50
0.0
 71
0
 42
0.2
  3
ARIAL.TTF
  4

  0
STYLE
  5
20E
100
AcDbSymbolTableRecord
100
AcDbTextStyleTableRecord
  2
TEXTSTYLE_1
 70
0
 40
0.0
 41
0.8
 50
0.0
 71
0
 42
0.2
  3
gdt
  4

  0
ENDTAB
  0
TABLE
  2
VIEW
  5
6
100
AcDbSymbolTable
 70
0
  0
ENDTAB
  0
TABLE
  2
UCS
  5
7
100
AcDbSymbolTable
 70
0
  0
ENDTAB
  0
TABLE
  2
APPID
  5
9
100
AcDbSymbolTable
 70
1
  0
APPID
  5
20F
100
AcDbSymbolTableRecord
100
AcDbRegAppTableRecord
  2
ACAD
 70
0
  0
ENDTAB
  0
TABLE
  2
BLOCK_RECORD
  5
1
100
AcDbSymbolTable
 70
0
  0
BLOCK_RECORD
  5
210
100
AcDbSymbolTableRecord
100
AcDbBlockTableRecord
  2
*Model_Space
  0
BLOCK_RECORD
  5
211
100
AcDbSymbolTableRecord
100
AcDbBlockTableRecord
  2
*Paper_Space
  0
BLOCK_RECORD
  5
212
100
AcDbSymbolTableRecord
100
AcDbBlockTableRecord
  2
_FILLED
  0
ENDTAB
  0
TABLE
  2
DIMSTYLE
  5
A
100
AcDbSymbolTable
 70
1
100
AcDbDimStyleTable
 71
0
  0
DIMSTYLE
105
213
100
AcDbSymbolTableRecord
100
AcDbDimStyleTableRecord
  2
STANDARD
 70
0
  3

  4

 40
1.0
 41
1.4876983368
 42
1.0
 43
0.38
 44
1.0
 45
0.0
 46
0.0
 47
0.01
 48
0.01
140
2.0827776715
141
0.09
142
0.0
143
25.4
144
1.0
145
0.0
146
1.0
147
0.625
 71
1
 72
0
 73
0
 74
0
 75
0
 76
0
 77
1
 78
8
 79
2
170
0
171
1
172
0
173
0
174
0
175
0
176
0
177
0
178
0
270
2
179
2
271
2
272
2
273
2
274
2
275
0
280
0
281
0
282
0
283
1
284
8
285
0
286
0
287
3
288
0
340
11
278
46
341
212
342
212
343
212
344
212
  0
ENDTAB
  0
ENDSEC
  0
SECTION
  2
BLOCKS
  0
BLOCK
  5
20
100
AcDbEntity
  8
0
100
AcDbBlockBegin
  2
*Model_Space
 70
0
 10
0.0
 20
0.0
 30
0.0
  3
*Model_Space
  1

  0
ENDBLK
  5
21
100
AcDbEntity
  8
0
100
AcDbBlockEnd
  0
BLOCK
  5
1C
100
AcDbEntity
  8
0
100
AcDbBlockBegin
  2
*Paper_Space
 70
0
 10
0.0
 20
0.0
 30
0.0
  3
*Paper_Space
  1

  0
ENDBLK
  5
1D
100
AcDbEntity
  8
0
100
AcDbBlockEnd
  0
BLOCK
  5
214
100
AcDbEntity
  8
0
100
AcDbBlockBegin
  2
_FILLED
 70
64
 10
0.0
 20
0.0
  3
_FILLED
  1

  0
SOLID
  5
215
100
AcDbEntity
  8
0
  6
BYBLOCK
 62
0
100
AcDbTrace
 10
0.0
 20
0.0
 11
-1.0
 21
0.25
 12
-1.0
 22
-0.25
 13
-1.0
 23
-0.25
  0
ENDBLK
  5
216
100
AcDbEntity
  8
0
  6
BYBLOCK
 62
0
100
AcDbBlockEnd
  0
ENDSEC
  0
SECTION
  2
ENTITIES
  0
LINE
  5
217
100
AcDbEntity
  8
0
100
AcDbLine
 62
7
  6
BYLAYER
 10
38.936794673
 20
40.6933290081
 11
36.1227843435
 21
41.631310023
  0
LINE
  5
218
100
AcDbEntity
  8
0
100
AcDbLine
 62
7
  6
BYLAYER
 10
14.4882217326
 20
87.5866872905
 11
14.4878239513
 21
87.5984978917
  0
LINE
  5
219
100
AcDbEntity
  8
0
100
AcDbLine
 62
7
  6
BYLAYER
 10
14.4876429263
 20
60.9694147052
 11
14.4876429263
 21
87.5777587751
  0
LINE
  5
21A
100
AcDbEntity
  8
0
100
AcDbLine
 62
7
  6
BYLAYER
 10
14.4876692424
 20
87.5866867796
 11
14.4876429263
 21
89.6724140761
  0
LINE
  5
21B
100
AcDbEntity
  8
0
100
AcDbLine
 62
7
  6
BYLAYER
 10
15.188218533
 20
92.0740329433
 11
14.4878235416
 21
89.6724140313
  0
LINE
  5
21C
100
AcDbEntity
  8
0
100
AcDbLine
 62
7
  6
BYLAYER
 10
60.8683945626
 20
39.5748640157
 11
41.5739533331
 21
47.3747508798
  0
LINE
  5
21D
100
AcDbEntity
  8
0
100
AcDbLine
 62
7
  6
BYLAYER
 10
18.2970581304
 20
97.2515432557
 11
18.2970581304
 21
105.7759612854
  0
LINE
  5
21E
100
AcDbEntity
  8
0
100
AcDbLine
 62
7
  6
BYLAYER
 10
18.2970581304
 20
105.7967004468
 11
18.2970581304
 21
107.8706165863
  0
LINE
  5
21F
100
AcDbEntity
  8
0
100
AcDbLine
 62
7
  6
BYLAYER
 10
23.0318968344
 20
105.1370180283
 11
15.188218533
 21
92.0740329433
  0
LINE
  5
220
100
AcDbEntity
  8
0
100
AcDbLine
 62
7
  6
BYLAYER
 10
60.8541028764
 20
43.7108437797
 11
41.5559928956
 21
51.5122137573
  0
LINE
  5
221
100
AcDbEntity
  8
0
100
AcDbLine
 62
7
  6
BYLAYER
 10
41.5739533331
 20
47.3747508798
 11
40.5677522897
 21
48.2043863222
  0
LINE
  5
222
100
AcDbEntity
  8
0
100
AcDbLine
 62
7
  6
BYLAYER
 10
41.5559928956
 20
51.5122137573
 11
40.758475049
 21
52.1697851998
  0
LINE
  5
223
100
AcDbEntity
  8
0
100
AcDbLine
 62
7
  6
BYLAYER
 10
22.7877522897
 20
52.0020397515
 11
22.7877522897
 21
43.5277351743
  0
LINE
  5
224
100
AcDbEntity
  8
0
100
AcDbLine
 62
7
  6
BYLAYER
 10
71.9987661515
 20
138.8751270963
 11
18.2970581304
 21
107.8706165863
  0
LINE
  5
225
100
AcDbEntity
  8
0
100
AcDbLine
 62
7
  6
BYLAYER
 10
18.2970581304
 20
105.7759612854
 11
18.3150190278
 21
105.7863309525
  0
LINE
  5
226
100
AcDbEntity
  8
0
100
AcDbLine
 62
7
  6
BYLAYER
 10
18.1971976967
 20
82.401710924
 11
18.2074241931
 21
82.3930580213
  0
LINE
  5
227
100
AcDbEntity
  8
0
100
AcDbLine
 62
7
  6
BYLAYER
 10
31.3475281814
 20
54.0416628358
 11
31.3475281814
 21
80.6500069057
  0
LINE
  5
228
100
AcDbEntity
  8
0
100
AcDbLine
 62
7
  6
BYLAYER
 10
31.3475281814
 20
80.6707460671
 11
31.3475281814
 21
82.7446622066
  0
LINE
  5
229
100
AcDbEntity
  8
0
100
AcDbLine
 62
7
  6
BYLAYER
 10
87.8040258976
 20
137.630842087
 11
80.9790596608
 21
133.6904695138
  0
LINE
  5
22A
100
AcDbEntity
  8
0
100
AcDbLine
 62
7
  6
BYLAYER
 10
65.2442282512
 20
60.826083621
 11
31.347528207
 21
54.0416628409
  0
LINE
  5
22B
100
AcDbEntity
  8
0
100
AcDbLine
 62
7
  6
BYLAYER
 10
18.1948227172
 20
82.4003436046
 11
18.2074241931
 21
82.3930580213
  0
LINE
  5
22C
100
AcDbEntity
  8
0
100
AcDbLine
 62
7
  6
BYLAYER
 10
36.1227843435
 20
39.0828094039
 11
36.1227843435
 21
49.9022431933
  0
LINE
  5
22D
100
AcDbEntity
  8
0
100
AcDbLine
 62
7
  6
BYLAYER
 10
37.1729328933
 20
54.1483280154
 11
37.1729328933
 21
55.2076169472
  0
LINE
  5
22E
100
AcDbEntity
  8
0
100
AcDbLine
 62
7
  6
BYLAYER
 10
39.3767366356
 20
51.1572179549
 11
39.3767366356
 21
40.9614684216
  0
LINE
  5
22F
100
AcDbEntity
  8
0
100
AcDbLine
 62
7
  6
BYLAYER
 10
40.5677522897
 20
52.0046040348
 11
40.5677522897
 21
43.5277351743
  0
LINE
  5
230
100
AcDbEntity
  8
0
100
AcDbLine
 62
7
  6
BYLAYER
 10
59.7605095137
 20
63.1133361928
 11
55.536110704
 21
65.5522388074
  0
LINE
  5
231
100
AcDbEntity
  8
0
100
AcDbLine
 62
7
  6
BYLAYER
 10
41.5559928956
 20
51.5122137573
 11
41.5559928956
 21
52.8604994464
  0
LINE
  5
232
100
AcDbEntity
  8
0
100
AcDbLine
 62
7
  6
BYLAYER
 10
41.5739533331
 20
47.3747508798
 11
41.5739533331
 21
51.5225831588
  0
LINE
  5
233
100
AcDbEntity
  8
0
100
AcDbLine
 62
7
  6
BYLAYER
 10
43.1077522897
 20
56.3516409481
 11
43.1077522897
 21
55.9712320113
  0
LINE
  5
234
100
AcDbEntity
  8
0
100
AcDbLine
 62
7
  6
BYLAYER
 10
58.7083789226
 20
65.4388898206
 11
53.9735402186
 21
68.1724883787
  0
LINE
  5
235
100
AcDbEntity
  8
0
100
AcDbLine
 62
7
  6
BYLAYER
 10
53.9735402186
 20
85.1786007226
 11
53.9735402186
 21
68.1724883787
  0
LINE
  5
236
100
AcDbEntity
  8
0
100
AcDbLine
 62
7
  6
BYLAYER
 10
53.9735402186
 20
85.199339884
 11
53.9735402186
 21
87.2732560235
  0
LINE
  5
237
100
AcDbEntity
  8
0
100
AcDbLine
 62
7
  6
BYLAYER
 10
58.7083789226
 20
84.5396574655
 11
58.7083789226
 21
82.465741326
  0
LINE
  5
238
100
AcDbEntity
  8
0
100
AcDbLine
 62
7
  6
BYLAYER
 10
58.7083789226
 20
82.4450021646
 11
58.7083789226
 21
65.4388898389
  0
LINE
  5
239
100
AcDbEntity
  8
0
100
AcDbLine
 62
7
  6
BYLAYER
 10
110.254759671
 20
124.669198131
 11
103.4297934342
 21
120.7288255578
  0
LINE
  5
23A
100
AcDbEntity
  8
0
100
AcDbLine
 62
7
  6
BYLAYER
 10
110.254759671
 20
122.5952819915
 11
105.225883173
 21
119.6918761226
  0
LINE
  5
23B
100
AcDbEntity
  8
0
100
AcDbLine
 62
7
  6
BYLAYER
 10
105.2438440704
 20
119.6815066283
 11
110.254759671
 21
122.5745428301
  0
LINE
  5
23C
100
AcDbEntity
  8
0
100
AcDbLine
 62
7
  6
BYLAYER
 10
58.7083789226
 20
82.4450021646
 11
53.9735402186
 21
85.1786007226
  0
LINE
  5
23D
100
AcDbEntity
  8
0
100
AcDbLine
 62
7
  6
BYLAYER
 10
22.0979306886
 20
103.5815761344
 11
18.2970581304
 21
105.7759612854
  0
LINE
  5
23E
100
AcDbEntity
  8
0
100
AcDbLine
 62
7
  6
BYLAYER
 10
58.7083789226
 20
82.465741326
 11
53.9735402186
 21
85.199339884
  0
LINE
  5
23F
100
AcDbEntity
  8
0
100
AcDbLine
 62
7
  6
BYLAYER
 10
22.1071778782
 20
103.5969765492
 11
18.2970581304
 21
105.7967004468
  0
LINE
  5
240
100
AcDbEntity
  8
0
100
AcDbLine
 62
7
  6
BYLAYER
 10
18.2970581304
 20
107.8706165863
 11
23.0318968344
 21
105.1370180283
  0
LINE
  5
241
100
AcDbEntity
  8
0
100
AcDbLine
 62
7
  6
BYLAYER
 10
53.9735402186
 20
87.2732560235
 11
58.7083789226
 21
84.5396574655
  0
LINE
  5
242
100
AcDbEntity
  8
0
100
AcDbLine
 62
7
  6
BYLAYER
 10
60.8541028764
 20
59.9474005108
 11
60.8541028764
 21
43.7108437797
  0
LINE
  5
243
100
AcDbEntity
  8
0
100
AcDbLine
 62
7
  6
BYLAYER
 10
60.8683945626
 20
43.7226962947
 11
60.8683945626
 21
39.5748640157
  0
LINE
  5
244
100
AcDbEntity
  8
0
100
AcDbLine
 62
7
  6
BYLAYER
 10
31.347528207
 20
80.6500069108
 11
53.9735402186
 21
85.1786007226
  0
LINE
  5
245
100
AcDbEntity
  8
0
100
AcDbLine
 62
7
  6
BYLAYER
 10
53.9735402186
 20
85.199339884
 11
31.347528207
 21
80.6707460722
  0
LINE
  5
246
100
AcDbEntity
  8
0
100
AcDbLine
 62
7
  6
BYLAYER
 10
31.347528207
 20
82.7446622117
 11
53.9735402186
 21
87.2732560235
  0
LINE
  5
247
100
AcDbEntity
  8
0
100
AcDbLine
 62
7
  6
BYLAYER
 10
65.2442282512
 20
65.0645093864
 11
65.2442282512
 21
60.826083621
  0
LINE
  5
248
100
AcDbEntity
  8
0
100
AcDbLine
 62
7
  6
BYLAYER
 10
68.5866195284
 20
66.9942283712
 11
68.5866195284
 21
88.1481729942
  0
LINE
  5
249
100
AcDbEntity
  8
0
100
AcDbLine
 62
7
  6
BYLAYER
 10
112.4100869436
 20
115.5441679754
 11
58.7083789226
 21
84.5396574655
  0
LINE
  5
24A
100
AcDbEntity
  8
0
100
AcDbLine
 62
7
  6
BYLAYER
 10
112.4100869436
 20
113.4702518359
 11
58.7083789226
 21
82.465741326
  0
LINE
  5
24B
100
AcDbEntity
  8
0
100
AcDbLine
 62
7
  6
BYLAYER
 10
112.4100869436
 20
113.4495126745
 11
105.9443294561
 21
109.7165281315
  0
LINE
  5
24C
100
AcDbEntity
  8
0
100
AcDbLine
 62
7
  6
BYLAYER
 10
68.5866195284
 20
88.1481729942
 11
58.7083789226
 21
82.4450021646
  0
LINE
  5
24D
100
AcDbEntity
  8
0
100
AcDbLine
 62
7
  6
BYLAYER
 10
68.5866195284
 20
88.1481729942
 11
68.5686586311
 21
88.1585424885
  0
LINE
  5
24E
100
AcDbEntity
  8
0
100
AcDbLine
 62
7
  6
BYLAYER
 10
68.9682006898
 20
39.9840119803
 11
68.9682006898
 21
44.1130278955
  0
LINE
  5
24F
100
AcDbEntity
  8
0
100
AcDbLine
 62
7
  6
BYLAYER
 10
68.9864383455
 20
44.1216349089
 11
68.9864383455
 21
88.3997462793
  0
LINE
  5
250
100
AcDbEntity
  8
0
100
AcDbLine
 62
7
  6
BYLAYER
 10
105.9443294561
 20
76.5338698994
 11
105.854526521
 21
76.5857164752
  0
LINE
  5
251
100
AcDbEntity
  8
0
100
AcDbLine
 62
7
  6
BYLAYER
 10
62.3004664315
 20
63.3649378524
 11
68.5866195284
 21
66.9942283712
  0
LINE
  5
252
100
AcDbEntity
  8
0
100
AcDbLine
 62
7
  6
BYLAYER
 10
43.3639120476
 20
56.446740743
 11
37.1729329151
 21
54.1483280235
  0
LINE
  5
253
100
AcDbEntity
  8
0
100
AcDbLine
 62
7
  6
BYLAYER
 10
36.1227843435
 20
39.0828094039
 11
35.8687825119
 21
38.9220219343
  0
LINE
  5
254
100
AcDbEntity
  8
0
100
AcDbLine
 62
7
  6
BYLAYER
 10
38.936794673
 20
40.6933290081
 11
39.3767366356
 21
40.9614684216
  0
LWPOLYLINE
  5
255
100
AcDbEntity
  8
0
100
AcDbPolyline
 62
7
  6
BYLAYER
 90
7
 70
0
 10
39.7600164481
 20
51.3050401872
 10
36.0495084714
 20
49.8739823702
 10
31.6858160531
 20
49.3722212796
 10
27.3007202675
 20
49.8752535966
 10
23.5958695864
 20
51.3048379172
 10
21.1237635245
 20
53.4376432512
 10
20.6441414704
 20
54.8248078493
  0
LINE
  5
256
100
AcDbEntity
  8
0
100
AcDbLine
 62
7
  6
BYLAYER
 10
105.9443294561
 20
76.5338698994
 11
108.8179994347
 21
78.1929741315
  0
LINE
  5
257
100
AcDbEntity
  8
0
100
AcDbLine
 62
7
  6
BYLAYER
 10
105.854526521
 20
109.6854198536
 11
105.854526521
 21
76.5857164752
  0
LINE
  5
258
100
AcDbEntity
  8
0
100
AcDbLine
 62
7
  6
BYLAYER
 10
105.9443294561
 20
109.7165281315
 11
105.9443294561
 21
76.5338698994
  0
LINE
  5
259
100
AcDbEntity
  8
0
100
AcDbLine
 62
7
  6
BYLAYER
 10
107.8301746422
 20
66.5479426492
 11
68.9764518054
 21
44.1158820915
  0
LINE
  5
25A
100
AcDbEntity
  8
0
100
AcDbLine
 62
7
  6
BYLAYER
 10
68.9864383455
 20
44.1216349089
 11
68.9754632667
 21
44.1164553699
  0
LINE
  5
25B
100
AcDbEntity
  8
0
100
AcDbLine
 62
7
  6
BYLAYER
 10
105.9443294561
 20
109.7165281315
 11
105.9263685587
 21
109.7268976259
  0
LINE
  5
25C
100
AcDbEntity
  8
0
100
AcDbLine
 62
7
  6
BYLAYER
 10
107.8122140552
 20
66.5375731613
 11
107.8122140552
 21
62.4104796853
  0
LINE
  5
25D
100
AcDbEntity
  8
0
100
AcDbLine
 62
7
  6
BYLAYER
 10
107.8301746422
 20
77.622656626
 11
107.8301746422
 21
66.5479426492
  0
LINE
  5
25E
100
AcDbEntity
  8
0
100
AcDbLine
 62
7
  6
BYLAYER
 10
109.6646278875
 20
64.9924391613
 11
109.6646278875
 21
68.8794476455
  0
LINE
  5
25F
100
AcDbEntity
  8
0
100
AcDbLine
 62
7
  6
BYLAYER
 10
109.6900278875
 20
69.1402714404
 11
109.6900278875
 21
78.83981835
  0
LINE
  5
260
100
AcDbEntity
  8
0
100
AcDbLine
 62
7
  6
BYLAYER
 10
110.254759671
 20
122.5745428301
 11
110.254759671
 21
116.7885186055
  0
LINE
  5
261
100
AcDbEntity
  8
0
100
AcDbLine
 62
7
  6
BYLAYER
 10
110.254759671
 20
122.5952819915
 11
110.254759671
 21
124.669198131
  0
LINE
  5
262
100
AcDbEntity
  8
0
100
AcDbLine
 62
7
  6
BYLAYER
 10
107.8122140552
 20
62.4104796853
 11
68.9682006898
 21
39.9840119803
  0
LINE
  5
263
100
AcDbEntity
  8
0
100
AcDbLine
 62
7
  6
BYLAYER
 10
112.4100869436
 20
113.4495126745
 11
112.3921260462
 21
113.4598821689
  0
LINE
  5
264
100
AcDbEntity
  8
0
100
AcDbLine
 62
7
  6
BYLAYER
 10
112.4100869436
 20
84.4146867397
 11
112.4100869436
 21
113.4495126745
  0
LINE
  5
265
100
AcDbEntity
  8
0
100
AcDbLine
 62
7
  6
BYLAYER
 10
112.4100869436
 20
113.4702518359
 11
112.4100869436
 21
115.5441679754
  0
LINE
  5
266
100
AcDbEntity
  8
0
100
AcDbLine
 62
7
  6
BYLAYER
 10
112.4100869436
 20
115.5441679754
 11
103.4297934342
 21
120.7288255578
  0
LINE
  5
267
100
AcDbEntity
  8
0
100
AcDbLine
 62
7
  6
BYLAYER
 10
80.9790596608
 20
133.6904695138
 11
71.9987661515
 21
138.8751270963
  0
LINE
  5
268
100
AcDbEntity
  8
0
100
AcDbLine
 62
7
  6
BYLAYER
 10
110.254759671
 20
122.5745428301
 11
110.2367987736
 21
122.5849123244
  0
LINE
  5
269
100
AcDbEntity
  8
0
100
AcDbLine
 62
7
  6
BYLAYER
 10
110.254759671
 20
124.669198131
 11
87.8040258976
 21
137.630842087
  0
ARC
  5
26A
100
AcDbEntity
  8
0
100
AcDbCircle
 62
7
  6
BYLAYER
 10
24.1739418661
 20
92.7483673899
 40
11.9332591738
100
AcDbArc
 50
240.0006204596
 51
240.1458204397
  0
ARC
  5
26B
100
AcDbEntity
  8
0
100
AcDbCircle
 62
7
  6
BYLAYER
 10
32.3741829585
 20
50.3312765666
 40
11.8566447974
100
AcDbArc
 50
287.1675053838
 51
288.4308793962
  0
ARC
  5
26C
100
AcDbEntity
  8
0
100
AcDbCircle
 62
7
  6
BYLAYER
 10
29.9680427914
 20
47.8682377765
 40
9.1906350529
100
AcDbArc
 50
242.7079827733
 51
243.5817782044
  0
ARC
  5
26D
100
AcDbEntity
  8
0
100
AcDbCircle
 62
7
  6
BYLAYER
 10
29.7846938013
 20
47.5151709661
 40
8.792801073
100
AcDbArc
 50
240.0238523587
 51
242.7148154507
  0
ARC
  5
26E
100
AcDbEntity
  8
0
100
AcDbCircle
 62
7
  6
BYLAYER
 10
18.7239176341
 20
87.5985368467
 40
4.2362649657
100
AcDbArc
 50
180.1602731936
 51
183.9250775122
  0
ARC
  5
26F
100
AcDbEntity
  8
0
100
AcDbCircle
 62
7
  6
BYLAYER
 10
18.7238960768
 20
87.5777927907
 40
4.2362431235
100
AcDbArc
 50
180.0004606577
 51
183.9238792934
  0
ARC
  5
270
100
AcDbEntity
  8
0
100
AcDbCircle
 62
7
  6
BYLAYER
 10
109.6271252612
 20
95.5753904647
 40
1.8009284799
100
AcDbArc
 50
110.123149775
 51
112.3692621885
  0
ARC
  5
271
100
AcDbEntity
  8
0
100
AcDbCircle
 62
7
  6
BYLAYER
 10
62.3911747276
 20
68.3038644978
 40
1.8009284798
100
AcDbArc
 50
110.123149775
 51
112.3692621885
  0
SPLINE
  5
272
100
AcDbEntity
  8
0
100
AcDbSpline
 62
7
  6
BYLAYER
 70
0
 71
3
 72
12
 73
8
 74
0
 42
0.0000001
 43
0.0000001
 44
0.0000000001
 40
0.0
 40
0.0
 40
0.0
 40
0.0
 40
0.288222394
 40
0.5475761752
 40
0.7816629875
 40
0.8921177926
 40
1.0
 40
1.0
 40
1.0
 40
1.0
 10
18.2074241926
 20
82.413797183
 30
0.0
 10
17.6765293386
 20
82.7203025359
 30
0.0
 10
16.7090849657
 20
83.3813422346
 30
0.0
 10
15.5352166485
 20
84.5755390004
 30
0.0
 10
14.8742906069
 20
85.6975473729
 30
0.0
 10
14.5830313928
 20
86.6181294772
 30
0.0
 10
14.5132945645
 20
87.0796393414
 30
0.0
 10
14.4975891922
 20
87.3085562248
 30
0.0
  0
SPLINE
  5
273
100
AcDbEntity
  8
0
100
AcDbSpline
 62
7
  6
BYLAYER
 70
0
 71
3
 72
13
 73
9
 74
0
 42
0.0000001
 43
0.0000001
 44
0.0000000001
 40
0.0
 40
0.0
 40
0.0
 40
0.0
 40
0.2587859349
 40
0.5201940164
 40
0.6478061468
 40
0.771164835
 40
0.8889553326
 40
1.0
 40
1.0
 40
1.0
 40
1.0
 10
31.347528207
 20
80.6707460722
 30
0.0
 10
30.2073321848
 20
80.4425359641
 30
0.0
 10
27.8720331839
 20
80.1842052633
 30
0.0
 10
24.9515837788
 20
80.323926366
 30
0.0
 10
22.6808473753
 20
80.7182183862
 30
0.0
 10
21.0770048819
 20
81.1438381528
 30
0.0
 10
19.5904365223
 20
81.6934457024
 30
0.0
 10
18.6663787143
 20
82.1503300228
 30
0.0
 10
18.2336333748
 20
82.39870993
 30
0.0
  0
SPLINE
  5
274
100
AcDbEntity
  8
0
100
AcDbSpline
 62
7
  6
BYLAYER
 70
0
 71
3
 72
10
 73
6
 74
0
 42
0.0000001
 43
0.0000001
 44
0.0000000001
 40
0.0
 40
0.0
 40
0.0
 40
0.0
 40
0.2342513189
 40
0.4754920691
 40
1.0
 40
1.0
 40
1.0
 40
1.0
 10
107.4474479028
 20
92.9309363002
 30
0.0
 10
107.3954770374
 20
92.9609702611
 30
0.0
 10
107.2963397262
 20
93.0337551925
 30
0.0
 10
107.1252468935
 20
93.2264767064
 30
0.0
 10
107.0417600001
 20
93.4098628076
 30
0.0
 10
107.0034104387
 20
93.5386764671
 30
0.0
  0
SPLINE
  5
275
100
AcDbEntity
  8
0
100
AcDbSpline
 62
7
  6
BYLAYER
 70
0
 71
3
 72
9
 73
5
 74
0
 42
0.0000001
 43
0.0000001
 44
0.0000000001
 40
0.0
 40
0.0
 40
0.0
 40
0.0
 40
0.2444745709
 40
1.0
 40
1.0
 40
1.0
 40
1.0
 10
107.0034104387
 20
93.5386764671
 30
0.0
 10
106.9991284598
 20
93.5530593532
 30
0.0
 10
106.9825268688
 20
93.6121611368
 30
0.0
 10
106.9694926895
 20
93.6722497609
 30
0.0
 10
106.9614562505
 20
93.7179251123
 30
0.0
  0
SPLINE
  5
276
100
AcDbEntity
  8
0
100
AcDbSpline
 62
7
  6
BYLAYER
 70
0
 71
3
 72
9
 73
5
 74
0
 42
0.0000001
 43
0.0000001
 44
0.0000000001
 40
0.0
 40
0.0
 40
0.0
 40
0.0
 40
0.2561711486
 40
1.0
 40
1.0
 40
1.0
 40
1.0
 10
109.0075354514
 20
97.2663818477
 30
0.0
 10
109.0236898951
 20
97.2722973333
 30
0.0
 10
109.0870861619
 20
97.2944563507
 30
0.0
 10
109.1518370698
 20
97.312797258
 30
0.0
 10
109.2005374868
 20
97.3239119929
 30
0.0
  0
SPLINE
  5
277
100
AcDbEntity
  8
0
100
AcDbSpline
 62
7
  6
BYLAYER
 70
0
 71
3
 72
10
 73
6
 74
0
 42
0.0000001
 43
0.0000001
 44
0.0000000001
 40
0.0
 40
0.0
 40
0.0
 40
0.0
 40
0.5238194738
 40
0.7653397274
 40
1.0
 40
1.0
 40
1.0
 40
1.0
 10
109.2005374868
 20
97.3239119929
 30
0.0
 10
109.3290424706
 20
97.35324026
 30
0.0
 10
109.5259221608
 20
97.3704848493
 30
0.0
 10
109.773551782
 20
97.3185058246
 30
0.0
 10
109.8841760064
 20
97.2696663
 30
0.0
 10
109.9353007393
 20
97.240121319
 30
0.0
  0
SPLINE
  5
278
100
AcDbEntity
  8
0
100
AcDbSpline
 62
7
  6
BYLAYER
 70
0
 71
3
 72
12
 73
8
 74
0
 42
0.0000001
 43
0.0000001
 44
0.0000000001
 40
0.0
 40
0.0
 40
0.0
 40
0.0
 40
0.1081603296
 40
0.2183666174
 40
0.4513448629
 40
0.7104422948
 40
1.0
 40
1.0
 40
1.0
 40
1.0
 10
109.6645813967
 20
64.9924391613
 30
0.0
 10
109.6645813983
 20
64.8727100094
 30
0.0
 10
109.6438195747
 20
64.6304771101
 30
0.0
 10
109.5178705424
 20
64.1449318608
 30
0.0
 10
109.1950090811
 20
63.5494181936
 30
0.0
 10
108.593327612
 20
62.91760302
 30
0.0
 10
108.0898005355
 20
62.5707433578
 30
0.0
 10
107.8122140552
 20
62.4104796853
 30
0.0
  0
SPLINE
  5
279
100
AcDbEntity
  8
0
100
AcDbSpline
 62
7
  6
BYLAYER
 70
0
 71
3
 72
10
 73
6
 74
0
 42
0.0000001
 43
0.0000001
 44
0.0000000001
 40
0.0
 40
0.0
 40
0.0
 40
0.0
 40
0.2342513189
 40
0.4754920691
 40
1.0
 40
1.0
 40
1.0
 40
1.0
 10
60.2114973692
 20
65.6594103333
 30
0.0
 10
60.1595265039
 20
65.6894442942
 30
0.0
 10
60.0603891927
 20
65.7622292255
 30
0.0
 10
59.88929636
 20
65.9549507395
 30
0.0
 10
59.8058094666
 20
66.1383368407
 30
0.0
 10
59.7674599051
 20
66.2671505002
 30
0.0
  0
SPLINE
  5
27A
100
AcDbEntity
  8
0
100
AcDbSpline
 62
7
  6
BYLAYER
 70
0
 71
3
 72
9
 73
5
 74
0
 42
0.0000001
 43
0.0000001
 44
0.0000000001
 40
0.0
 40
0.0
 40
0.0
 40
0.0
 40
0.2444745709
 40
1.0
 40
1.0
 40
1.0
 40
1.0
 10
59.7674599051
 20
66.2671505002
 30
0.0
 10
59.7631779262
 20
66.2815333862
 30
0.0
 10
59.7465763352
 20
66.3406351698
 30
0.0
 10
59.7335421559
 20
66.400723794
 30
0.0
 10
59.7255057169
 20
66.4463991454
 30
0.0
  0
SPLINE
  5
27B
100
AcDbEntity
  8
0
100
AcDbSpline
 62
7
  6
BYLAYER
 70
0
 71
3
 72
9
 73
5
 74
0
 42
0.0000001
 43
0.0000001
 44
0.0000000001
 40
0.0
 40
0.0
 40
0.0
 40
0.0
 40
0.2561711486
 40
1.0
 40
1.0
 40
1.0
 40
1.0
 10
61.7715849179
 20
69.9948558808
 30
0.0
 10
61.7877393616
 20
70.0007713663
 30
0.0
 10
61.8511356284
 20
70.0229303838
 30
0.0
 10
61.9158865362
 20
70.041271291
 30
0.0
 10
61.9645869533
 20
70.052386026
 30
0.0
  0
SPLINE
  5
27C
100
AcDbEntity
  8
0
100
AcDbSpline
 62
7
  6
BYLAYER
 70
0
 71
3
 72
10
 73
6
 74
0
 42
0.0000001
 43
0.0000001
 44
0.0000000001
 40
0.0
 40
0.0
 40
0.0
 40
0.0
 40
0.5238194738
 40
0.7653397274
 40
1.0
 40
1.0
 40
1.0
 40
1.0
 10
61.9645869533
 20
70.052386026
 30
0.0
 10
62.0930919371
 20
70.0817142931
 30
0.0
 10
62.2899716272
 20
70.0989588824
 30
0.0
 10
62.5376012484
 20
70.0469798577
 30
0.0
 10
62.6482254729
 20
69.9981403331
 30
0.0
 10
62.6993502057
 20
69.9685953521
 30
0.0
  0
SPLINE
  5
27D
100
AcDbEntity
  8
0
100
AcDbSpline
 62
7
  6
BYLAYER
 70
0
 71
3
 72
12
 73
8
 74
0
 42
0.0000001
 43
0.0000001
 44
0.0000000001
 40
0.0
 40
0.0
 40
0.0
 40
0.0
 40
0.1081612627
 40
0.2183683536
 40
0.4513474252
 40
0.7104442773
 40
1.0
 40
1.0
 40
1.0
 40
1.0
 10
59.7605281844
 20
63.1133685321
 30
0.0
 10
59.8438130884
 20
63.0652850538
 30
0.0
 10
60.0206505516
 20
62.9824456186
 30
0.0
 10
60.4089805278
 20
62.8750587631
 30
0.0
 10
60.9528839224
 20
62.8604782433
 30
0.0
 10
61.6340131691
 20
63.0252635865
 30
0.0
 10
62.0775074894
 20
63.2362132157
 30
0.0
 10
62.3004664315
 20
63.3649378524
 30
0.0
  0
SPLINE
  5
27E
100
AcDbEntity
  8
0
100
AcDbSpline
 62
7
  6
BYLAYER
 70
0
 71
3
 72
12
 73
8
 74
0
 42
0.0000001
 43
0.0000001
 44
0.0000000001
 40
0.0
 40
0.0
 40
0.0
 40
0.0
 40
0.2895798774
 40
0.5486331397
 40
0.7816360031
 40
0.8918382323
 40
1.0
 40
1.0
 40
1.0
 40
1.0
 10
25.391463699
 20
39.8985522952
 30
0.0
 10
25.0012721461
 20
40.1238567771
 30
0.0
 10
24.2934739569
 20
40.6113083589
 30
0.0
 10
23.4479162233
 20
41.4994926218
 30
0.0
 10
22.9938627805
 20
42.3364097935
 30
0.0
 10
22.8170726097
 20
43.018981095
 30
0.0
 10
22.7877467271
 20
43.3594422809
 30
0.0
 10
22.7877645031
 20
43.5277351739
 30
0.0
  0
SPLINE
  5
27F
100
AcDbEntity
  8
0
100
AcDbSpline
 62
7
  6
BYLAYER
 70
0
 71
3
 72
11
 73
7
 74
0
 42
0.0000001
 43
0.0000001
 44
0.0000000001
 40
0.0
 40
0.0
 40
0.0
 40
0.0
 40
0.2324799321
 40
0.4726114989
 40
0.7270386813
 40
1.0
 40
1.0
 40
1.0
 40
1.0
 10
40.5676939624
 20
43.5277351752
 30
0.0
 10
40.56768304
 20
43.3030019459
 30
0.0
 10
40.5148974524
 20
42.8445640834
 30
0.0
 10
40.2808378119
 20
42.1764884213
 30
0.0
 10
39.8984259593
 20
41.535676399
 30
0.0
 10
39.5633182941
 20
41.1480492067
 30
0.0
 10
39.3767366356
 20
40.9614684216
 30
0.0
  0
SPLINE
  5
280
100
AcDbEntity
  8
0
100
AcDbSpline
 62
7
  6
BYLAYER
 70
0
 71
3
 72
15
 73
11
 74
0
 42
0.0000001
 43
0.0000001
 44
0.0000000001
 40
0.0
 40
0.0
 40
0.0
 40
0.0
 40
0.1124157633
 40
0.2329536688
 40
0.3596889819
 40
0.4903211573
 40
0.6222676441
 40
0.7528629518
 40
0.8795626018
 40
1.0
 40
1.0
 40
1.0
 40
1.0
 10
68.9764518054
 20
44.1158820915
 30
0.0
 10
68.7043500998
 20
43.9594860715
 30
0.0
 10
68.1148071647
 20
43.6790060201
 30
0.0
 10
67.1585498902
 20
43.3653998001
 30
0.0
 10
66.1233058336
 20
43.1512819838
 30
0.0
 10
65.0399502755
 20
43.0428919874
 30
0.0
 10
63.9404581425
 20
43.0435309764
 30
0.0
 10
62.8573651222
 20
43.1530581653
 30
0.0
 10
61.8230626379
 20
43.368331414
 30
0.0
 10
61.1658349048
 20
43.5848243462
 30
0.0
 10
60.8541028764
 20
43.7108437797
 30
0.0
  0
SPLINE
  5
281
100
AcDbEntity
  8
0
100
AcDbSpline
 62
7
  6
BYLAYER
 70
0
 71
3
 72
14
 73
10
 74
0
 42
0.0000001
 43
0.0000001
 44
0.0000000001
 40
0.0
 40
0.0
 40
0.0
 40
0.0
 40
0.1080439561
 40
0.2181255308
 40
0.3321055999
 40
0.4514947949
 40
0.5774399588
 40
0.71072535
 40
1.0
 40
1.0
 40
1.0
 40
1.0
 10
43.1077388177
 20
55.9712320102
 30
0.0
 10
43.1077406429
 20
55.7548550798
 30
0.0
 10
43.0700914924
 20
55.3171528125
 30
0.0
 10
42.9024851004
 20
54.6705873239
 30
0.0
 10
42.6254937377
 20
54.0380437921
 30
0.0
 10
42.2431719647
 20
53.425744954
 30
0.0
 10
41.759306649
 20
52.8393170446
 30
0.0
 10
40.964389713
 20
52.0784785847
 30
0.0
 10
40.2617257283
 20
51.5947004461
 30
0.0
 10
39.7600164481
 20
51.3050401872
 30
0.0
  0
SPLINE
  5
282
100
AcDbEntity
  8
0
100
AcDbSpline
 62
7
  6
BYLAYER
 70
0
 71
3
 72
12
 73
8
 74
0
 42
0.0000001
 43
0.0000001
 44
0.0000000001
 40
0.0
 40
0.0
 40
0.0
 40
0.0
 40
0.1081603296
 40
0.2183666174
 40
0.4513448629
 40
0.7104422948
 40
1.0
 40
1.0
 40
1.0
 40
1.0
 10
109.68998121
 20
69.1402714403
 30
0.0
 10
109.6899812116
 20
69.0200614484
 30
0.0
 10
109.6691360072
 20
68.7768557263
 30
0.0
 10
109.5426811555
 20
68.2893604961
 30
0.0
 10
109.2185230618
 20
67.6914552077
 30
0.0
 10
108.6144252013
 20
67.0571026238
 30
0.0
 10
108.1088759277
 20
66.7088499509
 30
0.0
 10
107.8301746422
 20
66.5479426492
 30
0.0
  0
SPLINE
  5
283
100
AcDbEntity
  8
0
100
AcDbSpline
 62
7
  6
BYLAYER
 70
0
 71
3
 72
13
 73
9
 74
0
 42
0.0000001
 43
0.0000001
 44
0.0000000001
 40
0.0
 40
0.0
 40
0.0
 40
0.0
 40
0.114227348
 40
0.2375641169
 40
0.5000112722
 40
0.7624638468
 40
0.8857438312
 40
1.0
 40
1.0
 40
1.0
 40
1.0
 10
106.9321535167
 20
93.5088636458
 30
0.0
 10
106.9321535167
 20
93.6862841685
 30
0.0
 10
106.9647022582
 20
94.0556418374
 30
0.0
 10
107.1411407703
 20
94.8138717511
 30
0.0
 10
107.5511906622
 20
95.7438828672
 30
0.0
 10
108.1515812039
 20
96.5638620167
 30
0.0
 10
108.7198917463
 20
97.0958525532
 30
0.0
 10
109.0234794035
 20
97.3086647981
 30
0.0
 10
109.1771694041
 20
97.3973964839
 30
0.0
  0
SPLINE
  5
284
100
AcDbEntity
  8
0
100
AcDbSpline
 62
7
  6
BYLAYER
 70
0
 71
3
 72
15
 73
11
 74
0
 42
0.0000001
 43
0.0000001
 44
0.0000000001
 40
0.0
 40
0.0
 40
0.0
 40
0.0
 40
0.1232503074
 40
0.2514724401
 40
0.3824283252
 40
0.5138676987
 40
0.6434379444
 40
0.7689171276
 40
0.888308702
 40
1.0
 40
1.0
 40
1.0
 40
1.0
 10
35.8687825119
 20
38.9220219343
 30
0.0
 10
35.4628617106
 20
38.786715634
 30
0.0
 10
34.6181459569
 20
38.5584225691
 30
0.0
 10
33.3058895084
 20
38.3440191511
 30
0.0
 10
31.9506770536
 20
38.2548968115
 30
0.0
 10
30.5884635119
 20
38.2931425792
 30
0.0
 10
29.2547863948
 20
38.4579334157
 30
0.0
 10
27.9845382368
 20
38.7449605481
 30
0.0
 10
26.8111069762
 20
39.1466609585
 30
0.0
 10
26.0864848109
 20
39.4972668891
 30
0.0
 10
25.7506938283
 20
39.6911587198
 30
0.0
  0
SPLINE
  5
285
100
AcDbEntity
  8
0
100
AcDbSpline
 62
7
  6
BYLAYER
 70
0
 71
3
 72
15
 73
11
 74
0
 42
0.0000001
 43
0.0000001
 44
0.0000000001
 40
0.0
 40
0.0
 40
0.0
 40
0.0
 40
0.1141462769
 40
0.2373347432
 40
0.3669750848
 40
0.4999983967
 40
0.6330219316
 40
0.7626629245
 40
0.8858524171
 40
1.0
 40
1.0
 40
1.0
 40
1.0
 10
108.8179994347
 20
78.1929741315
 30
0.0
 10
109.0638889184
 20
78.3349376439
 30
0.0
 10
109.549597761
 20
78.6754552698
 30
0.0
 10
110.2179467197
 20
79.3006760401
 30
0.0
 10
110.833789456
 20
80.0398396692
 30
0.0
 10
111.3740756312
 20
80.8650139161
 30
0.0
 10
111.8185508122
 20
81.7455062104
 30
0.0
 10
112.1507617996
 20
82.6484292602
 30
0.0
 10
112.3580438083
 20
83.5398545227
 30
0.0
 10
112.4100869435
 20
84.1307551957
 30
0.0
 10
112.4100869436
 20
84.4146867397
 30
0.0
  0
SPLINE
  5
286
100
AcDbEntity
  8
0
100
AcDbSpline
 62
7
  6
BYLAYER
 70
0
 71
3
 72
13
 73
9
 74
0
 42
0.0000001
 43
0.0000001
 44
0.0000000001
 40
0.0
 40
0.0
 40
0.0
 40
0.0
 40
0.114227348
 40
0.2375641169
 40
0.5000112722
 40
0.7624638468
 40
0.8857438312
 40
1.0
 40
1.0
 40
1.0
 40
1.0
 10
59.6962029832
 20
66.2373376789
 30
0.0
 10
59.6962029832
 20
66.4147582016
 30
0.0
 10
59.7287517246
 20
66.7841158705
 30
0.0
 10
59.9051902368
 20
67.5423457842
 30
0.0
 10
60.3152401287
 20
68.4723569003
 30
0.0
 10
60.9156306703
 20
69.2923360498
 30
0.0
 10
61.4839412128
 20
69.8243265862
 30
0.0
 10
61.7875288699
 20
70.0371388312
 30
0.0
 10
61.9412188705
 20
70.125870517
 30
0.0
  0
SPLINE
  5
287
100
AcDbEntity
  8
0
100
AcDbSpline
 62
7
  6
BYLAYER
 70
0
 71
3
 72
15
 73
11
 74
0
 42
0.0000001
 43
0.0000001
 44
0.0000000001
 40
0.0
 40
0.0
 40
0.0
 40
0.0
 40
0.1123313775
 40
0.2328211369
 40
0.3595390318
 40
0.4901808714
 40
0.6221562544
 40
0.7527908309
 40
0.8795303165
 40
1.0
 40
1.0
 40
1.0
 40
1.0
 10
68.9682006898
 20
39.9840119803
 30
0.0
 10
68.6973210241
 20
39.827620466
 30
0.0
 10
68.1100983387
 20
39.5470866758
 30
0.0
 10
67.1571303312
 20
39.2332617853
 30
0.0
 10
66.1249551724
 20
39.0187689488
 30
0.0
 10
65.0444650758
 20
38.9098720734
 30
0.0
 10
63.9476442572
 20
38.9098989981
 30
0.0
 10
62.8670528102
 20
39.0187275418
 30
0.0
 10
61.8351068186
 20
39.2332242311
 30
0.0
 10
61.1793893116
 20
39.4491426315
 30
0.0
 10
60.8683945626
 20
39.5748640157
 30
0.0
  0
SPLINE
  5
288
100
AcDbEntity
  8
0
100
AcDbSpline
 62
7
  6
BYLAYER
 70
0
 71
3
 72
14
 73
10
 74
0
 42
0.0000001
 43
0.0000001
 44
0.0000000001
 40
0.0
 40
0.0
 40
0.0
 40
0.0
 40
0.2892815142
 40
0.4225565452
 40
0.5485016544
 40
0.6678957443
 40
0.7818757598
 40
0.8919617877
 40
1.0
 40
1.0
 40
1.0
 40
1.0
 10
18.2074241926
 20
55.7847139517
 30
0.0
 10
17.6499469409
 20
56.1065663119
 30
0.0
 10
16.8691996888
 20
56.6440901
 30
0.0
 10
15.9859513631
 20
57.4894737936
 30
0.0
 10
15.4483522567
 20
58.1410755904
 30
0.0
 10
15.0234531383
 20
58.8213751696
 30
0.0
 10
14.7157513016
 20
59.5242659209
 30
0.0
 10
14.5294893218
 20
60.2426648666
 30
0.0
 10
14.4876489409
 20
60.7290056348
 30
0.0
 10
14.4876529592
 20
60.9694146613
 30
0.0
  0
SPLINE
  5
289
100
AcDbEntity
  8
0
100
AcDbSpline
 62
7
  6
BYLAYER
 70
0
 71
3
 72
13
 73
9
 74
0
 42
0.0000001
 43
0.0000001
 44
0.0000000001
 40
0.0
 40
0.0
 40
0.0
 40
0.0
 40
0.2588912033
 40
0.5203771842
 40
0.6479956051
 40
0.771328732
 40
0.8890584392
 40
1.0
 40
1.0
 40
1.0
 40
1.0
 10
31.347528207
 20
54.0416628409
 30
0.0
 10
30.2043168724
 20
53.8128492183
 30
0.0
 10
27.8628525178
 20
53.5543695049
 30
0.0
 10
24.9350285345
 20
53.6962393186
 30
0.0
 10
22.6593286841
 20
54.0937138569
 30
0.0
 10
21.0527826331
 20
54.5222756177
 30
0.0
 10
19.5646000022
 20
55.0753262797
 30
0.0
 10
18.6401031552
 20
55.5349122875
 30
0.0
 10
18.2074241926
 20
55.7847139517
 30
0.0
  0
SPLINE
  5
28A
100
AcDbEntity
  8
0
100
AcDbSpline
 62
7
  6
BYLAYER
 70
0
 71
3
 72
13
 73
9
 74
0
 42
0.0000001
 43
0.0000001
 44
0.0000000001
 40
0.0
 40
0.0
 40
0.0
 40
0.0
 40
0.1109415514
 40
0.2286712419
 40
0.3520043628
 40
0.4796227812
 40
0.7411087684
 40
1.0
 40
1.0
 40
1.0
 40
1.0
 10
18.2074241926
 20
84.4877133225
 30
0.0
 10
18.6401031185
 20
84.2379116795
 30
0.0
 10
19.564599847
 20
83.7783256972
 30
0.0
 10
21.0527823442
 20
83.2252750894
 30
0.0
 10
22.6593282744
 20
82.7967133202
 30
0.0
 10
24.9350281059
 20
82.3992387306
 30
0.0
 10
27.8628522318
 20
82.2573688573
 30
0.0
 10
30.2043167474
 20
82.5158485641
 30
0.0
 10
31.347528207
 20
82.7446622117
 30
0.0
  0
SPLINE
  5
28B
100
AcDbEntity
  8
0
100
AcDbSpline
 62
7
  6
BYLAYER
 70
0
 71
3
 72
12
 73
8
 74
0
 42
0.0000001
 43
0.0000001
 44
0.0000000001
 40
0.0
 40
0.0
 40
0.0
 40
0.0
 40
0.1079226927
 40
0.2184108421
 40
0.4525282236
 40
0.711851857
 40
1.0
 40
1.0
 40
1.0
 40
1.0
 10
14.4975833625
 20
87.2879020482
 30
0.0
 10
14.5132545478
 20
87.0594164377
 30
0.0
 10
14.5827758889
 20
86.5987901657
 30
0.0
 10
14.8730204222
 20
85.6799552529
 30
0.0
 10
15.5315435956
 20
84.5599191822
 30
0.0
 10
16.7013503933
 20
83.3672817359
 30
0.0
 10
17.6656386118
 20
82.7067254519
 30
0.0
 10
18.1948227172
 20
82.4003436046
 30
0.0
  0
SPLINE
  5
28C
100
AcDbEntity
  8
0
100
AcDbSpline
 62
7
  6
BYLAYER
 70
0
 71
3
 72
12
 73
8
 74
0
 42
0.0000001
 43
0.0000001
 44
0.0000000001
 40
0.0
 40
0.0
 40
0.0
 40
0.0
 40
0.2504507355
 40
0.510611798
 40
0.7651345904
 40
0.885825984
 40
1.0
 40
1.0
 40
1.0
 40
1.0
 10
35.8738640779
 20
39.0028937202
 30
0.0
 10
35.0583134418
 20
38.7508837875
 30
0.0
 10
33.3393574386
 20
38.4093951721
 30
0.0
 10
30.7213205994
 20
38.34983359
 30
0.0
 10
28.5660666285
 20
38.6701352527
 30
0.0
 10
26.9669659562
 20
39.1523991052
 30
0.0
 10
26.2274366446
 20
39.4642336777
 30
0.0
 10
25.878945258
 20
39.6373779163
 30
0.0
  0
SPLINE
  5
28D
100
AcDbEntity
  8
0
100
AcDbSpline
 62
7
  6
BYLAYER
 70
0
 71
3
 72
17
 73
13
 74
0
 42
0.0000001
 43
0.0000001
 44
0.0000000001
 40
0.0
 40
0.0
 40
0.0
 40
0.0
 40
0.1286839723
 40
0.2702731138
 40
0.4174311221
 40
0.5617769804
 40
0.6954476236
 40
0.8127121074
 40
0.864676385
 40
0.9125098108
 40
0.9571396749
 40
1.0
 40
1.0
 40
1.0
 40
1.0
 10
110.4505991707
 20
96.1012116873
 30
0.0
 10
110.4505991707
 20
95.8885638897
 30
0.0
 10
110.3911116119
 20
95.4414334722
 30
0.0
 10
110.1690799917
 20
94.7849037502
 30
0.0
 10
109.8269171677
 20
94.1524482077
 30
0.0
 10
109.3921473994
 20
93.5959333254
 30
0.0
 10
108.9002934871
 20
93.1603245274
 30
0.0
 10
108.4551066781
 20
92.9168825037
 30
0.0
 10
108.1068540887
 20
92.8242597487
 30
0.0
 10
107.8671732857
 20
92.8066011502
 30
0.0
 10
107.6439933557
 20
92.8393235579
 30
0.0
 10
107.5087703004
 20
92.8954980891
 30
0.0
 10
107.4474479028
 20
92.9309363002
 30
0.0
  0
SPLINE
  5
28E
100
AcDbEntity
  8
0
100
AcDbSpline
 62
7
  6
BYLAYER
 70
0
 71
3
 72
19
 73
15
 74
0
 42
0.0000001
 43
0.0000001
 44
0.0000000001
 40
0.0
 40
0.0
 40
0.0
 40
0.0
 40
0.1363149004
 40
0.287119037
 40
0.4407422329
 40
0.584734674
 40
0.6500205494
 40
0.7096949794
 40
0.7636672631
 40
0.8126422287
 40
0.858254544
 40
0.9029637347
 40
0.9494693882
 40
1.0
 40
1.0
 40
1.0
 40
1.0
 10
111.422262883
 20
96.1012140229
 30
0.0
 10
111.422262883
 20
95.7720469214
 30
0.0
 10
111.3112029944
 20
95.0780747867
 30
0.0
 10
110.9133283943
 20
94.0838017856
 30
0.0
 10
110.3179583088
 20
93.1711339658
 30
0.0
 10
109.6925065428
 20
92.544714021
 30
0.0
 10
109.1501406624
 20
92.1837965535
 30
0.0
 10
108.7559630089
 20
92.0018064301
 30
0.0
 10
108.3723209346
 20
91.9057490046
 30
0.0
 10
108.0097332847
 20
91.9004606467
 30
0.0
 10
107.6802509072
 20
91.9899018802
 30
0.0
 10
107.3988680383
 20
92.1732289299
 30
0.0
 10
107.1782134
 20
92.4408154332
 30
0.0
 10
107.08045005
 20
92.6566124144
 30
0.0
 10
107.0416611102
 20
92.7723019445
 30
0.0
  0
SPLINE
  5
28F
100
AcDbEntity
  8
0
100
AcDbSpline
 62
7
  6
BYLAYER
 70
0
 71
3
 72
9
 73
5
 74
0
 42
0.0000001
 43
0.0000001
 44
0.0000000001
 40
0.0
 40
0.0
 40
0.0
 40
0.0
 40
0.234170239
 40
1.0
 40
1.0
 40
1.0
 40
1.0
 10
107.0416611102
 20
92.7723019445
 30
0.0
 10
107.0231366232
 20
92.8275519514
 30
0.0
 10
106.95573071
 20
93.0674051584
 30
0.0
 10
106.9321535167
 20
93.3182884087
 30
0.0
 10
106.9321535167
 20
93.5088636458
 30
0.0
  0
SPLINE
  5
290
100
AcDbEntity
  8
0
100
AcDbSpline
 62
7
  6
BYLAYER
 70
0
 71
3
 72
11
 73
7
 74
0
 42
0.0000001
 43
0.0000001
 44
0.0000000001
 40
0.0
 40
0.0
 40
0.0
 40
0.0
 40
0.2398396358
 40
0.4926793288
 40
0.7493054002
 40
1.0
 40
1.0
 40
1.0
 40
1.0
 10
37.1729329151
 20
54.1483280235
 30
0.0
 10
36.4646124937
 20
53.8853627267
 30
0.0
 10
34.960345948
 20
53.4728903021
 30
0.0
 10
32.6100318261
 20
53.1861015918
 30
0.0
 10
30.2084939938
 20
53.2224768942
 30
0.0
 10
28.6225049513
 20
53.4673770802
 30
0.0
 10
27.8536100311
 20
53.6476898964
 30
0.0
  0
SPLINE
  5
291
100
AcDbEntity
  8
0
100
AcDbSpline
 62
7
  6
BYLAYER
 70
0
 71
3
 72
9
 73
5
 74
0
 42
0.0000001
 43
0.0000001
 44
0.0000000001
 40
0.0
 40
0.0
 40
0.0
 40
0.0
 40
0.263820867
 40
1.0
 40
1.0
 40
1.0
 40
1.0
 10
39.7600164481
 20
54.4159143964
 30
0.0
 10
39.9334929551
 20
54.5160705066
 30
0.0
 10
40.5801066698
 20
54.9138019328
 30
0.0
 10
41.1820918653
 20
55.3881356176
 30
0.0
 10
41.577273849
 20
55.7834479305
 30
0.0
  0
SPLINE
  5
292
100
AcDbEntity
  8
0
100
AcDbSpline
 62
7
  6
BYLAYER
 70
0
 71
3
 72
13
 73
9
 74
0
 42
0.0000001
 43
0.0000001
 44
0.0000000001
 40
0.0
 40
0.0
 40
0.0
 40
0.0
 40
0.1109415514
 40
0.2286712419
 40
0.3520043628
 40
0.4796227812
 40
0.7411087684
 40
1.0
 40
1.0
 40
1.0
 40
1.0
 10
18.2074241931
 20
82.3930580213
 30
0.0
 10
18.640103119
 20
82.1432563783
 30
0.0
 10
19.5645998475
 20
81.683670396
 30
0.0
 10
21.0527823447
 20
81.1306197884
 30
0.0
 10
22.6593282748
 20
80.7020580192
 30
0.0
 10
24.9350281062
 20
80.3045834297
 30
0.0
 10
27.862852232
 20
80.1627135564
 30
0.0
 10
30.2043167475
 20
80.4211932632
 30
0.0
 10
31.347528207
 20
80.6500069108
 30
0.0
  0
SPLINE
  5
293
100
AcDbEntity
  8
0
100
AcDbSpline
 62
7
  6
BYLAYER
 70
0
 71
3
 72
11
 73
7
 74
0
 42
0.0000001
 43
0.0000001
 44
0.0000000001
 40
0.0
 40
0.0
 40
0.0
 40
0.0
 40
0.2177732482
 40
0.4509008352
 40
0.7103635849
 40
1.0
 40
1.0
 40
1.0
 40
1.0
 10
109.9353007393
 20
97.240121319
 30
0.0
 10
110.0173458723
 20
97.19270744
 30
0.0
 10
110.1709703112
 20
97.0637371427
 30
0.0
 10
110.3344157423
 20
96.7963758769
 30
0.0
 10
110.4314464293
 20
96.4669802791
 30
0.0
 10
110.4505991707
 20
96.2272417705
 30
0.0
 10
110.4505991707
 20
96.1012116873
 30
0.0
  0
SPLINE
  5
294
100
AcDbEntity
  8
0
100
AcDbSpline
 62
7
  6
BYLAYER
 70
0
 71
3
 72
9
 73
5
 74
0
 42
0.0000001
 43
0.0000001
 44
0.0000000001
 40
0.0
 40
0.0
 40
0.0
 40
0.0
 40
0.2667315975
 40
1.0
 40
1.0
 40
1.0
 40
1.0
 10
109.1771694041
 20
97.3973964839
 30
0.0
 10
109.2342829178
 20
97.4303705117
 30
0.0
 10
109.4522969814
 20
97.5467829601
 30
0.0
 10
109.6876361554
 20
97.6334161767
 30
0.0
 10
109.8652279196
 20
97.669891642
 30
0.0
  0
SPLINE
  5
295
100
AcDbEntity
  8
0
100
AcDbSpline
 62
7
  6
BYLAYER
 70
0
 71
3
 72
15
 73
11
 74
0
 42
0.0000001
 43
0.0000001
 44
0.0000000001
 40
0.0
 40
0.0
 40
0.0
 40
0.0
 40
0.1265830078
 40
0.2437570426
 40
0.3556470738
 40
0.467488172
 40
0.584492064
 40
0.7108419202
 40
0.8491668047
 40
1.0
 40
1.0
 40
1.0
 40
1.0
 10
109.8652279196
 20
97.669891642
 30
0.0
 10
109.9723919039
 20
97.6919019881
 30
0.0
 10
110.183536165
 20
97.7155726102
 30
0.0
 10
110.4917909481
 20
97.679008571
 30
0.0
 10
110.7687476257
 20
97.5680495335
 30
0.0
 10
111.0042546006
 20
97.3851479054
 30
0.0
 10
111.1912162058
 20
97.1377212949
 30
0.0
 10
111.3257425767
 20
96.8338341132
 30
0.0
 10
111.4059202572
 20
96.4819823257
 30
0.0
 10
111.422262883
 20
96.2315735394
 30
0.0
 10
111.422262883
 20
96.1012140229
 30
0.0
  0
SPLINE
  5
296
100
AcDbEntity
  8
0
100
AcDbSpline
 62
7
  6
BYLAYER
 70
0
 71
3
 72
15
 73
11
 74
0
 42
0.0000001
 43
0.0000001
 44
0.0000000001
 40
0.0
 40
0.0
 40
0.0
 40
0.0
 40
0.1196807991
 40
0.245974564
 40
0.3765101179
 40
0.5086272661
 40
0.6395712168
 40
0.7666529291
 40
0.8874626062
 40
1.0
 40
1.0
 40
1.0
 40
1.0
 10
24.9042691725
 20
53.7666754697
 30
0.0
 10
25.4672131771
 20
53.5275310398
 30
0.0
 10
26.6588727921
 20
53.1152204385
 30
0.0
 10
28.5416202468
 20
52.7007849273
 30
0.0
 10
30.5210307238
 20
52.4825842457
 30
0.0
 10
32.5359204447
 20
52.4673913515
 30
0.0
 10
34.5243984496
 20
52.6557106167
 30
0.0
 10
36.4256530708
 20
53.0417218346
 30
0.0
 10
38.1809277099
 20
53.6136670096
 30
0.0
 10
39.2619409345
 20
54.1283520811
 30
0.0
 10
39.7600164481
 20
54.4159143964
 30
0.0
  0
SPLINE
  5
297
100
AcDbEntity
  8
0
100
AcDbSpline
 62
7
  6
BYLAYER
 70
0
 71
3
 72
12
 73
8
 74
0
 42
0.0000001
 43
0.0000001
 44
0.0000000001
 40
0.0
 40
0.0
 40
0.0
 40
0.0
 40
0.2895571842
 40
0.548654557
 40
0.78163303
 40
0.8918394862
 40
1.0
 40
1.0
 40
1.0
 40
1.0
 10
58.7083789226
 20
65.4388898389
 30
0.0
 10
58.7083789227
 20
65.1814279031
 30
0.0
 10
58.7474389801
 20
64.6918544222
 30
0.0
 10
58.9453033627
 20
64.0195584918
 30
0.0
 10
59.2298953226
 20
63.5557976265
 30
0.0
 10
59.5170734992
 20
63.2731806789
 30
0.0
 10
59.6772405541
 20
63.1614535844
 30
0.0
 10
59.7605281844
 20
63.1133685321
 30
0.0
  0
SPLINE
  5
298
100
AcDbEntity
  8
0
100
AcDbSpline
 62
7
  6
BYLAYER
 70
0
 71
3
 72
19
 73
15
 74
0
 42
0.0000001
 43
0.0000001
 44
0.0000000001
 40
0.0
 40
0.0
 40
0.0
 40
0.0
 40
0.1363149004
 40
0.287119037
 40
0.4407422329
 40
0.584734674
 40
0.6500205494
 40
0.7096949794
 40
0.7636672631
 40
0.8126422287
 40
0.858254544
 40
0.9029637347
 40
0.9494693882
 40
1.0
 40
1.0
 40
1.0
 40
1.0
 10
64.1863123495
 20
68.829688056
 30
0.0
 10
64.1863123495
 20
68.5005209545
 30
0.0
 10
64.0752524608
 20
67.8065488198
 30
0.0
 10
63.6773778607
 20
66.8122758187
 30
0.0
 10
63.0820077753
 20
65.8996079988
 30
0.0
 10
62.4565560092
 20
65.2731880541
 30
0.0
 10
61.9141901288
 20
64.9122705865
 30
0.0
 10
61.5200124753
 20
64.7302804632
 30
0.0
 10
61.1363704011
 20
64.6342230377
 30
0.0
 10
60.7737827512
 20
64.6289346798
 30
0.0
 10
60.4443003736
 20
64.7183759133
 30
0.0
 10
60.1629175048
 20
64.9017029629
 30
0.0
 10
59.9422628665
 20
65.1692894662
 30
0.0
 10
59.8444995165
 20
65.3850864475
 30
0.0
 10
59.8057105766
 20
65.5007759776
 30
0.0
  0
SPLINE
  5
299
100
AcDbEntity
  8
0
100
AcDbSpline
 62
7
  6
BYLAYER
 70
0
 71
3
 72
9
 73
5
 74
0
 42
0.0000001
 43
0.0000001
 44
0.0000000001
 40
0.0
 40
0.0
 40
0.0
 40
0.0
 40
0.234170239
 40
1.0
 40
1.0
 40
1.0
 40
1.0
 10
59.8057105766
 20
65.5007759776
 30
0.0
 10
59.7871860897
 20
65.5560259845
 30
0.0
 10
59.7197801764
 20
65.7958791914
 30
0.0
 10
59.6962029832
 20
66.0467624418
 30
0.0
 10
59.6962029832
 20
66.2373376789
 30
0.0
  0
SPLINE
  5
29A
100
AcDbEntity
  8
0
100
AcDbSpline
 62
7
  6
BYLAYER
 70
0
 71
3
 72
11
 73
7
 74
0
 42
0.0000001
 43
0.0000001
 44
0.0000000001
 40
0.0
 40
0.0
 40
0.0
 40
0.0
 40
0.2177732482
 40
0.4509008352
 40
0.7103635849
 40
1.0
 40
1.0
 40
1.0
 40
1.0
 10
62.6993502057
 20
69.9685953521
 30
0.0
 10
62.7813953387
 20
69.9211814731
 30
0.0
 10
62.9350197777
 20
69.7922111758
 30
0.0
 10
63.0984652088
 20
69.52484991
 30
0.0
 10
63.1954958957
 20
69.1954543122
 30
0.0
 10
63.2146486372
 20
68.9557158035
 30
0.0
 10
63.2146486372
 20
68.8296857204
 30
0.0
  0
SPLINE
  5
29B
100
AcDbEntity
  8
0
100
AcDbSpline
 62
7
  6
BYLAYER
 70
0
 71
3
 72
9
 73
5
 74
0
 42
0.0000001
 43
0.0000001
 44
0.0000000001
 40
0.0
 40
0.0
 40
0.0
 40
0.0
 40
0.2667315975
 40
1.0
 40
1.0
 40
1.0
 40
1.0
 10
61.9412188705
 20
70.125870517
 30
0.0
 10
61.9983323842
 20
70.1588445447
 30
0.0
 10
62.2163464479
 20
70.2752569932
 30
0.0
 10
62.4516856219
 20
70.3618902098
 30
0.0
 10
62.629277386
 20
70.3983656751
 30
0.0
  0
SPLINE
  5
29C
100
AcDbEntity
  8
0
100
AcDbSpline
 62
7
  6
BYLAYER
 70
0
 71
3
 72
15
 73
11
 74
0
 42
0.0000001
 43
0.0000001
 44
0.0000000001
 40
0.0
 40
0.0
 40
0.0
 40
0.0
 40
0.1265830078
 40
0.2437570426
 40
0.3556470738
 40
0.467488172
 40
0.584492064
 40
0.7108419202
 40
0.8491668047
 40
1.0
 40
1.0
 40
1.0
 40
1.0
 10
62.629277386
 20
70.3983656751
 30
0.0
 10
62.7364413704
 20
70.4203760212
 30
0.0
 10
62.9475856315
 20
70.4440466433
 30
0.0
 10
63.2558404146
 20
70.4074826041
 30
0.0
 10
63.5327970922
 20
70.2965235666
 30
0.0
 10
63.768304067
 20
70.1136219384
 30
0.0
 10
63.9552656722
 20
69.8661953279
 30
0.0
 10
64.0897920432
 20
69.5623081463
 30
0.0
 10
64.1699697236
 20
69.2104563588
 30
0.0
 10
64.1863123495
 20
68.9600475725
 30
0.0
 10
64.1863123495
 20
68.829688056
 30
0.0
  0
SPLINE
  5
29D
100
AcDbEntity
  8
0
100
AcDbSpline
 62
7
  6
BYLAYER
 70
0
 71
3
 72
17
 73
13
 74
0
 42
0.0000001
 43
0.0000001
 44
0.0000000001
 40
0.0
 40
0.0
 40
0.0
 40
0.0
 40
0.1286839723
 40
0.2702731138
 40
0.4174311221
 40
0.5617769804
 40
0.6954476236
 40
0.8127121074
 40
0.864676385
 40
0.9125098108
 40
0.9571396749
 40
1.0
 40
1.0
 40
1.0
 40
1.0
 10
63.2146486372
 20
68.8296857204
 30
0.0
 10
63.2146486372
 20
68.6170379228
 30
0.0
 10
63.1551610783
 20
68.1699075053
 30
0.0
 10
62.9331294581
 20
67.5133777832
 30
0.0
 10
62.5909666342
 20
66.8809222408
 30
0.0
 10
62.1561968658
 20
66.3244073585
 30
0.0
 10
61.6643429535
 20
65.8887985605
 30
0.0
 10
61.2191561445
 20
65.6453565368
 30
0.0
 10
60.8709035551
 20
65.5527337818
 30
0.0
 10
60.6312227521
 20
65.5350751833
 30
0.0
 10
60.4080428221
 20
65.567797591
 30
0.0
 10
60.2728197669
 20
65.6239721222
 30
0.0
 10
60.2114973692
 20
65.6594103333
 30
0.0
  0
SPLINE
  5
29E
100
AcDbEntity
  8
0
100
AcDbSpline
 62
7
  6
BYLAYER
 70
0
 71
3
 72
14
 73
10
 74
0
 42
0.0000001
 43
0.0000001
 44
0.0000000001
 40
0.0
 40
0.0
 40
0.0
 40
0.0
 40
0.1080382053
 40
0.2181242263
 40
0.3321042378
 40
0.4514983225
 40
0.5774434304
 40
0.7107184702
 40
1.0
 40
1.0
 40
1.0
 40
1.0
 10
14.4876529534
 20
89.6724140322
 30
0.0
 10
14.4876489355
 20
89.4320050215
 30
0.0
 10
14.5294893265
 20
88.9456642874
 30
0.0
 10
14.7157512488
 20
88.2272653669
 30
0.0
 10
15.023453106
 20
87.5243746636
 30
0.0
 10
15.4483521588
 20
86.8440750737
 30
0.0
 10
15.9859512707
 20
86.1924732714
 30
0.0
 10
16.8691996175
 20
85.3470895276
 30
0.0
 10
17.6499469109
 20
84.8095657
 30
0.0
 10
18.2074241926
 20
84.4877133225
 30
0.0
  0
ELLIPSE
  5
29F
100
AcDbEntity
  8
0
100
AcDbEllipse
 62
7
  6
BYLAYER
 10
59.3083246532
 20
69.2402448977
 30
0.0
 11
5.0801255878
 21
2.2830132413
 31
0.0
 40
0.7133435069
 41
2.8313661658
 42
3.6167770879
  0
ENDSEC
  0
SECTION
  2
OBJECTS
  0
DICTIONARY
  5
C
100
AcDbDictionary
280
0
281
1
  3
ACAD_GROUP
350
D
  3
ACAD_MLINESTYLE
350
17
  3
ACAD_LAYOUT
350
1A
  3
ACAD_PLOTSETTINGS
350
19
  3
ACAD_PLOTSTYLENAME
350
E
  0
DICTIONARY
  5
D
102
{ACAD_REACTORS
330
C
102
}
100
AcDbDictionary
280
0
281
1
  0
ACDBDICTIONARYWDFLT
  5
E
102
{ACAD_REACTORS
330
C
102
}
100
AcDbDictionary
281
1
  3
Normal
350
F
100
AcDbDictionaryWithDefault
340
F
  0
DICTIONARY
  5
17
102
{ACAD_REACTORS
330
C
102
}
100
AcDbDictionary
280
0
281
1
  3
Standard
350
18
  0
DICTIONARY
  5
19
102
{ACAD_REACTORS
330
C
102
}
100
AcDbDictionary
281
1
  0
DICTIONARY
  5
1A
102
{ACAD_REACTORS
330
C
102
}
100
AcDbDictionary
281
1
  3
Model
350
2A0
  3
Layout1
350
2A1
  0
ACDBPLACEHOLDER
  5
F
102
{ACAD_REACTORS
330
E
102
}
  0
MLINESTYLE
  5
18
102
{ACAD_REACTORS
330
17
102
}
100
AcDbMlineStyle
  2
STANDARD
 70
0
  3

 62
256
 51
90.0
 52
90.0
 71
2
 49
0.5
 62
256
  6
BYLAYER
 49
-0.5
 62
256
  6
BYLAYER
  0
LAYOUT
  5
2A0
102
{ACAD_REACTORS
330
1A
102
}
100
AcDbPlotSettings
  1

  2
none_device
  4

  6

 40
0.0
 41
0.0
 42
0.0
 43
0.0
 44
210.0
 45
297.0
 46
0.0
 47
0.0
 48
0.0
 49
0.0
140
0.0
141
0.0
142
1.0
143
1.0
 70
1024
 72
1
 73
0
 74
0
  7

 75
0
147
1.0
148
0.0
149
0.0
100
AcDbLayout
  1
Model
 70
0
 71
0
 10
0.0
 20
0.0
 11
210.0
 21
297.0
 12
0.0
 22
0.0
 32
0.0
 14
0.0
 24
0.0
 34
0.0
 15
0.0
 25
0.0
 35
0.0
146
0.0
 13
0.0
 23
0.0
 33
0.0
 16
1.0
 26
0.0
 36
0.0
 17
0.0
 27
1.0
 37
0.0
 76
0
330
210
345
0
346
0
  0
LAYOUT
  5
2A1
102
{ACAD_REACTORS
330
1A
102
}
100
AcDbPlotSettings
  1

  2
none_device
  4

  6

 40
0.0
 41
0.0
 42
0.0
 43
0.0
 44
210.0
 45
297.0
 46
0.0
 47
0.0
 48
0.0
 49
0.0
140
0.0
141
0.0
142
1.0
143
1.0
 70
0
 72
1
 73
0
 74
0
  7

 75
0
147
1.0
148
0.0
149
0.0
100
AcDbLayout
  1
Layout1
 70
0
 71
1
 10
0.0
 20
0.0
 11
210.0
 21
297.0
 12
0.0
 22
0.0
 32
0.0
 14
0.0
 24
0.0
 34
0.0
 15
0.0
 25
0.0
 35
0.0
146
0.0
 13
0.0
 23
0.0
 33
0.0
 16
1.0
 26
0.0
 36
0.0
 17
0.0
 27
1.0
 37
0.0
 76
0
330
211
345
0
346
0
  0
ENDSEC
  0
EOF
