999
DXF file: C:\Users\sesa63760\Dev\_Creo\CAD\MCADID0003078_3D-CAD\drw0001_1.dxf
999
Pro/ENGINEER 2019471 by Parametric Technology Corporation
  0
SECTION
  2
HEADER
  9
$ACADVER
  1
AC1024
  9
$DWGCODEPAGE
  3
ANSI_1252
  9
$EXTMAX
 10
75.848062616
 20
107.2708314141
 30
0.0
  9
$EXTMIN
 10
0.0
 20
0.0
 30
0.0
  9
$LIMMIN
 10
0.0
 20
0.0
  9
$LIMMAX
 10
75.848062616
 20
107.2708314141
  9
$VIEWCTR
 10
37.924031308
 20
53.6354157071
  9
$VIEWSIZE
 40
107.2708314141
  9
$CLAYER
  8
0
  9
$LTSCALE
 40
6.9924690107
  9
$CELTYPE
  6
BYLAYER
  9
$DIMSCALE
 40
1.0
  9
$DIMASZ
 40
0.9029531264
  9
$DIMEXO
 40
1.0
  9
$DIMDLI
 40
4.8311604074
  9
$DIMEXE
 40
1.0
  9
$DIMCEN
 40
1.1442222018
  9
$DIMLFAC
 40
1.0
  9
$DIMBLK
  1
_FILLED
  9
$DIMALT
 70
0
  9
$DIMALTF
 40
0.0393700787
  9
$DIMTXT
 40
1.2641343769
  9
$DIMTOL
 70
1
  9
$DIMLIM
 70
0
  9
$DIMTFAC
 40
1.0
  9
$DIMTP
 40
0.01
  9
$DIMTM
 40
0.01
  9
$DIMGAP
 40
0.625
  9
$DIMDSEP
 70
46
  9
$AUNITS
 70
0
  9
$PDMODE
 70
3
  9
$PDSIZE
 40
0.3125
  9
$HANDSEED
  5
2A0
  9
$TILEMODE
 70
1
  9
$MEASUREMENT
 70
1
  9
$INSUNITS
 70
4
  0
ENDSEC
  0
SECTION
  2
CLASSES
  0
CLASS
  1
ACDBDICTIONARYWDFLT
  2
AcDbDictionaryWithDefault
  3
AutoCAD 2000
 90
0
 91
1
280
0
281
0
  0
CLASS
  1
ACDBPLACEHOLDER
  2
AcDbPlaceHolder
  3
AutoCAD 2000
 90
0
 91
1
280
0
281
0
  0
CLASS
  1
LAYOUT
  2
AcDbLayout
  3
AutoCAD 2000
 90
0
 91
0
280
0
281
0
  0
ENDSEC
  0
SECTION
  2
TABLES
  0
TABLE
  2
VPORT
  5
8
100
AcDbSymbolTable
 70
2
  0
VPORT
  5
1F4
100
AcDbSymbolTableRecord
100
AcDbViewportTableRecord
  2
*ACTIVE
 70
0
 10
0.0
 20
0.0
 11
1.0
 21
1.0
 12
37.924031308
 22
53.6354157071
 13
0.0
 23
0.0
 14
1.0
 24
1.0
 15
0.0
 25
0.0
 16
0.0
 26
0.0
 36
1.0
 17
0.0
 27
0.0
 37
0.0
 40
107.2708314141
 41
0.7070707071
 42
50.0
 43
0.0
 44
0.0
 50
0.0
 51
0.0
 71
0
 72
100
 73
1
 74
1
 75
0
 76
0
 77
0
 78
0
  0
ENDTAB
  0
TABLE
  2
LTYPE
  5
5
100
AcDbSymbolTable
 70
6
  0
LTYPE
  5
14
100
AcDbSymbolTableRecord
100
AcDbLinetypeTableRecord
  2
BYBLOCK
 70
0
  3

 72
65
 73
0
 40
0.0
  0
LTYPE
  5
15
100
AcDbSymbolTableRecord
100
AcDbLinetypeTableRecord
  2
BYLAYER
 70
0
  3

 72
65
 73
0
 40
0.0
  0
LTYPE
  5
16
100
AcDbSymbolTableRecord
100
AcDbLinetypeTableRecord
  2
CONTINUOUS
 70
64
  3
Solid line
 72
65
 73
0
 40
0.0
  0
LTYPE
  5
1F5
100
AcDbSymbolTableRecord
100
AcDbLinetypeTableRecord
  2
CENTER
 70
64
  3
____ _ ____ _ ____ _ ____ _ ____ _ ____ _ ____
 72
65
 73
4
 40
0.6
 49
0.375
 74
0
 49
-0.075
 74
0
 49
0.075
 74
0
 49
-0.075
 74
0
  0
LTYPE
  5
1F6
100
AcDbSymbolTableRecord
100
AcDbLinetypeTableRecord
  2
HIDDEN
 70
64
  3
- - - - - - - - - - - - - - - - - - - -
 72
65
 73
2
 40
0.2
 49
0.1
 74
0
 49
-0.1
 74
0
  0
LTYPE
  5
1F7
100
AcDbSymbolTableRecord
100
AcDbLinetypeTableRecord
  2
PHANTOM
 70
64
  3
_____ _ _ _____ _ _ _____ _ _ _____
 72
65
 73
6
 40
0.8
 49
0.45
 74
0
 49
-0.05
 74
0
 49
0.1
 74
0
 49
-0.05
 74
0
 49
0.1
 74
0
 49
-0.05
 74
0
  0
LTYPE
  5
1F8
100
AcDbSymbolTableRecord
100
AcDbLinetypeTableRecord
  2
DOT
 70
64
  3
. . . . . . . . . . . . . . . . . . . .
 72
65
 73
2
 40
0.2
 49
0.1
 74
0
 49
-0.1
 74
0
  0
LTYPE
  5
1F9
100
AcDbSymbolTableRecord
100
AcDbLinetypeTableRecord
  2
DASHED
 70
64
  3
- - - - - - - - - - - - - - - - - - - -
 72
65
 73
2
 40
0.2
 49
0.1
 74
0
 49
-0.1
 74
0
  0
ENDTAB
  0
TABLE
  2
LAYER
  5
2
100
AcDbSymbolTable
 70
36
  0
LAYER
  5
10
100
AcDbSymbolTableRecord
100
AcDbLayerTableRecord
  2
0
 70
0
 62
7
  6
CONTINUOUS
370
-3
390
F
  0
LAYER
  5
1FA
100
AcDbSymbolTableRecord
100
AcDbLayerTableRecord
  2
DEFAULT_1
 70
0
 62
7
  6
CENTER
370
-3
390
F
  0
LAYER
  5
1FB
100
AcDbSymbolTableRecord
100
AcDbLayerTableRecord
  2
DEFAULT_2
 70
0
 62
7
  6
HIDDEN
370
-3
390
F
  0
LAYER
  5
1FC
100
AcDbSymbolTableRecord
100
AcDbLayerTableRecord
  2
DEFAULT_3
 70
0
 62
7
  6
PHANTOM
370
-3
390
F
  0
LAYER
  5
1FD
100
AcDbSymbolTableRecord
100
AcDbLayerTableRecord
  2
00_COMPONENTS
 70
0
 62
7
  6
CONTINUOUS
370
-3
390
F
  0
LAYER
  5
1FE
100
AcDbSymbolTableRecord
100
AcDbLayerTableRecord
  2
01_1_DEFAULT_DATUMS
 70
0
 62
7
  6
CONTINUOUS
370
-3
390
F
  0
LAYER
  5
1FF
100
AcDbSymbolTableRecord
100
AcDbLayerTableRecord
  2
01_PLANES
 70
0
 62
7
  6
CONTINUOUS
370
-3
390
F
  0
LAYER
  5
200
100
AcDbSymbolTableRecord
100
AcDbLayerTableRecord
  2
02_COORD_SYS
 70
0
 62
7
  6
CONTINUOUS
370
-3
390
F
  0
LAYER
  5
201
100
AcDbSymbolTableRecord
100
AcDbLayerTableRecord
  2
03_AXES
 70
0
 62
7
  6
CONTINUOUS
370
-3
390
F
  0
LAYER
  5
202
100
AcDbSymbolTableRecord
100
AcDbLayerTableRecord
  2
04_POINTS
 70
0
 62
7
  6
CONTINUOUS
370
-3
390
F
  0
LAYER
  5
203
100
AcDbSymbolTableRecord
100
AcDbLayerTableRecord
  2
05_CURVES
 70
0
 62
7
  6
CONTINUOUS
370
-3
390
F
  0
LAYER
  5
204
100
AcDbSymbolTableRecord
100
AcDbLayerTableRecord
  2
06_SURFS
 70
0
 62
7
  6
CONTINUOUS
370
-3
390
F
  0
LAYER
  5
205
100
AcDbSymbolTableRecord
100
AcDbLayerTableRecord
  2
07_COSMETICS
 70
0
 62
7
  6
CONTINUOUS
370
-3
390
F
  0
LAYER
  5
206
100
AcDbSymbolTableRecord
100
AcDbLayerTableRecord
  2
10_NOTES
 70
0
 62
7
  6
CONTINUOUS
370
-3
390
F
  0
LAYER
  5
207
100
AcDbSymbolTableRecord
100
AcDbLayerTableRecord
  2
11_NOTES_PUB
 70
0
 62
7
  6
CONTINUOUS
370
-3
390
F
  0
LAYER
  5
208
100
AcDbSymbolTableRecord
100
AcDbLayerTableRecord
  2
13_REF_GTOL
 70
0
 62
7
  6
CONTINUOUS
370
-3
390
F
  0
LAYER
  5
209
100
AcDbSymbolTableRecord
100
AcDbLayerTableRecord
  2
16_MISC
 70
0
 62
7
  6
CONTINUOUS
370
-3
390
F
  0
LAYER
  5
20A
100
AcDbSymbolTableRecord
100
AcDbLayerTableRecord
  2
17_NO_PRINT
 70
0
 62
7
  6
CONTINUOUS
370
-3
390
F
  0
LAYER
  5
20B
100
AcDbSymbolTableRecord
100
AcDbLayerTableRecord
  2
18_DATUM_CAMS_JOINTS
 70
0
 62
7
  6
CONTINUOUS
370
-3
390
F
  0
LAYER
  5
20C
100
AcDbSymbolTableRecord
100
AcDbLayerTableRecord
  2
19_DATUM_FUNCTIONAL
 70
0
 62
7
  6
CONTINUOUS
370
-3
390
F
  0
LAYER
  5
20D
100
AcDbSymbolTableRecord
100
AcDbLayerTableRecord
  2
20_DATUM_KINEMATIC_SCHEME
 70
0
 62
7
  6
CONTINUOUS
370
-3
390
F
  0
ENDTAB
  0
TABLE
  2
STYLE
  5
3
100
AcDbSymbolTable
 70
1
  0
STYLE
  5
11
100
AcDbSymbolTableRecord
100
AcDbTextStyleTableRecord
  2
STANDARD
 70
0
 40
0.0
 41
1.0
 50
0.0
 71
0
 42
0.2
  3
ARIAL.TTF
  4

  0
STYLE
  5
20E
100
AcDbSymbolTableRecord
100
AcDbTextStyleTableRecord
  2
TEXTSTYLE_1
 70
0
 40
0.0
 41
0.8
 50
0.0
 71
0
 42
0.2
  3
gdt
  4

  0
ENDTAB
  0
TABLE
  2
VIEW
  5
6
100
AcDbSymbolTable
 70
0
  0
ENDTAB
  0
TABLE
  2
UCS
  5
7
100
AcDbSymbolTable
 70
0
  0
ENDTAB
  0
TABLE
  2
APPID
  5
9
100
AcDbSymbolTable
 70
1
  0
APPID
  5
20F
100
AcDbSymbolTableRecord
100
AcDbRegAppTableRecord
  2
ACAD
 70
0
  0
ENDTAB
  0
TABLE
  2
BLOCK_RECORD
  5
1
100
AcDbSymbolTable
 70
0
  0
BLOCK_RECORD
  5
210
100
AcDbSymbolTableRecord
100
AcDbBlockTableRecord
  2
*Model_Space
  0
BLOCK_RECORD
  5
211
100
AcDbSymbolTableRecord
100
AcDbBlockTableRecord
  2
*Paper_Space
  0
BLOCK_RECORD
  5
212
100
AcDbSymbolTableRecord
100
AcDbBlockTableRecord
  2
_FILLED
  0
ENDTAB
  0
TABLE
  2
DIMSTYLE
  5
A
100
AcDbSymbolTable
 70
1
100
AcDbDimStyleTable
 71
0
  0
DIMSTYLE
105
213
100
AcDbSymbolTableRecord
100
AcDbDimStyleTableRecord
  2
STANDARD
 70
0
  3

  4

 40
1.0
 41
0.9029531264
 42
1.0
 43
0.38
 44
1.0
 45
0.0
 46
0.0
 47
0.01
 48
0.01
140
1.2641343769
141
0.09
142
0.0
143
25.4
144
1.0
145
0.0
146
1.0
147
0.625
 71
1
 72
0
 73
0
 74
0
 75
0
 76
0
 77
1
 78
8
 79
2
170
0
171
1
172
0
173
0
174
0
175
0
176
0
177
0
178
0
270
2
179
2
271
2
272
2
273
2
274
2
275
0
280
0
281
0
282
0
283
1
284
8
285
0
286
0
287
3
288
0
340
11
278
46
341
212
342
212
343
212
344
212
  0
ENDTAB
  0
ENDSEC
  0
SECTION
  2
BLOCKS
  0
BLOCK
  5
20
100
AcDbEntity
  8
0
100
AcDbBlockBegin
  2
*Model_Space
 70
0
 10
0.0
 20
0.0
 30
0.0
  3
*Model_Space
  1

  0
ENDBLK
  5
21
100
AcDbEntity
  8
0
100
AcDbBlockEnd
  0
BLOCK
  5
1C
100
AcDbEntity
  8
0
100
AcDbBlockBegin
  2
*Paper_Space
 70
0
 10
0.0
 20
0.0
 30
0.0
  3
*Paper_Space
  1

  0
ENDBLK
  5
1D
100
AcDbEntity
  8
0
100
AcDbBlockEnd
  0
BLOCK
  5
214
100
AcDbEntity
  8
0
100
AcDbBlockBegin
  2
_FILLED
 70
64
 10
0.0
 20
0.0
  3
_FILLED
  1

  0
SOLID
  5
215
100
AcDbEntity
  8
0
  6
BYBLOCK
 62
0
100
AcDbTrace
 10
0.0
 20
0.0
 11
-1.0
 21
0.25
 12
-1.0
 22
-0.25
 13
-1.0
 23
-0.25
  0
ENDBLK
  5
216
100
AcDbEntity
  8
0
  6
BYBLOCK
 62
0
100
AcDbBlockEnd
  0
ENDSEC
  0
SECTION
  2
ENTITIES
  0
LINE
  5
217
100
AcDbEntity
  8
0
100
AcDbLine
 62
7
  6
BYLAYER
 10
8.7636503903
 20
39.663881445
 11
8.7636503903
 21
44.8486717938
  0
LINE
  5
218
100
AcDbEntity
  8
0
100
AcDbLine
 62
7
  6
BYLAYER
 10
13.5261503903
 20
44.8486717938
 11
13.5261503903
 21
46.144869381
  0
LINE
  5
219
100
AcDbEntity
  8
0
100
AcDbLine
 62
7
  6
BYLAYER
 10
23.0511503903
 20
44.8486717938
 11
23.0511503903
 21
46.144869381
  0
LINE
  5
21A
100
AcDbEntity
  8
0
100
AcDbLine
 62
7
  6
BYLAYER
 10
43.6253373798
 20
73.2779793208
 11
26.7874272561
 21
63.5566654067
  0
LINE
  5
21B
100
AcDbEntity
  8
0
100
AcDbLine
 62
7
  6
BYLAYER
 10
32.358572281
 20
39.8361777718
 11
33.3305635029
 21
39.2750110735
  0
LINE
  5
21C
100
AcDbEntity
  8
0
100
AcDbLine
 62
7
  6
BYLAYER
 10
26.4717886236
 20
54.9781183015
 11
26.4717886236
 21
62.8589996317
  0
LINE
  5
21D
100
AcDbEntity
  8
0
100
AcDbLine
 62
7
  6
BYLAYER
 10
27.3698179746
 20
62.3405338734
 11
27.4224271683
 21
62.4568067308
  0
LINE
  5
21E
100
AcDbEntity
  8
0
100
AcDbLine
 62
7
  6
BYLAYER
 10
27.5494238447
 20
63.4811904055
 11
44.3873339684
 21
73.2025043196
  0
LINE
  5
21F
100
AcDbEntity
  8
0
100
AcDbLine
 62
7
  6
BYLAYER
 10
27.3698179746
 20
62.3405338734
 11
27.5494253966
 21
62.4442296479
  0
LINE
  5
220
100
AcDbEntity
  8
0
100
AcDbLine
 62
7
  6
BYLAYER
 10
27.8136503903
 20
44.5340464266
 11
33.3305635029
 21
41.348927213
  0
LINE
  5
221
100
AcDbEntity
  8
0
100
AcDbLine
 62
7
  6
BYLAYER
 10
27.3698179746
 20
62.3405338734
 11
27.3698179746
 21
54.4596525433
  0
LINE
  5
222
100
AcDbEntity
  8
0
100
AcDbLine
 62
7
  6
BYLAYER
 10
27.8136503903
 20
39.663881445
 11
27.8136503903
 21
44.8486717938
  0
LINE
  5
223
100
AcDbEntity
  8
0
100
AcDbLine
 62
7
  6
BYLAYER
 10
33.8490366731
 20
40.6113079809
 11
33.3305635029
 21
41.348927213
  0
LINE
  5
224
100
AcDbEntity
  8
0
100
AcDbLine
 62
7
  6
BYLAYER
 10
29.3735459638
 20
53.0954342063
 11
29.3735459638
 21
52.0584761365
  0
LINE
  5
225
100
AcDbEntity
  8
0
100
AcDbLine
 62
7
  6
BYLAYER
 10
31.8328108245
 20
40.6705827107
 11
31.8328108245
 21
39.633624641
  0
LINE
  5
226
100
AcDbEntity
  8
0
100
AcDbLine
 62
7
  6
BYLAYER
 10
33.3230778731
 20
58.5984671334
 11
33.3230565881
 21
53.8699382168
  0
LINE
  5
227
100
AcDbEntity
  8
0
100
AcDbLine
 62
7
  6
BYLAYER
 10
33.3305635029
 20
39.2750110735
 11
33.3305635029
 21
41.348927213
  0
LINE
  5
228
100
AcDbEntity
  8
0
100
AcDbLine
 62
7
  6
BYLAYER
 10
33.3825878381
 20
58.5984670149
 11
33.3825878381
 21
59.0765297216
  0
LINE
  5
229
100
AcDbEntity
  8
0
100
AcDbLine
 62
7
  6
BYLAYER
 10
33.3230565881
 20
57.8967359428
 11
27.3698179746
 21
54.4596525433
  0
LINE
  5
22A
100
AcDbEntity
  8
0
100
AcDbLine
 62
7
  6
BYLAYER
 10
27.5494238447
 20
54.1485677777
 11
33.3230565881
 21
57.4819562986
  0
LINE
  5
22B
100
AcDbEntity
  8
0
100
AcDbLine
 62
7
  6
BYLAYER
 10
27.5494238447
 20
53.111609708
 11
29.3735459638
 21
52.0584761365
  0
LINE
  5
22C
100
AcDbEntity
  8
0
100
AcDbLine
 62
7
  6
BYLAYER
 10
29.3735459638
 20
53.0954342063
 11
27.5494238447
 21
54.1485677777
  0
LINE
  5
22D
100
AcDbEntity
  8
0
100
AcDbLine
 62
7
  6
BYLAYER
 10
47.7000799431
 20
42.7222358589
 11
36.8103515263
 21
49.0092812598
  0
LINE
  5
22E
100
AcDbEntity
  8
0
100
AcDbLine
 62
7
  6
BYLAYER
 10
29.3735611529
 20
50.9891582942
 11
25.1469970511
 21
48.5489649383
  0
LWPOLYLINE
  5
22F
100
AcDbEntity
  8
0
100
AcDbPolyline
 62
7
  6
BYLAYER
 90
7
 70
0
 10
45.4829100521
 20
51.846172612
 10
43.8614001523
 20
51.8046102372
 10
40.2130761226
 20
52.4022675326
 10
37.0905437599
 20
53.6284595367
 10
35.8256447429
 20
54.4385725808
 10
34.0403437569
 20
56.3511565435
 10
33.3839707703
 20
58.4942018161
  0
LINE
  5
230
100
AcDbEntity
  8
0
100
AcDbLine
 62
7
  6
BYLAYER
 10
33.3233533512
 20
58.5984671394
 11
33.3268651987
 21
58.5844781741
  0
LINE
  5
231
100
AcDbEntity
  8
0
100
AcDbLine
 62
7
  6
BYLAYER
 10
36.8103515263
 20
58.1345122736
 11
36.8103515263
 21
57.0975542039
  0
LINE
  5
232
100
AcDbEntity
  8
0
100
AcDbLine
 62
7
  6
BYLAYER
 10
36.8103515263
 20
49.0092812598
 11
36.8103515263
 21
53.7378100579
  0
LINE
  5
233
100
AcDbEntity
  8
0
100
AcDbLine
 62
7
  6
BYLAYER
 10
36.8103515263
 20
53.7378100579
 11
45.4819474463
 21
48.7313750799
  0
LINE
  5
234
100
AcDbEntity
  8
0
100
AcDbLine
 62
7
  6
BYLAYER
 10
45.4819474463
 20
51.8837276119
 11
47.7000799431
 21
50.6031171891
  0
LINE
  5
235
100
AcDbEntity
  8
0
100
AcDbLine
 62
7
  6
BYLAYER
 10
36.8103515263
 20
57.0975542039
 11
27.5494238447
 21
62.4442323357
  0
LINE
  5
236
100
AcDbEntity
  8
0
100
AcDbLine
 62
7
  6
BYLAYER
 10
42.4230349696
 20
45.5614786568
 11
42.4230349696
 21
44.5245205871
  0
LINE
  5
237
100
AcDbEntity
  8
0
100
AcDbLine
 62
7
  6
BYLAYER
 10
27.5494238447
 20
63.4811904055
 11
36.8103515263
 21
58.1345122736
  0
LINE
  5
238
100
AcDbEntity
  8
0
100
AcDbLine
 62
7
  6
BYLAYER
 10
45.4819474463
 20
48.7313750799
 11
45.4819474463
 21
51.8837276119
  0
LINE
  5
239
100
AcDbEntity
  8
0
100
AcDbLine
 62
7
  6
BYLAYER
 10
45.4819474463
 20
51.8837276119
 11
53.0590070019
 21
56.2583188733
  0
LINE
  5
23A
100
AcDbEntity
  8
0
100
AcDbLine
 62
7
  6
BYLAYER
 10
54.7427980143
 20
57.2304502647
 11
62.3198575699
 21
61.605041526
  0
LINE
  5
23B
100
AcDbEntity
  8
0
100
AcDbLine
 62
7
  6
BYLAYER
 10
64.5379900667
 20
60.3244311031
 11
56.9609305111
 21
55.9498398418
  0
LINE
  5
23C
100
AcDbEntity
  8
0
100
AcDbLine
 62
7
  6
BYLAYER
 10
55.2771394987
 20
54.9777084504
 11
47.7000799431
 21
50.6031171891
  0
LINE
  5
23D
100
AcDbEntity
  8
0
100
AcDbLine
 62
7
  6
BYLAYER
 10
33.8490366731
 20
40.6113079809
 11
42.4230349696
 21
45.5614786568
  0
LINE
  5
23E
100
AcDbEntity
  8
0
100
AcDbLine
 62
7
  6
BYLAYER
 10
27.4224271683
 20
62.4568067308
 11
27.5494238447
 21
62.4442323357
  0
LINE
  5
23F
100
AcDbEntity
  8
0
100
AcDbLine
 62
7
  6
BYLAYER
 10
53.0590070019
 20
56.2583188733
 11
55.2771394987
 21
54.9777084504
  0
LINE
  5
240
100
AcDbEntity
  8
0
100
AcDbLine
 62
7
  6
BYLAYER
 10
49.4063357098
 20
43.7073712508
 11
49.4063357098
 21
47.6478119159
  0
LINE
  5
241
100
AcDbEntity
  8
0
100
AcDbLine
 62
7
  6
BYLAYER
 10
33.3305635029
 20
39.2750110735
 11
42.4230349696
 21
44.5245205871
  0
LINE
  5
242
100
AcDbEntity
  8
0
100
AcDbLine
 62
7
  6
BYLAYER
 10
49.4063357098
 20
47.6478119159
 11
56.9833952655
 21
52.0224031772
  0
LINE
  5
243
100
AcDbEntity
  8
0
100
AcDbLine
 62
7
  6
BYLAYER
 10
58.6671862779
 20
52.9945345686
 11
66.2442458335
 21
57.3691258299
  0
LINE
  5
244
100
AcDbEntity
  8
0
100
AcDbLine
 62
7
  6
BYLAYER
 10
27.782792389
 20
39.2530349712
 11
31.8328108245
 21
40.6705827107
  0
LINE
  5
245
100
AcDbEntity
  8
0
100
AcDbLine
 62
7
  6
BYLAYER
 10
31.8328108245
 20
39.633624641
 11
27.2413241496
 21
38.0265574977
  0
LINE
  5
246
100
AcDbEntity
  8
0
100
AcDbLine
 62
7
  6
BYLAYER
 10
56.9609305111
 20
55.9498398418
 11
54.7427980143
 21
57.2304502647
  0
LINE
  5
247
100
AcDbEntity
  8
0
100
AcDbLine
 62
7
  6
BYLAYER
 10
56.9833952655
 20
49.1403511686
 11
57.2107103241
 21
49.2715907955
  0
LINE
  5
248
100
AcDbEntity
  8
0
100
AcDbLine
 62
7
  6
BYLAYER
 10
66.2442458335
 20
53.4286851649
 11
58.6671862779
 21
49.0540939035
  0
LINE
  5
249
100
AcDbEntity
  8
0
100
AcDbLine
 62
7
  6
BYLAYER
 10
56.9833952655
 20
48.0819625121
 11
49.4063357098
 21
43.7073712508
  0
LINE
  5
24A
100
AcDbEntity
  8
0
100
AcDbLine
 62
7
  6
BYLAYER
 10
66.2380389992
 20
53.3689750288
 11
67.5772063073
 21
54.1421390195
  0
LINE
  5
24B
100
AcDbEntity
  8
0
100
AcDbLine
 62
7
  6
BYLAYER
 10
54.7427980143
 20
55.2862036712
 11
54.7427980143
 21
57.2304502647
  0
LINE
  5
24C
100
AcDbEntity
  8
0
100
AcDbLine
 62
7
  6
BYLAYER
 10
48.9065745417
 20
42.6027337737
 11
56.4836340974
 21
46.977325035
  0
LINE
  5
24D
100
AcDbEntity
  8
0
100
AcDbLine
 62
7
  6
BYLAYER
 10
58.1674251097
 20
47.9494564264
 11
65.7444846654
 21
52.3240476877
  0
LINE
  5
24E
100
AcDbEntity
  8
0
100
AcDbLine
 62
7
  6
BYLAYER
 10
59.589801167
 20
60.0288521355
 11
57.0760253381
 21
61.4801484543
  0
LINE
  5
24F
100
AcDbEntity
  8
0
100
AcDbLine
 62
7
  6
BYLAYER
 10
56.9833952655
 20
52.0224031772
 11
56.9833952655
 21
48.0819625121
  0
LINE
  5
250
100
AcDbEntity
  8
0
100
AcDbLine
 62
7
  6
BYLAYER
 10
57.0760253381
 20
58.5984670149
 11
57.0760253381
 21
61.5366736798
  0
LINE
  5
251
100
AcDbEntity
  8
0
100
AcDbLine
 62
7
  6
BYLAYER
 10
57.1355565881
 20
61.9582111609
 11
57.1355565881
 21
62.9951692307
  0
LINE
  5
252
100
AcDbEntity
  8
0
100
AcDbLine
 62
7
  6
BYLAYER
 10
66.5855150085
 20
59.0870673374
 11
66.0088201296
 21
59.4200318009
  0
LINE
  5
253
100
AcDbEntity
  8
0
100
AcDbLine
 62
7
  6
BYLAYER
 10
62.3198575699
 20
61.605041526
 11
64.5379900667
 21
60.3244311031
  0
LINE
  5
254
100
AcDbEntity
  8
0
100
AcDbLine
 62
7
  6
BYLAYER
 10
58.6671862779
 20
49.0540939035
 11
58.6671862779
 21
52.9945345686
  0
LINE
  5
255
100
AcDbEntity
  8
0
100
AcDbLine
 62
7
  6
BYLAYER
 10
53.6482616499
 20
67.8558261877
 11
44.3873339684
 21
73.2025043196
  0
LINE
  5
256
100
AcDbEntity
  8
0
100
AcDbLine
 62
7
  6
BYLAYER
 10
66.2442458335
 20
57.3691258299
 11
66.2442458335
 21
53.4286851649
  0
LINE
  5
257
100
AcDbEntity
  8
0
100
AcDbLine
 62
7
  6
BYLAYER
 10
68.2268910237
 20
56.2440879321
 11
68.2268958259
 21
55.5781677397
  0
ARC
  5
258
100
AcDbEntity
  8
0
100
AcDbCircle
 62
7
  6
BYLAYER
 10
37.3030970731
 20
58.598355775
 40
3.9800192015
100
AcDbArc
 50
173.9096514694
 51
179.9983969
  0
ARC
  5
259
100
AcDbEntity
  8
0
100
AcDbCircle
 62
7
  6
BYLAYER
 10
53.1587259952
 20
61.9583025721
 40
3.9768175927
100
AcDbArc
 50
355.8595018728
 51
356.9823368813
  0
ARC
  5
25A
100
AcDbEntity
  8
0
100
AcDbCircle
 62
7
  6
BYLAYER
 10
53.164505274
 20
61.9579860756
 40
3.9710296661
100
AcDbArc
 50
356.9825073436
 51
0.0032457556
  0
ARC
  5
25B
100
AcDbEntity
  8
0
100
AcDbCircle
 62
7
  6
BYLAYER
 10
53.1254575634
 20
58.5982402242
 40
3.9505479969
100
AcDbArc
 50
359.662388407
 51
0.0032882042
  0
ARC
  5
25C
100
AcDbEntity
  8
0
100
AcDbCircle
 62
7
  6
BYLAYER
 10
37.3261884765
 20
58.5982928495
 40
3.943591686
100
AcDbArc
 50
179.9974697268
 51
181.5124967549
  0
ARC
  5
25D
100
AcDbEntity
  8
0
100
AcDbCircle
 62
7
  6
BYLAYER
 10
54.0494691963
 20
49.9632818996
 40
3.6454089143
100
AcDbArc
 50
34.994522296
 51
36.2356717939
  0
ARC
  5
25E
100
AcDbEntity
  8
0
100
AcDbCircle
 62
7
  6
BYLAYER
 10
54.0784885373
 20
49.9844256015
 40
3.6095039238
100
AcDbArc
 50
36.237246663
 51
36.626718761
  0
ARC
  5
25F
100
AcDbEntity
  8
0
100
AcDbCircle
 62
7
  6
BYLAYER
 10
43.8045237501
 20
43.1659767789
 40
2.7653101993
100
AcDbArc
 50
115.5440124845
 51
119.9720999799
  0
ARC
  5
260
100
AcDbEntity
  8
0
100
AcDbCircle
 62
7
  6
BYLAYER
 10
40.7854902759
 20
62.9953771728
 40
2.2236650881
100
AcDbArc
 50
180.0053561955
 51
180.5009133808
  0
ARC
  5
261
100
AcDbEntity
  8
0
100
AcDbCircle
 62
7
  6
BYLAYER
 10
49.6736595748
 20
62.9949616035
 40
2.2231284136
100
AcDbArc
 50
359.4714955133
 51
0.005349371
  0
SPLINE
  5
262
100
AcDbEntity
  8
0
100
AcDbSpline
 62
7
  6
BYLAYER
 70
0
 71
3
 72
14
 73
10
 74
0
 42
0.0000001
 43
0.0000001
 44
0.0000000001
 40
0.0
 40
0.0
 40
0.0
 40
0.0
 40
0.2892630221
 40
0.4225627951
 40
0.5485082827
 40
0.6678909515
 40
0.7818704516
 40
0.8919550708
 40
1.0
 40
1.0
 40
1.0
 40
1.0
 10
14.9210403242
 20
48.0891159744
 30
0.0
 10
14.7120034839
 20
47.9684292187
 30
0.0
 10
14.4192333589
 20
47.7668449068
 30
0.0
 10
14.0880034739
 20
47.4498409012
 30
0.0
 10
13.886391116
 20
47.2054894006
 30
0.0
 10
13.727091571
 20
46.9503692088
 30
0.0
 10
13.6117065013
 20
46.6868046453
 30
0.0
 10
13.541821855
 20
46.41740987
 30
0.0
 10
13.5261764182
 20
46.2350271217
 30
0.0
 10
13.5261672727
 20
46.1448693809
 30
0.0
  0
SPLINE
  5
263
100
AcDbEntity
  8
0
100
AcDbSpline
 62
7
  6
BYLAYER
 70
0
 71
3
 72
15
 73
11
 74
0
 42
0.0000001
 43
0.0000001
 44
0.0000000001
 40
0.0
 40
0.0
 40
0.0
 40
0.0
 40
0.1485547683
 40
0.2895089108
 40
0.4227326418
 40
0.5486406705
 40
0.6680016091
 40
0.781939512
 40
0.8919872335
 40
1.0
 40
1.0
 40
1.0
 40
1.0
 10
11.5534302582
 20
48.7371649806
 30
0.0
 10
11.338653654
 20
48.6131643905
 30
0.0
 10
10.9298261115
 20
48.353983224
 30
0.0
 10
10.3708216033
 20
47.9214002444
 30
0.0
 10
9.8873317624
 20
47.4585870453
 30
0.0
 10
9.4842048135
 20
46.9699177967
 30
0.0
 10
9.1654595203
 20
46.4597172598
 30
0.0
 10
8.9347650712
 20
45.9325355515
 30
0.0
 10
8.7949560089
 20
45.393765893
 30
0.0
 10
8.7636828126
 20
45.0289918597
 30
0.0
 10
8.7636829664
 20
44.8486717407
 30
0.0
  0
SPLINE
  5
264
100
AcDbEntity
  8
0
100
AcDbSpline
 62
7
  6
BYLAYER
 70
0
 71
3
 72
25
 73
21
 74
0
 42
0.0000001
 43
0.0000001
 44
0.0000000001
 40
0.0
 40
0.0
 40
0.0
 40
0.0
 40
0.062378927
 40
0.128724751
 40
0.1983143922
 40
0.2702917234
 40
0.3436683196
 40
0.4174015721
 40
0.4904272011
 40
0.5617144182
 40
0.6303118247
 40
0.6953992556
 40
0.7563466834
 40
0.8127838688
 40
0.8646841795
 40
0.9124584885
 40
0.9351027534
 40
0.9571077974
 40
0.9786680988
 40
1.0
 40
1.0
 40
1.0
 40
1.0
 10
25.0238705223
 20
35.7753882582
 30
0.0
 10
24.6816790232
 20
35.5778250834
 30
0.0
 10
23.9482864346
 20
35.2162477764
 30
0.0
 10
22.7652818486
 20
34.7875599891
 30
0.0
 10
21.4868143975
 20
34.4630528645
 30
0.0
 10
20.1403491152
 20
34.2495174795
 30
0.0
 10
18.7543467326
 20
34.1515450834
 30
0.0
 10
17.3584133213
 20
34.1711737355
 30
0.0
 10
15.9823147105
 20
34.3080233522
 30
0.0
 10
14.6553937789
 20
34.5591706079
 30
0.0
 10
13.4058389055
 20
34.9192975698
 30
0.0
 10
12.2600579578
 20
35.3809003337
 30
0.0
 10
11.2421281027
 20
35.9345244806
 30
0.0
 10
10.3733297146
 20
36.5694042605
 30
0.0
 10
9.6722843824
 20
37.2732509521
 30
0.0
 10
9.2334475524
 20
37.9190227706
 30
0.0
 10
8.9888978415
 20
38.4521928726
 30
0.0
 10
8.8592718804
 20
38.8521391122
 30
0.0
 10
8.7810845373
 20
39.2567485533
 30
0.0
 10
8.7636830565
 20
39.5287583211
 30
0.0
 10
8.7636827512
 20
39.6638814212
 30
0.0
  0
SPLINE
  5
265
100
AcDbEntity
  8
0
100
AcDbSpline
 62
7
  6
BYLAYER
 70
0
 71
3
 72
15
 73
11
 74
0
 42
0.0000001
 43
0.0000001
 44
0.0000000001
 40
0.0
 40
0.0
 40
0.0
 40
0.0
 40
0.1080093329
 40
0.2180557294
 40
0.3319994383
 40
0.4513504917
 40
0.5772553336
 40
0.7104979863
 40
0.8514742906
 40
1.0
 40
1.0
 40
1.0
 40
1.0
 10
50.7855499775
 20
62.9744300688
 30
0.0
 10
50.7855507271
 20
62.8692468652
 30
0.0
 10
50.7672492573
 20
62.6564750025
 30
0.0
 10
50.6857735901
 20
62.3421716533
 30
0.0
 10
50.5511258987
 20
62.0346868972
 30
0.0
 10
50.3652703882
 20
61.7370339047
 30
0.0
 10
50.1300766168
 20
61.4519951038
 30
0.0
 10
49.8480261213
 20
61.1819859848
 30
0.0
 10
49.5219098092
 20
60.9296662301
 30
0.0
 10
49.2834466188
 20
60.7784617755
 30
0.0
 10
49.1581849984
 20
60.706142377
 30
0.0
  0
SPLINE
  5
266
100
AcDbEntity
  8
0
100
AcDbSpline
 62
7
  6
BYLAYER
 70
0
 71
3
 72
15
 73
11
 74
0
 42
0.0000001
 43
0.0000001
 44
0.0000000001
 40
0.0
 40
0.0
 40
0.0
 40
0.0
 40
0.1079617453
 40
0.2180379204
 40
0.3320482604
 40
0.4514771902
 40
0.5774298429
 40
0.7106638276
 40
0.8515746566
 40
1.0
 40
1.0
 40
1.0
 40
1.0
 10
51.8966934119
 20
62.974455439
 30
0.0
 10
51.8955365058
 20
62.8490397533
 30
0.0
 10
51.8715019206
 20
62.5954574841
 30
0.0
 10
51.7715458756
 20
62.2212170869
 30
0.0
 10
51.6087977821
 20
61.8551578335
 30
0.0
 10
51.3854462233
 20
61.5008715915
 30
0.0
 10
51.1038251471
 20
61.1615632757
 30
0.0
 10
50.7667929436
 20
60.8401202282
 30
0.0
 10
50.3776462302
 20
60.5396178653
 30
0.0
 10
50.0932881755
 20
60.3594377547
 30
0.0
 10
49.9439606805
 20
60.2732239999
 30
0.0
  0
SPLINE
  5
267
100
AcDbEntity
  8
0
100
AcDbSpline
 62
7
  6
BYLAYER
 70
0
 71
3
 72
9
 73
5
 74
0
 42
0.0000001
 43
0.0000001
 44
0.0000000001
 40
0.0
 40
0.0
 40
0.0
 40
0.0
 40
0.2443404054
 40
1.0
 40
1.0
 40
1.0
 40
1.0
 10
32.7880915762
 20
40.0264856807
 30
0.0
 10
32.7122069279
 20
39.9901128564
 30
0.0
 10
32.3994459097
 20
39.8458480586
 30
0.0
 10
32.0784501104
 20
39.7196008951
 30
0.0
 10
31.8328108245
 20
39.633624641
 30
0.0
  0
SPLINE
  5
268
100
AcDbEntity
  8
0
100
AcDbSpline
 62
7
  6
BYLAYER
 70
0
 71
3
 72
15
 73
11
 74
0
 42
0.0000001
 43
0.0000001
 44
0.0000000001
 40
0.0
 40
0.0
 40
0.0
 40
0.0
 40
0.1141496252
 40
0.2373167591
 40
0.3669640876
 40
0.499984676
 40
0.6330146339
 40
0.7626542761
 40
0.8858624634
 40
1.0
 40
1.0
 40
1.0
 40
1.0
 10
66.5855150088
 20
59.0870424975
 30
0.0
 10
66.6978748867
 20
59.0221706328
 30
0.0
 10
66.9198073511
 20
58.8665974452
 30
0.0
 10
67.2251841637
 20
58.5809062559
 30
0.0
 10
67.5066041029
 20
58.2431905901
 30
0.0
 10
67.7534789814
 20
57.8661147144
 30
0.0
 10
67.9565717444
 20
57.4637767256
 30
0.0
 10
68.1083999459
 20
57.0511739399
 30
0.0
 10
68.2030964555
 20
56.6438316893
 30
0.0
 10
68.2268910237
 20
56.3738166332
 30
0.0
 10
68.2268910237
 20
56.2440879321
 30
0.0
  0
SPLINE
  5
269
100
AcDbEntity
  8
0
100
AcDbSpline
 62
7
  6
BYLAYER
 70
0
 71
3
 72
9
 73
5
 74
0
 42
0.0000001
 43
0.0000001
 44
0.0000000001
 40
0.0
 40
0.0
 40
0.0
 40
0.0
 40
0.2325812822
 40
1.0
 40
1.0
 40
1.0
 40
1.0
 10
65.2650573432
 20
59.701160547
 30
0.0
 10
65.3260550327
 20
59.6910100345
 30
0.0
 10
65.5859083416
 20
59.6328463417
 30
0.0
 10
65.8321228213
 20
59.5220509785
 30
0.0
 10
66.0088201296
 20
59.4200318009
 30
0.0
  0
SPLINE
  5
26A
100
AcDbEntity
  8
0
100
AcDbSpline
 62
7
  6
BYLAYER
 70
0
 71
3
 72
10
 73
6
 74
0
 42
0.0000001
 43
0.0000001
 44
0.0000000001
 40
0.0
 40
0.0
 40
0.0
 40
0.0
 40
0.5234894499
 40
0.769176527
 40
1.0
 40
1.0
 40
1.0
 40
1.0
 10
43.8503273659
 20
44.9640211465
 30
0.0
 10
43.589893078
 20
44.9343777831
 30
0.0
 10
43.2092261238
 20
44.8586621555
 30
0.0
 10
42.7377930032
 20
44.6880512951
 30
0.0
 10
42.5231263528
 20
44.5823080292
 30
0.0
 10
42.4230349696
 20
44.5245205871
 30
0.0
  0
SPLINE
  5
26B
100
AcDbEntity
  8
0
100
AcDbSpline
 62
7
  6
BYLAYER
 70
0
 71
3
 72
15
 73
11
 74
0
 42
0.0000001
 43
0.0000001
 44
0.0000000001
 40
0.0
 40
0.0
 40
0.0
 40
0.0
 40
0.1141241598
 40
0.2373483675
 40
0.3669736385
 40
0.5000010132
 40
0.6330282465
 40
0.7626531028
 40
0.8858766831
 40
1.0
 40
1.0
 40
1.0
 40
1.0
 10
26.4717886236
 20
54.9781183015
 30
0.0
 10
26.4717886236
 20
54.8929564653
 30
0.0
 10
26.4874255197
 20
54.7156810888
 30
0.0
 10
26.5495774156
 20
54.4482503338
 30
0.0
 10
26.6492614409
 20
54.1773626164
 30
0.0
 10
26.782588042
 20
53.9132142424
 30
0.0
 10
26.9446849198
 20
53.6656768394
 30
0.0
 10
27.1294391311
 20
53.4439057029
 30
0.0
 10
27.3299651842
 20
53.2563674344
 30
0.0
 10
27.4756716586
 20
53.1541895892
 30
0.0
 10
27.5494238447
 20
53.111609708
 30
0.0
  0
SPLINE
  5
26C
100
AcDbEntity
  8
0
100
AcDbSpline
 62
7
  6
BYLAYER
 70
0
 71
3
 72
24
 73
20
 74
0
 42
0.0000001
 43
0.0000001
 44
0.0000000001
 40
0.0
 40
0.0
 40
0.0
 40
0.0
 40
0.0623342383
 40
0.1286323051
 40
0.1981629507
 40
0.2700829806
 40
0.343406317
 40
0.4170961436
 40
0.4900944123
 40
0.5613741831
 40
0.6299872642
 40
0.6951139248
 40
0.7561219278
 40
0.8126366357
 40
0.8646227689
 40
0.91247662
 40
0.9571034346
 40
0.9786728402
 40
1.0
 40
1.0
 40
1.0
 40
1.0
 10
49.9439606805
 20
60.2732239999
 30
0.0
 10
49.704961008
 20
60.1352382983
 30
0.0
 10
49.1927690161
 20
59.8826403827
 30
0.0
 10
48.3666661284
 20
59.5829433907
 30
0.0
 10
47.473917519
 20
59.3558682353
 30
0.0
 10
46.5336683552
 20
59.2061036328
 30
0.0
 10
45.5656781474
 20
59.1368809773
 30
0.0
 10
44.5905476228
 20
59.1496470823
 30
0.0
 10
43.6289777636
 20
59.2441257932
 30
0.0
 10
42.7013809456
 20
59.4183114614
 30
0.0
 10
41.827383722
 20
59.6685360233
 30
0.0
 10
41.0253934649
 20
59.9896091693
 30
0.0
 10
40.3122007863
 20
60.3750195008
 30
0.0
 10
39.7026692284
 20
60.8171583391
 30
0.0
 10
39.2097036265
 20
61.3078656779
 30
0.0
 10
38.8445669639
 20
61.8380376637
 30
0.0
 10
38.6531777879
 20
62.3107760068
 30
0.0
 10
38.5765621829
 20
62.6914859853
 30
0.0
 10
38.5627356299
 20
62.8815186163
 30
0.0
 10
38.5619101677
 20
62.9759368333
 30
0.0
  0
SPLINE
  5
26D
100
AcDbEntity
  8
0
100
AcDbSpline
 62
7
  6
BYLAYER
 70
0
 71
3
 72
15
 73
11
 74
0
 42
0.0000001
 43
0.0000001
 44
0.0000000001
 40
0.0
 40
0.0
 40
0.0
 40
0.0
 40
0.1080125018
 40
0.2180589495
 40
0.3319942012
 40
0.4513556498
 40
0.577266287
 40
0.7104865036
 40
0.8514338091
 40
1.0
 40
1.0
 40
1.0
 40
1.0
 10
57.1355353031
 20
62.9951691122
 30
0.0
 10
57.1355206922
 20
63.2205717517
 30
0.0
 10
57.0964110242
 20
63.6765389528
 30
0.0
 10
56.9216629284
 20
64.3500031223
 30
0.0
 10
56.6333139543
 20
65.0089938211
 30
0.0
 10
56.2348439151
 20
65.6467337842
 30
0.0
 10
55.7309419471
 20
66.2575874654
 30
0.0
 10
55.1265706861
 20
66.8360879157
 30
0.0
 10
54.4278186935
 20
67.376844
 30
0.0
 10
53.9167577917
 20
67.7008133748
 30
0.0
 10
53.6482616499
 20
67.8558261877
 30
0.0
  0
SPLINE
  5
26E
100
AcDbEntity
  8
0
100
AcDbSpline
 62
7
  6
BYLAYER
 70
0
 71
3
 72
14
 73
10
 74
0
 42
0.0000001
 43
0.0000001
 44
0.0000000001
 40
0.0
 40
0.0
 40
0.0
 40
0.0
 40
0.1074460639
 40
0.2175392578
 40
0.3318807241
 40
0.4517551952
 40
0.578100378
 40
0.711505745
 40
1.0
 40
1.0
 40
1.0
 40
1.0
 10
57.1251640842
 20
61.6711666259
 30
0.0
 10
57.1094322529
 20
61.4538433418
 30
0.0
 10
57.0411235332
 20
61.0157109871
 30
0.0
 10
56.8329592859
 20
60.3730351492
 30
0.0
 10
56.5207614998
 20
59.7458033673
 30
0.0
 10
56.108123317
 20
59.1397470602
 30
0.0
 10
55.5990780331
 20
58.5598274631
 30
0.0
 10
54.7770733776
 20
57.8087661238
 30
0.0
 10
54.0607488789
 20
57.3297057847
 30
0.0
 10
53.5512252352
 20
57.0421974431
 30
0.0
  0
SPLINE
  5
26F
100
AcDbEntity
  8
0
100
AcDbSpline
 62
7
  6
BYLAYER
 70
0
 71
3
 72
18
 73
14
 74
0
 42
0.0000001
 43
0.0000001
 44
0.0000000001
 40
0.0
 40
0.0
 40
0.0
 40
0.0
 40
0.1145697639
 40
0.1753435369
 40
0.2380379115
 40
0.3677388769
 40
0.5006680885
 40
0.6334973009
 40
0.7629102679
 40
0.8253933697
 40
0.8859210457
 40
0.9442186453
 40
1.0
 40
1.0
 40
1.0
 40
1.0
 10
53.5512252352
 20
57.0421974431
 30
0.0
 10
52.9730992949
 20
56.7159789597
 30
0.0
 10
52.0439726926
 20
56.2924925882
 30
0.0
 10
50.7366342695
 20
55.8515994008
 30
0.0
 10
49.3180196727
 20
55.4745447261
 30
0.0
 10
47.4543817895
 20
55.1616560183
 30
0.0
 10
45.1615592765
 20
55.0414310395
 30
0.0
 10
42.8712661544
 20
55.1766117416
 30
0.0
 10
41.0131424374
 20
55.5018196645
 30
0.0
 10
39.601686855
 20
55.8882462621
 30
0.0
 10
38.6081564055
 20
56.2321031289
 30
0.0
 10
37.6771460102
 20
56.6300839623
 30
0.0
 10
37.0902484202
 20
56.9359593126
 30
0.0
 10
36.8103515263
 20
57.0975542039
 30
0.0
  0
SPLINE
  5
270
100
AcDbEntity
  8
0
100
AcDbSpline
 62
7
  6
BYLAYER
 70
0
 71
3
 72
11
 73
7
 74
0
 42
0.0000001
 43
0.0000001
 44
0.0000000001
 40
0.0
 40
0.0
 40
0.0
 40
0.0
 40
0.2177833598
 40
0.4509104088
 40
0.7102966711
 40
1.0
 40
1.0
 40
1.0
 40
1.0
 10
26.7874310584
 20
63.556658821
 30
0.0
 10
26.7371594917
 20
63.5276346826
 30
0.0
 10
26.6431034565
 20
63.4485619616
 30
0.0
 10
26.5429696597
 20
63.2848386443
 30
0.0
 10
26.483496073
 20
63.0830706499
 30
0.0
 10
26.4717886236
 20
62.9362178837
 30
0.0
 10
26.4717886236
 20
62.8589996317
 30
0.0
  0
SPLINE
  5
271
100
AcDbEntity
  8
0
100
AcDbSpline
 62
7
  6
BYLAYER
 70
0
 71
3
 72
12
 73
8
 74
0
 42
0.0000001
 43
0.0000001
 44
0.0000000001
 40
0.0
 40
0.0
 40
0.0
 40
0.0
 40
0.2889127459
 40
0.5477434755
 40
0.7809978409
 40
0.891494972
 40
1.0
 40
1.0
 40
1.0
 40
1.0
 10
56.981132691
 20
48.05743422
 30
0.0
 10
57.0854896088
 20
47.9986224577
 30
0.0
 10
57.2929235063
 20
47.9024967697
 30
0.0
 10
57.6109648755
 20
47.8286788717
 30
0.0
 10
57.8645807989
 20
47.8372718801
 30
0.0
 10
58.0458181425
 20
47.888133264
 30
0.0
 10
58.128455418
 20
47.9269778787
 30
0.0
 10
58.167416241
 20
47.9494717875
 30
0.0
  0
SPLINE
  5
272
100
AcDbEntity
  8
0
100
AcDbSpline
 62
7
  6
BYLAYER
 70
0
 71
3
 72
11
 73
7
 74
0
 42
0.0000001
 43
0.0000001
 44
0.0000000001
 40
0.0
 40
0.0
 40
0.0
 40
0.0
 40
0.2177843137
 40
0.4509117637
 40
0.7102976701
 40
1.0
 40
1.0
 40
1.0
 40
1.0
 10
43.625341182
 20
73.277972735
 30
0.0
 10
43.6756116386
 20
73.3069962012
 30
0.0
 10
43.7911158281
 20
73.3489136175
 30
0.0
 10
43.9829663184
 20
73.353771235
 30
0.0
 10
44.1874339789
 20
73.30439594
 30
0.0
 10
44.3204626405
 20
73.2411116253
 30
0.0
 10
44.3873339684
 20
73.2025043196
 30
0.0
  0
SPLINE
  5
273
100
AcDbEntity
  8
0
100
AcDbSpline
 62
7
  6
BYLAYER
 70
0
 71
3
 72
10
 73
6
 74
0
 42
0.0000001
 43
0.0000001
 44
0.0000000001
 40
0.0
 40
0.0
 40
0.0
 40
0.0
 40
0.228182991
 40
0.5972063
 40
1.0
 40
1.0
 40
1.0
 40
1.0
 10
29.9592364772
 20
51.5368807103
 30
0.0
 10
29.9260601851
 20
51.5870152487
 30
0.0
 10
29.8293577805
 20
51.7118508281
 30
0.0
 10
29.6352599796
 20
51.8920673444
 30
0.0
 10
29.4654500608
 20
52.0054164818
 30
0.0
 10
29.3735459638
 20
52.0584761365
 30
0.0
  0
SPLINE
  5
274
100
AcDbEntity
  8
0
100
AcDbSpline
 62
7
  6
BYLAYER
 70
0
 71
3
 72
12
 73
8
 74
0
 42
0.0000001
 43
0.0000001
 44
0.0000000001
 40
0.0
 40
0.0
 40
0.0
 40
0.0
 40
0.289556229
 40
0.5486533222
 40
0.7816321932
 40
0.8918390364
 40
1.0
 40
1.0
 40
1.0
 40
1.0
 10
56.9833952655
 20
48.0819625121
 30
0.0
 10
56.9833952655
 20
47.959668645
 30
0.0
 10
56.9648417216
 20
47.7271220483
 30
0.0
 10
56.8708562222
 20
47.407782259
 30
0.0
 10
56.7356753385
 20
47.1874958648
 30
0.0
 10
56.5992660237
 20
47.0532521069
 30
0.0
 10
56.5231868049
 20
47.0001811479
 30
0.0
 10
56.4836252287
 20
46.9773403961
 30
0.0
  0
SPLINE
  5
275
100
AcDbEntity
  8
0
100
AcDbSpline
 62
7
  6
BYLAYER
 70
0
 71
3
 72
15
 73
11
 74
0
 42
0.0000001
 43
0.0000001
 44
0.0000000001
 40
0.0
 40
0.0
 40
0.0
 40
0.0
 40
0.1141465952
 40
0.2373352439
 40
0.366975646
 40
0.4999989181
 40
0.6330223406
 40
0.7626631822
 40
0.8858525235
 40
1.0
 40
1.0
 40
1.0
 40
1.0
 10
55.2771394987
 20
54.9777084504
 30
0.0
 10
55.3939378848
 20
54.9102763963
 30
0.0
 10
55.6246513843
 20
54.7485317567
 30
0.0
 10
55.9421198386
 20
54.4515534082
 30
0.0
 10
56.2346476219
 20
54.1004520698
 30
0.0
 10
56.4912857319
 20
53.7084955064
 30
0.0
 10
56.7024132341
 20
53.2902626421
 30
0.0
 10
56.860214793
 20
52.8613748988
 30
0.0
 10
56.9586745827
 20
52.4379483027
 30
0.0
 10
56.9833952655
 20
52.157270615
 30
0.0
 10
56.9833952655
 20
52.0224031772
 30
0.0
  0
SPLINE
  5
276
100
AcDbEntity
  8
0
100
AcDbSpline
 62
7
  6
BYLAYER
 70
0
 71
3
 72
13
 73
9
 74
0
 42
0.0000001
 43
0.0000001
 44
0.0000000001
 40
0.0
 40
0.0
 40
0.0
 40
0.0
 40
0.1080936316
 40
0.2182319596
 40
0.3322552351
 40
0.451683196
 40
0.7106208532
 40
1.0
 40
1.0
 40
1.0
 40
1.0
 10
30.129107571
 20
52.0422918656
 30
0.0
 10
30.1291075717
 20
51.9934565564
 30
0.0
 10
30.1206520694
 20
51.8946599123
 30
0.0
 10
30.0827518005
 20
51.7487539039
 30
0.0
 10
30.0202946163
 20
51.6059742156
 30
0.0
 10
29.9020851708
 20
51.4167226298
 30
0.0
 10
29.6921060049
 20
51.1958269242
 30
0.0
 10
29.4867835501
 20
51.0545268855
 30
0.0
 10
29.3735611529
 20
50.9891582942
 30
0.0
  0
SPLINE
  5
277
100
AcDbEntity
  8
0
100
AcDbSpline
 62
7
  6
BYLAYER
 70
0
 71
3
 72
15
 73
11
 74
0
 42
0.0000001
 43
0.0000001
 44
0.0000000001
 40
0.0
 40
0.0
 40
0.0
 40
0.0
 40
0.1485651103
 40
0.2895098707
 40
0.4227292568
 40
0.5486402634
 40
0.6680022996
 40
0.7819383922
 40
0.8919860337
 40
1.0
 40
1.0
 40
1.0
 40
1.0
 10
36.8103515263
 20
49.0092812598
 30
0.0
 10
36.5418573263
 20
49.1642929516
 30
0.0
 10
36.0308013138
 20
49.4882560568
 30
0.0
 10
35.3320579377
 20
50.0290080277
 30
0.0
 10
34.7276880854
 20
50.6075007893
 30
0.0
 10
34.2237843074
 20
51.2183533396
 30
0.0
 10
33.8253079376
 20
51.8560938256
 30
0.0
 10
33.536955249
 20
52.5150890267
 30
0.0
 10
33.3622032914
 20
53.1885598182
 30
0.0
 10
33.3230930303
 20
53.6445326419
 30
0.0
 10
33.3230782424
 20
53.8699383468
 30
0.0
  0
SPLINE
  5
278
100
AcDbEntity
  8
0
100
AcDbSpline
 62
7
  6
BYLAYER
 70
0
 71
3
 72
12
 73
8
 74
0
 42
0.0000001
 43
0.0000001
 44
0.0000000001
 40
0.0
 40
0.0
 40
0.0
 40
0.0
 40
0.289556229
 40
0.5486533222
 40
0.7816321932
 40
0.8918390364
 40
1.0
 40
1.0
 40
1.0
 40
1.0
 10
66.2442458335
 20
53.4286851649
 30
0.0
 10
66.2442458335
 20
53.3063912978
 30
0.0
 10
66.2256922896
 20
53.0738447011
 30
0.0
 10
66.1317067902
 20
52.7545049117
 30
0.0
 10
65.9965259065
 20
52.5342185175
 30
0.0
 10
65.8601165917
 20
52.3999747596
 30
0.0
 10
65.7840373729
 20
52.3469038006
 30
0.0
 10
65.7444757967
 20
52.3240630488
 30
0.0
  0
SPLINE
  5
279
100
AcDbEntity
  8
0
100
AcDbSpline
 62
7
  6
BYLAYER
 70
0
 71
3
 72
15
 73
11
 74
0
 42
0.0000001
 43
0.0000001
 44
0.0000000001
 40
0.0
 40
0.0
 40
0.0
 40
0.0
 40
0.1141465952
 40
0.2373352439
 40
0.366975646
 40
0.4999989181
 40
0.6330223406
 40
0.7626631822
 40
0.8858525235
 40
1.0
 40
1.0
 40
1.0
 40
1.0
 10
64.5379900667
 20
60.3244311031
 30
0.0
 10
64.6547884528
 20
60.256999049
 30
0.0
 10
64.8855019523
 20
60.0952544094
 30
0.0
 10
65.2029704066
 20
59.798276061
 30
0.0
 10
65.4954981899
 20
59.4471747226
 30
0.0
 10
65.7521362999
 20
59.0552181591
 30
0.0
 10
65.9632638022
 20
58.6369852948
 30
0.0
 10
66.121065361
 20
58.2080975516
 30
0.0
 10
66.2195251507
 20
57.7846709554
 30
0.0
 10
66.2442458335
 20
57.5039932677
 30
0.0
 10
66.2442458335
 20
57.3691258299
 30
0.0
  0
SPLINE
  5
27A
100
AcDbEntity
  8
0
100
AcDbSpline
 62
7
  6
BYLAYER
 70
0
 71
3
 72
25
 73
21
 74
0
 42
0.0000001
 43
0.0000001
 44
0.0000000001
 40
0.0
 40
0.0
 40
0.0
 40
0.0
 40
0.0213321775
 40
0.0428928023
 40
0.0648982069
 40
0.0875428441
 40
0.1353179511
 40
0.1872189799
 40
0.2436566194
 40
0.304604151
 40
0.3696912767
 40
0.4382879469
 40
0.509574079
 40
0.5825984934
 40
0.656330692
 40
0.7297066222
 40
0.8016837824
 40
0.8712735275
 40
0.937620354
 40
1.0
 40
1.0
 40
1.0
 40
1.0
 10
27.8136178142
 20
44.8486718468
 30
0.0
 10
27.813617699
 20
44.9837966932
 30
0.0
 10
27.7962163097
 20
45.2558103426
 30
0.0
 10
27.7180255647
 20
45.6604253931
 30
0.0
 10
27.5883956356
 20
46.0603773379
 30
0.0
 10
27.3438399357
 20
46.593555403
 30
0.0
 10
26.904990909
 20
47.2393337963
 30
0.0
 10
26.2039301514
 20
47.9431826824
 30
0.0
 10
25.335120476
 20
48.5780605495
 30
0.0
 10
24.3171859617
 20
49.1316792853
 30
0.0
 10
23.1714084435
 20
49.5932744113
 30
0.0
 10
21.9218652449
 20
49.9533929172
 30
0.0
 10
20.5949626139
 20
50.2045328169
 30
0.0
 10
19.2188851437
 20
50.3413788976
 30
0.0
 10
17.8229704539
 20
50.3610084022
 30
0.0
 10
16.4369799067
 20
50.2630388918
 30
0.0
 10
15.0905190501
 20
50.0495060097
 30
0.0
 10
13.8120447242
 20
49.7250017796
 30
0.0
 10
12.6290291817
 20
49.296310337
 30
0.0
 10
11.8956256926
 20
48.9347304274
 30
0.0
 10
11.5534302582
 20
48.7371649806
 30
0.0
  0
SPLINE
  5
27B
100
AcDbEntity
  8
0
100
AcDbSpline
 62
7
  6
BYLAYER
 70
0
 71
3
 72
15
 73
11
 74
0
 42
0.0000001
 43
0.0000001
 44
0.0000000001
 40
0.0
 40
0.0
 40
0.0
 40
0.0
 40
0.1080112553
 40
0.2180578142
 40
0.3319950603
 40
0.4513553625
 40
0.5772631405
 40
0.7104879536
 40
0.8514445381
 40
1.0
 40
1.0
 40
1.0
 40
1.0
 10
27.8136180293
 20
39.6638814688
 30
0.0
 10
27.8136184368
 20
39.4835638897
 30
0.0
 10
27.7823440155
 20
39.1187946332
 30
0.0
 10
27.6425406107
 20
38.5800293379
 30
0.0
 10
27.4118464835
 20
38.052852048
 30
0.0
 10
27.0931081595
 20
37.5426504233
 30
0.0
 10
26.6899812572
 20
37.05398059
 30
0.0
 10
26.2064899978
 20
36.5911610573
 30
0.0
 10
25.6474787887
 20
36.1585752214
 30
0.0
 10
25.2386481091
 20
35.8993894156
 30
0.0
 10
25.0238705223
 20
35.7753882582
 30
0.0
  0
SPLINE
  5
27C
100
AcDbEntity
  8
0
100
AcDbSpline
 62
7
  6
BYLAYER
 70
0
 71
3
 72
12
 73
8
 74
0
 42
0.0000001
 43
0.0000001
 44
0.0000000001
 40
0.0
 40
0.0
 40
0.0
 40
0.0
 40
0.2895552427
 40
0.5486519846
 40
0.7816312595
 40
0.8918385311
 40
1.0
 40
1.0
 40
1.0
 40
1.0
 10
47.7000799431
 20
42.7222358589
 30
0.0
 10
47.8059869426
 20
42.6610918075
 30
0.0
 10
48.0166497619
 20
42.5608912861
 30
0.0
 10
48.3401904407
 20
42.4826200832
 30
0.0
 10
48.5985476205
 20
42.4895481114
 30
0.0
 10
48.7830063431
 20
42.5405589996
 30
0.0
 10
48.8670049706
 20
42.5799088875
 30
0.0
 10
48.906565673
 20
42.6027491348
 30
0.0
  0
SPLINE
  5
27D
100
AcDbEntity
  8
0
100
AcDbSpline
 62
7
  6
BYLAYER
 70
0
 71
3
 72
23
 73
19
 74
0
 42
0.0000001
 43
0.0000001
 44
0.0000000001
 40
0.0
 40
0.0
 40
0.0
 40
0.0
 40
0.0428132963
 40
0.0873945847
 40
0.1351774339
 40
0.1870869627
 40
0.2435322997
 40
0.3044885546
 40
0.3695865165
 40
0.4381936385
 40
0.5094908082
 40
0.5825274861
 40
0.656269406
 40
0.7296590266
 40
0.8016493848
 40
0.8712469343
 40
0.9376207298
 40
1.0
 40
1.0
 40
1.0
 40
1.0
 10
23.0511335079
 20
46.144869381
 30
0.0
 10
23.0511472604
 20
46.2804438785
 30
0.0
 10
23.0148492966
 20
46.5583648371
 30
0.0
 10
22.8555014794
 20
46.9596783309
 30
0.0
 10
22.5968462251
 20
47.3401098339
 30
0.0
 10
22.2462727263
 20
47.6921207683
 30
0.0
 10
21.8118986327
 20
48.0095393074
 30
0.0
 10
21.3029439982
 20
48.2863738527
 30
0.0
 10
20.7300533305
 20
48.5171490708
 30
0.0
 10
20.1052857547
 20
48.6972076977
 30
0.0
 10
19.4418404677
 20
48.822795681
 30
0.0
 10
18.7538082672
 20
48.8912086232
 30
0.0
 10
18.0558518947
 20
48.9010295577
 30
0.0
 10
17.3628534145
 20
48.852047872
 30
0.0
 10
16.6896215496
 20
48.7453003917
 30
0.0
 10
16.0503371822
 20
48.583043348
 30
0.0
 10
15.4588421439
 20
48.3686468089
 30
0.0
 10
15.0921091635
 20
48.1878820252
 30
0.0
 10
14.9210403242
 20
48.0891159744
 30
0.0
  0
SPLINE
  5
27E
100
AcDbEntity
  8
0
100
AcDbSpline
 62
7
  6
BYLAYER
 70
0
 71
3
 72
13
 73
9
 74
0
 42
0.0000001
 43
0.0000001
 44
0.0000000001
 40
0.0
 40
0.0
 40
0.0
 40
0.0
 40
0.2893729995
 40
0.548308099
 40
0.6677376712
 40
0.7817628879
 40
0.8919034118
 40
1.0
 40
1.0
 40
1.0
 40
1.0
 10
68.2268958259
 20
55.5781677397
 30
0.0
 10
68.2268958259
 20
55.419187759
 30
0.0
 10
68.2029320541
 20
55.1170477582
 30
0.0
 10
68.0979737257
 20
54.7616068172
 30
0.0
 10
67.9705436443
 20
54.52204617
 30
0.0
 10
67.8581544855
 20
54.369452797
 30
0.0
 10
67.7275375206
 20
54.240822133
 30
0.0
 10
67.6286289374
 20
54.1718477883
 30
0.0
 10
67.5771973998
 20
54.1421544479
 30
0.0
  0
SPLINE
  5
27F
100
AcDbEntity
  8
0
100
AcDbSpline
 62
7
  6
BYLAYER
 70
0
 71
3
 72
23
 73
19
 74
0
 42
0.0000001
 43
0.0000001
 44
0.0000000001
 40
0.0
 40
0.0
 40
0.0
 40
0.0
 40
0.0623831945
 40
0.1287487697
 40
0.1983462288
 40
0.2703360178
 40
0.3437245163
 40
0.4174677012
 40
0.4905050383
 40
0.5618043486
 40
0.6304129956
 40
0.6955106379
 40
0.7564679631
 40
0.8129145891
 40
0.8648228638
 40
0.9126046397
 40
0.9571861
 40
1.0
 40
1.0
 40
1.0
 40
1.0
 10
49.1581849984
 20
60.706142377
 30
0.0
 10
48.9585919393
 20
60.5909079584
 30
0.0
 10
48.5307594922
 20
60.3800037083
 30
0.0
 10
47.8406865088
 20
60.1299039758
 30
0.0
 10
47.0948866002
 20
59.9406163548
 30
0.0
 10
46.309460702
 20
59.8160427608
 30
0.0
 10
45.5009620242
 20
59.7589008109
 30
0.0
 10
44.6866760645
 20
59.7703704738
 30
0.0
 10
43.8839571099
 20
59.850186149
 30
0.0
 10
43.1099142533
 20
59.9966727691
 30
0.0
 10
42.3810074724
 20
60.2067563958
 30
0.0
 10
41.7126398833
 20
60.4760279328
 30
0.0
 10
41.1188423475
 20
60.798982354
 30
0.0
 10
40.6120484313
 20
61.1692829516
 30
0.0
 10
40.2030766277
 20
61.5799930909
 30
0.0
 10
39.9013378019
 20
62.0238285855
 30
0.0
 10
39.7153708599
 20
62.4920085335
 30
0.0
 10
39.6730643259
 20
62.8162574404
 30
0.0
 10
39.6730631987
 20
62.9744300698
 30
0.0
  0
SPLINE
  5
280
100
AcDbEntity
  8
0
100
AcDbSpline
 62
7
  6
BYLAYER
 70
0
 71
3
 72
24
 73
20
 74
0
 42
0.0000001
 43
0.0000001
 44
0.0000000001
 40
0.0
 40
0.0
 40
0.0
 40
0.0
 40
0.021327307
 40
0.0428969082
 40
0.0875242307
 40
0.1353786738
 40
0.1873652739
 40
0.243880201
 40
0.3048881055
 40
0.3700142506
 40
0.4386263755
 40
0.509904961
 40
0.5829021123
 40
0.6565911672
 40
0.7299143373
 40
0.8018346779
 40
0.8713658073
 40
0.9376651307
 40
1.0
 40
1.0
 40
1.0
 40
1.0
 10
51.8967029792
 20
62.9936424924
 30
0.0
 10
51.8958784781
 20
63.08806151
 30
0.0
 10
51.8820550583
 20
63.2780962392
 30
0.0
 10
51.8054388858
 20
63.6588106353
 30
0.0
 10
51.6140507801
 20
64.1315564186
 30
0.0
 10
51.2489085209
 20
64.6617346012
 30
0.0
 10
50.7559378823
 20
65.1524462431
 30
0.0
 10
50.1464025297
 20
65.5945863301
 30
0.0
 10
49.4332095058
 20
65.9799948518
 30
0.0
 10
48.6312240758
 20
66.3010646521
 30
0.0
 10
47.757237014
 20
66.5512866538
 30
0.0
 10
46.8296531705
 20
66.7254707408
 30
0.0
 10
45.8680955981
 20
66.8199494324
 30
0.0
 10
44.8929728391
 20
66.8327187706
 30
0.0
 10
43.924983639
 20
66.7635003081
 30
0.0
 10
42.9847299132
 20
66.613737754
 30
0.0
 10
42.0919701955
 20
66.3866635774
 30
0.0
 10
41.2658560847
 20
66.0869628545
 30
0.0
 10
40.7536549429
 20
65.8343626036
 30
0.0
 10
40.5146524957
 20
65.6963753
 30
0.0
  0
SPLINE
  5
281
100
AcDbEntity
  8
0
100
AcDbSpline
 62
7
  6
BYLAYER
 70
0
 71
3
 72
23
 73
19
 74
0
 42
0.0000001
 43
0.0000001
 44
0.0000000001
 40
0.0
 40
0.0
 40
0.0
 40
0.0
 40
0.0623788467
 40
0.1287511094
 40
0.1983476343
 40
0.270337269
 40
0.34372652
 40
0.4174688326
 40
0.4905066316
 40
0.5618052193
 40
0.630413564
 40
0.6955123383
 40
0.7564689319
 40
0.8129141407
 40
0.8648232311
 40
0.9126056572
 40
0.9571866782
 40
1.0
 40
1.0
 40
1.0
 40
1.0
 10
21.6562604563
 20
42.9044252004
 30
0.0
 10
21.4851927789
 20
42.8056598204
 30
0.0
 10
21.1184661318
 20
42.6248962583
 30
0.0
 10
20.5269798448
 20
42.4105031228
 30
0.0
 10
19.8877060741
 20
42.2482472716
 30
0.0
 10
19.2144817588
 20
42.1414950245
 30
0.0
 10
18.521485484
 20
42.0925119392
 30
0.0
 10
17.8235255735
 20
42.102331373
 30
0.0
 10
17.1354836116
 20
42.1707403517
 30
0.0
 10
16.4720264193
 20
42.2963301634
 30
0.0
 10
15.8472483752
 20
42.476391939
 30
0.0
 10
15.2743507105
 20
42.7071699872
 30
0.0
 10
14.7653935325
 20
42.9840066956
 30
0.0
 10
14.3310209699
 20
43.3014263151
 30
0.0
 10
13.9804519063
 20
43.6534370291
 30
0.0
 10
13.7217977438
 20
44.0338647231
 30
0.0
 10
13.5624511329
 20
44.4351768349
 30
0.0
 10
13.5261559101
 20
44.7130972151
 30
0.0
 10
13.5261694101
 20
44.8486717932
 30
0.0
  0
SPLINE
  5
282
100
AcDbEntity
  8
0
100
AcDbSpline
 62
7
  6
BYLAYER
 70
0
 71
3
 72
12
 73
8
 74
0
 42
0.0000001
 43
0.0000001
 44
0.0000000001
 40
0.0
 40
0.0
 40
0.0
 40
0.0
 40
0.1081609636
 40
0.2183678068
 40
0.4513466778
 40
0.710443771
 40
1.0
 40
1.0
 40
1.0
 40
1.0
 10
48.906565673
 20
42.6027491348
 30
0.0
 10
48.9461272493
 20
42.6255898865
 30
0.0
 10
49.0222064681
 20
42.6786608455
 30
0.0
 10
49.1586157829
 20
42.8129046034
 30
0.0
 10
49.2937966666
 20
43.0331909976
 30
0.0
 10
49.387782166
 20
43.352530787
 30
0.0
 10
49.4063357098
 20
43.5850773837
 30
0.0
 10
49.4063357098
 20
43.7073712508
 30
0.0
  0
SPLINE
  5
283
100
AcDbEntity
  8
0
100
AcDbSpline
 62
7
  6
BYLAYER
 70
0
 71
3
 72
15
 73
11
 74
0
 42
0.0000001
 43
0.0000001
 44
0.0000000001
 40
0.0
 40
0.0
 40
0.0
 40
0.0
 40
0.1080096714
 40
0.2180558988
 40
0.3319966001
 40
0.4513535113
 40
0.5772591845
 40
0.7104909559
 40
0.8514574023
 40
1.0
 40
1.0
 40
1.0
 40
1.0
 10
38.5618251975
 20
62.9951692974
 30
0.0
 10
38.5618134277
 20
63.1213896449
 30
0.0
 10
38.5837522567
 20
63.3767211953
 30
0.0
 10
38.6815602698
 20
63.7538712306
 30
0.0
 10
38.8430971216
 20
64.1228741597
 30
0.0
 10
39.0661683974
 20
64.4800375083
 30
0.0
 10
39.3483784112
 20
64.8220937785
 30
0.0
 10
39.6868261093
 20
65.1460863333
 30
0.0
 10
40.0781502457
 20
65.4488830429
 30
0.0
 10
40.3643213307
 20
65.630321241
 30
0.0
 10
40.5146524957
 20
65.7171144614
 30
0.0
  0
SPLINE
  5
284
100
AcDbEntity
  8
0
100
AcDbSpline
 62
7
  6
BYLAYER
 70
0
 71
3
 72
15
 73
11
 74
0
 42
0.0000001
 43
0.0000001
 44
0.0000000001
 40
0.0
 40
0.0
 40
0.0
 40
0.0
 40
0.1141474765
 40
0.2373368178
 40
0.3669776594
 40
0.5000010819
 40
0.633024354
 40
0.7626647561
 40
0.8858534048
 40
1.0
 40
1.0
 40
1.0
 40
1.0
 10
58.6671862779
 20
52.9945345686
 30
0.0
 10
58.6671862779
 20
53.1294020064
 30
0.0
 10
58.6424655951
 20
53.4100796941
 30
0.0
 10
58.5440058054
 20
53.8335062902
 30
0.0
 10
58.3862042465
 20
54.2623940335
 30
0.0
 10
58.1750767443
 20
54.6806268978
 30
0.0
 10
57.9184386342
 20
55.0725834612
 30
0.0
 10
57.625910851
 20
55.4236847996
 30
0.0
 10
57.3084423966
 20
55.7206631481
 30
0.0
 10
57.0777288972
 20
55.8824077877
 30
0.0
 10
56.9609305111
 20
55.9498398418
 30
0.0
  0
SPLINE
  5
285
100
AcDbEntity
  8
0
100
AcDbSpline
 62
7
  6
BYLAYER
 70
0
 71
3
 72
11
 73
7
 74
0
 42
0.0000001
 43
0.0000001
 44
0.0000000001
 40
0.0
 40
0.0
 40
0.0
 40
0.0
 40
0.2638897746
 40
0.5243714009
 40
0.7723007737
 40
1.0
 40
1.0
 40
1.0
 40
1.0
 10
57.0358132473
 20
52.0539170569
 30
0.0
 10
57.132677119
 20
51.915561385
 30
0.0
 10
57.306587449
 20
51.6271456518
 30
0.0
 10
57.5036963618
 20
51.1722134157
 30
0.0
 10
57.6284184579
 20
50.7162276026
 30
0.0
 10
57.6604953755
 20
50.4114952314
 30
0.0
 10
57.6604953755
 20
50.2657645249
 30
0.0
  0
SPLINE
  5
286
100
AcDbEntity
  8
0
100
AcDbSpline
 62
7
  6
BYLAYER
 70
0
 71
3
 72
15
 73
11
 74
0
 42
0.0000001
 43
0.0000001
 44
0.0000000001
 40
0.0
 40
0.0
 40
0.0
 40
0.0
 40
0.10799386
 40
0.2180513972
 40
0.3320128376
 40
0.4514017865
 40
0.5773302477
 40
0.7105513394
 40
0.8514779142
 40
1.0
 40
1.0
 40
1.0
 40
1.0
 10
33.3231034424
 20
58.5844736732
 30
0.0
 10
33.3239105968
 20
58.3596136835
 30
0.0
 10
33.3644363836
 20
57.9048253518
 30
0.0
 10
33.5406511328
 20
57.2333283381
 30
0.0
 10
33.8298222097
 20
56.5763249524
 30
0.0
 10
34.2284892208
 20
55.9405307077
 30
0.0
 10
34.7319964478
 20
55.3315338158
 30
0.0
 10
35.3354138709
 20
54.7547563956
 30
0.0
 10
36.03269671
 20
54.2155512189
 30
0.0
 10
36.5425333504
 20
53.8924314558
 30
0.0
 10
36.8103515263
 20
53.7378100579
 30
0.0
  0
SPLINE
  5
287
100
AcDbEntity
  8
0
100
AcDbSpline
 62
7
  6
BYLAYER
 70
0
 71
3
 72
12
 73
8
 74
0
 42
0.0000001
 43
0.0000001
 44
0.0000000001
 40
0.0
 40
0.0
 40
0.0
 40
0.0
 40
0.289527434
 40
0.5486641007
 40
0.7816293108
 40
0.891838609
 40
1.0
 40
1.0
 40
1.0
 40
1.0
 10
57.6604953755
 20
50.2657645249
 30
0.0
 10
57.6604953755
 20
50.155711429
 30
0.0
 10
57.6437813492
 20
49.9464190407
 30
0.0
 10
57.5592208276
 20
49.6590080806
 30
0.0
 10
57.4375415861
 20
49.4607440682
 30
0.0
 10
57.3147703948
 20
49.3399390881
 30
0.0
 10
57.2463129868
 20
49.2921522389
 30
0.0
 10
57.2107041126
 20
49.2716015517
 30
0.0
  0
SPLINE
  5
288
100
AcDbEntity
  8
0
100
AcDbSpline
 62
7
  6
BYLAYER
 70
0
 71
3
 72
9
 73
5
 74
0
 42
0.0000001
 43
0.0000001
 44
0.0000000001
 40
0.0
 40
0.0
 40
0.0
 40
0.0
 40
0.5130286097
 40
1.0
 40
1.0
 40
1.0
 40
1.0
 10
31.8328108245
 20
40.6705827107
 30
0.0
 10
32.0984871139
 20
40.7635721204
 30
0.0
 10
32.6091760358
 20
40.9662347704
 30
0.0
 10
33.0991756828
 20
41.2153361903
 30
0.0
 10
33.3305635029
 20
41.348927213
 30
0.0
  0
SPLINE
  5
289
100
AcDbEntity
  8
0
100
AcDbSpline
 62
7
  6
BYLAYER
 70
0
 71
3
 72
12
 73
8
 74
0
 42
0.0000001
 43
0.0000001
 44
0.0000000001
 40
0.0
 40
0.0
 40
0.0
 40
0.0
 40
0.1081609636
 40
0.2183678068
 40
0.4513466778
 40
0.710443771
 40
1.0
 40
1.0
 40
1.0
 40
1.0
 10
58.167416241
 20
47.9494717875
 30
0.0
 10
58.2069778173
 20
47.9723125393
 30
0.0
 10
58.2830570361
 20
48.0253834983
 30
0.0
 10
58.4194663509
 20
48.1596272562
 30
0.0
 10
58.5546472346
 20
48.3799136504
 30
0.0
 10
58.648632734
 20
48.6992534398
 30
0.0
 10
58.6671862779
 20
48.9318000364
 30
0.0
 10
58.6671862779
 20
49.0540939035
 30
0.0
  0
SPLINE
  5
28A
100
AcDbEntity
  8
0
100
AcDbSpline
 62
7
  6
BYLAYER
 70
0
 71
3
 72
15
 73
11
 74
0
 42
0.0000001
 43
0.0000001
 44
0.0000000001
 40
0.0
 40
0.0
 40
0.0
 40
0.0
 40
0.1141556299
 40
0.2373277377
 40
0.3669774561
 40
0.4999998919
 40
0.6330259327
 40
0.7626674661
 40
0.8858549801
 40
1.0
 40
1.0
 40
1.0
 40
1.0
 10
66.0088201296
 20
59.4200318009
 30
0.0
 10
66.1606660532
 20
59.3323609904
 30
0.0
 10
66.4605873735
 20
59.1221109287
 30
0.0
 10
66.8732625564
 20
58.7360109082
 30
0.0
 10
67.2535589919
 20
58.2796152914
 30
0.0
 10
67.5871729213
 20
57.7700495813
 30
0.0
 10
67.8616413325
 20
57.2263539827
 30
0.0
 10
68.06677166
 20
56.6688012136
 30
0.0
 10
68.1947639157
 20
56.118359053
 30
0.0
 10
68.2268958259
 20
55.7534892758
 30
0.0
 10
68.2268958259
 20
55.5781677397
 30
0.0
  0
SPLINE
  5
28B
100
AcDbEntity
  8
0
100
AcDbSpline
 62
7
  6
BYLAYER
 70
0
 71
3
 72
11
 73
7
 74
0
 42
0.0000001
 43
0.0000001
 44
0.0000000001
 40
0.0
 40
0.0
 40
0.0
 40
0.0
 40
0.289702329
 40
0.5490881649
 40
0.7822156415
 40
1.0
 40
1.0
 40
1.0
 40
1.0
 10
27.5494238447
 20
63.4811904055
 30
0.0
 10
27.4825525169
 20
63.5197977112
 30
0.0
 10
27.3495238827
 20
63.5830820405
 30
0.0
 10
27.1450562249
 20
63.6324573165
 30
0.0
 10
26.9532057447
 20
63.6275996971
 30
0.0
 10
26.837701512
 20
63.5856823166
 30
0.0
 10
26.7874310584
 20
63.556658821
 30
0.0
  0
SPLINE
  5
28C
100
AcDbEntity
  8
0
100
AcDbSpline
 62
7
  6
BYLAYER
 70
0
 71
3
 72
11
 73
7
 74
0
 42
0.0000001
 43
0.0000001
 44
0.0000000001
 40
0.0
 40
0.0
 40
0.0
 40
0.0
 40
0.2372428334
 40
0.4999989082
 40
0.7627555772
 40
1.0
 40
1.0
 40
1.0
 40
1.0
 10
27.5494238447
 20
54.1485677777
 30
0.0
 10
27.5239246419
 20
54.1632894163
 30
0.0
 10
27.4756730419
 20
54.2039025766
 30
0.0
 10
27.4193555352
 20
54.2808623978
 30
0.0
 10
27.3808646532
 20
54.3681147071
 30
0.0
 10
27.3698179746
 20
54.4302085693
 30
0.0
 10
27.3698179746
 20
54.4596525433
 30
0.0
  0
SPLINE
  5
28D
100
AcDbEntity
  8
0
100
AcDbSpline
 62
7
  6
BYLAYER
 70
0
 71
3
 72
9
 73
5
 74
0
 42
0.0000001
 43
0.0000001
 44
0.0000000001
 40
0.0
 40
0.0
 40
0.0
 40
0.0
 40
0.2440560464
 40
1.0
 40
1.0
 40
1.0
 40
1.0
 10
35.8059566637
 20
57.6058206421
 30
0.0
 10
35.8779753902
 20
57.5512425038
 30
0.0
 10
36.1764140335
 20
57.3320481076
 30
0.0
 10
36.4876371146
 20
57.1304012985
 30
0.0
 10
36.7281885691
 20
56.9873118885
 30
0.0
  0
SPLINE
  5
28E
100
AcDbEntity
  8
0
100
AcDbSpline
 62
7
  6
BYLAYER
 70
0
 71
3
 72
18
 73
14
 74
0
 42
0.0000001
 43
0.0000001
 44
0.0000000001
 40
0.0
 40
0.0
 40
0.0
 40
0.0
 40
0.1135476323
 40
0.1739690688
 40
0.2364190576
 40
0.3659312314
 40
0.4990117975
 40
0.6322230783
 40
0.762120192
 40
0.8248449071
 40
0.8855921238
 40
0.944075767
 40
1.0
 40
1.0
 40
1.0
 40
1.0
 10
36.7281885691
 20
56.9873118885
 30
0.0
 10
37.2990690032
 20
56.6477298862
 30
0.0
 10
38.2219663902
 20
56.2057310816
 30
0.0
 10
39.5259402838
 20
55.7432810883
 30
0.0
 10
40.9486367768
 20
55.3445529191
 30
0.0
 10
42.8253297418
 20
55.0084344827
 30
0.0
 10
45.1413691473
 20
54.8672586173
 30
0.0
 10
47.4607377543
 20
54.9886931753
 30
0.0
 10
49.3449770208
 20
55.3086790504
 30
0.0
 10
50.7769045088
 20
55.6948490481
 30
0.0
 10
51.7846432523
 20
56.0403409167
 30
0.0
 10
52.7283889569
 20
56.4416330135
 30
0.0
 10
53.3229141514
 20
56.7509308146
 30
0.0
 10
53.6062366273
 20
56.9145061459
 30
0.0
  0
SPLINE
  5
28F
100
AcDbEntity
  8
0
100
AcDbSpline
 62
7
  6
BYLAYER
 70
0
 71
3
 72
25
 73
21
 74
0
 42
0.0000001
 43
0.0000001
 44
0.0000000001
 40
0.0
 40
0.0
 40
0.0
 40
0.0
 40
0.0623809191
 40
0.128723752
 40
0.1983147948
 40
0.270291626
 40
0.3436688459
 40
0.4174019782
 40
0.4904273421
 40
0.5617146966
 40
0.6303124056
 40
0.6954000311
 40
0.7563473418
 40
0.8127841721
 40
0.8646841857
 40
0.9124584688
 40
0.9351030994
 40
0.9571079263
 40
0.9786681869
 40
1.0
 40
1.0
 40
1.0
 40
1.0
 10
36.8103515263
 20
58.1345122736
 30
0.0
 10
37.2381049573
 20
57.887554302
 30
0.0
 10
38.1548326118
 20
57.43558027
 30
0.0
 10
39.6335969921
 20
56.8997507259
 30
0.0
 10
41.2316554435
 20
56.4941054605
 30
0.0
 10
42.9147479463
 20
56.2272078731
 30
0.0
 10
44.6472455134
 20
56.1047514695
 30
0.0
 10
46.3921583822
 20
56.1292989506
 30
0.0
 10
48.1122737365
 20
56.3003590006
 30
0.0
 10
49.7709230449
 20
56.6142805672
 30
0.0
 10
51.3328684053
 20
57.0644336642
 30
0.0
 10
52.7650910023
 20
57.6414414869
 30
0.0
 10
54.0374908185
 20
58.3334819291
 30
0.0
 10
55.1234661395
 20
59.1270933084
 30
0.0
 10
55.9997623789
 20
60.0069011682
 30
0.0
 10
56.5482915907
 20
60.8141185787
 30
0.0
 10
56.8540218758
 20
61.4805598539
 30
0.0
 10
57.0160395996
 20
61.9804995797
 30
0.0
 10
57.1137437186
 20
62.4862585989
 30
0.0
 10
57.1355462515
 20
62.8262664815
 30
0.0
 10
57.1355353031
 20
62.9951691122
 30
0.0
  0
SPLINE
  5
290
100
AcDbEntity
  8
0
100
AcDbSpline
 62
7
  6
BYLAYER
 70
0
 71
3
 72
15
 73
11
 74
0
 42
0.0000001
 43
0.0000001
 44
0.0000000001
 40
0.0
 40
0.0
 40
0.0
 40
0.0
 40
0.1080093329
 40
0.2180557294
 40
0.3319994383
 40
0.4513504917
 40
0.5772553336
 40
0.7104979863
 40
0.8514742906
 40
1.0
 40
1.0
 40
1.0
 40
1.0
 10
39.6730631987
 20
62.9744300698
 30
0.0
 10
39.6730624491
 20
63.0796132734
 30
0.0
 10
39.6913639189
 20
63.292385136
 30
0.0
 10
39.7728395861
 20
63.6066884853
 30
0.0
 10
39.9074872775
 20
63.9141732413
 30
0.0
 10
40.093342788
 20
64.2118262339
 30
0.0
 10
40.3285365594
 20
64.4968650347
 30
0.0
 10
40.6105870549
 20
64.7668741537
 30
0.0
 10
40.936703367
 20
65.0191939084
 30
0.0
 10
41.1751665574
 20
65.170398363
 30
0.0
 10
41.3004281778
 20
65.2427177616
 30
0.0
  0
SPLINE
  5
291
100
AcDbEntity
  8
0
100
AcDbSpline
 62
7
  6
BYLAYER
 70
0
 71
3
 72
24
 73
20
 74
0
 42
0.0000001
 43
0.0000001
 44
0.0000000001
 40
0.0
 40
0.0
 40
0.0
 40
0.0
 40
0.0623810916
 40
0.1287355967
 40
0.198328537
 40
0.2703115249
 40
0.343693076
 40
0.417430924
 40
0.4904618399
 40
0.5617545873
 40
0.6303579728
 40
0.6954511633
 40
0.7564032642
 40
0.8128444064
 40
0.8647486681
 40
0.9125271429
 40
0.9571048441
 40
0.9786665277
 40
1.0
 40
1.0
 40
1.0
 40
1.0
 10
40.5146524957
 20
65.7171144614
 30
0.0
 10
40.7541766546
 20
65.8554029736
 30
0.0
 10
41.2675603798
 20
66.1084987219
 30
0.0
 10
42.0956534984
 20
66.4085957007
 30
0.0
 10
42.9905916693
 20
66.6357420365
 30
0.0
 10
43.9331042425
 20
66.7852269174
 30
0.0
 10
44.903299883
 20
66.8538120354
 30
0.0
 10
45.8804447334
 20
66.8400581466
 30
0.0
 10
46.8437080855
 20
66.7442620489
 30
0.0
 10
47.7725565003
 20
66.5684666215
 30
0.0
 10
48.6472565955
 20
66.3163886027
 30
0.0
 10
49.4493126401
 20
65.9932782673
 30
0.0
 10
50.1618646903
 20
65.6057086396
 30
0.0
 10
50.770000025
 20
65.1613520569
 30
0.0
 10
51.2607778648
 20
64.6684295507
 30
0.0
 10
51.6228971958
 20
64.1361121504
 30
0.0
 10
51.8109590053
 20
63.6618237667
 30
0.0
 10
51.8845529607
 20
63.2801699316
 30
0.0
 10
51.8967791588
 20
63.0897551117
 30
0.0
 10
51.8967879787
 20
62.995169164
 30
0.0
  0
SPLINE
  5
292
100
AcDbEntity
  8
0
100
AcDbSpline
 62
7
  6
BYLAYER
 70
0
 71
3
 72
15
 73
11
 74
0
 42
0.0000001
 43
0.0000001
 44
0.0000000001
 40
0.0
 40
0.0
 40
0.0
 40
0.0
 40
0.1141474765
 40
0.2373368178
 40
0.3669776594
 40
0.5000010819
 40
0.633024354
 40
0.7626647561
 40
0.8858534048
 40
1.0
 40
1.0
 40
1.0
 40
1.0
 10
49.4063357098
 20
47.6478119159
 30
0.0
 10
49.4063357098
 20
47.7826793537
 30
0.0
 10
49.3816150271
 20
48.0633570413
 30
0.0
 10
49.2831552374
 20
48.4867836375
 30
0.0
 10
49.1253536785
 20
48.9156713807
 30
0.0
 10
48.9142261763
 20
49.3339042451
 30
0.0
 10
48.6575880662
 20
49.7258608085
 30
0.0
 10
48.365060283
 20
50.0769621469
 30
0.0
 10
48.0475918286
 20
50.3739404954
 30
0.0
 10
47.8168783291
 20
50.5356851349
 30
0.0
 10
47.7000799431
 20
50.6031171891
 30
0.0
  0
SPLINE
  5
293
100
AcDbEntity
  8
0
100
AcDbSpline
 62
7
  6
BYLAYER
 70
0
 71
3
 72
25
 73
21
 74
0
 42
0.0000001
 43
0.0000001
 44
0.0000000001
 40
0.0
 40
0.0
 40
0.0
 40
0.0
 40
0.0213321775
 40
0.0428928023
 40
0.0648982069
 40
0.0875428441
 40
0.1353179511
 40
0.1872189799
 40
0.2436566194
 40
0.304604151
 40
0.3696912767
 40
0.4382879469
 40
0.509574079
 40
0.5825984934
 40
0.656330692
 40
0.7297066222
 40
0.8016837824
 40
0.8712735275
 40
0.937620354
 40
1.0
 40
1.0
 40
1.0
 40
1.0
 10
8.7636829664
 20
44.8486717407
 30
0.0
 10
8.7636830815
 20
44.7135468944
 30
0.0
 10
8.7810844708
 20
44.441533245
 30
0.0
 10
8.8592752158
 20
44.0369181945
 30
0.0
 10
8.9889051449
 20
43.6369662497
 30
0.0
 10
9.2334608448
 20
43.1037881846
 30
0.0
 10
9.6723098715
 20
42.4580097913
 30
0.0
 10
10.3733706291
 20
41.7541609052
 30
0.0
 10
11.2421803045
 20
41.1192830381
 30
0.0
 10
12.2601148188
 20
40.5656643023
 30
0.0
 10
13.405892337
 20
40.1040691762
 30
0.0
 10
14.6554355356
 20
39.7439506704
 30
0.0
 10
15.9823381666
 20
39.4928107706
 30
0.0
 10
17.3584156368
 20
39.35596469
 30
0.0
 10
18.7543303266
 20
39.3363351854
 30
0.0
 10
20.1403208738
 20
39.4343046958
 30
0.0
 10
21.4867817304
 20
39.6478375779
 30
0.0
 10
22.7652560563
 20
39.972341808
 30
0.0
 10
23.9482715988
 20
40.4010332506
 30
0.0
 10
24.6816750879
 20
40.7626131601
 30
0.0
 10
25.0238705223
 20
40.960178607
 30
0.0
  0
SPLINE
  5
294
100
AcDbEntity
  8
0
100
AcDbSpline
 62
7
  6
BYLAYER
 70
0
 71
3
 72
14
 73
10
 74
0
 42
0.0000001
 43
0.0000001
 44
0.0000000001
 40
0.0
 40
0.0
 40
0.0
 40
0.0
 40
0.1080438199
 40
0.2181281495
 40
0.3321071904
 40
0.451489524
 40
0.5774355977
 40
0.7107372685
 40
1.0
 40
1.0
 40
1.0
 40
1.0
 10
23.0511313704
 20
44.8486717944
 30
0.0
 10
23.051122393
 20
44.758515012
 30
0.0
 10
23.0354807986
 20
44.5761329703
 30
0.0
 10
22.9655912289
 20
44.3067411588
 30
0.0
 10
22.850211837
 20
44.0431755091
 30
0.0
 10
22.6909113528
 20
43.7880559395
 30
0.0
 10
22.4892993747
 20
43.5437020722
 30
0.0
 10
22.1580671378
 20
43.2266979676
 30
0.0
 10
21.8652970109
 20
43.0251117911
 30
0.0
 10
21.6562604563
 20
42.9044252004
 30
0.0
  0
SPLINE
  5
295
100
AcDbEntity
  8
0
100
AcDbSpline
 62
7
  6
BYLAYER
 70
0
 71
3
 72
15
 73
11
 74
0
 42
0.0000001
 43
0.0000001
 44
0.0000000001
 40
0.0
 40
0.0
 40
0.0
 40
0.0
 40
0.1484255226
 40
0.2893344888
 40
0.4225671467
 40
0.5485197536
 40
0.667949238
 40
0.7819598521
 40
0.8920369175
 40
1.0
 40
1.0
 40
1.0
 40
1.0
 10
40.5146524957
 20
65.6963753
 30
0.0
 10
40.3653245286
 20
65.6101612727
 30
0.0
 10
40.0809667981
 20
65.4299829985
 30
0.0
 10
39.6918229777
 20
65.1294811037
 30
0.0
 10
39.35479177
 20
64.8080410674
 30
0.0
 10
39.0731716859
 20
64.4687322802
 30
0.0
 10
38.8498151006
 20
64.1144469667
 30
0.0
 10
38.6870688877
 20
63.7483838802
 30
0.0
 10
38.5871082447
 20
63.3741408813
 30
0.0
 10
38.5630764315
 20
63.1205550569
 30
0.0
 10
38.5619199267
 20
62.9951375687
 30
0.0
  0
SPLINE
  5
296
100
AcDbEntity
  8
0
100
AcDbSpline
 62
7
  6
BYLAYER
 70
0
 71
3
 72
23
 73
19
 74
0
 42
0.0000001
 43
0.0000001
 44
0.0000000001
 40
0.0
 40
0.0
 40
0.0
 40
0.0
 40
0.0428132963
 40
0.0873945847
 40
0.1351774339
 40
0.1870869627
 40
0.2435322997
 40
0.3044885546
 40
0.3695865165
 40
0.4381936385
 40
0.5094908082
 40
0.5825274861
 40
0.656269406
 40
0.7296590266
 40
0.8016493848
 40
0.8712469343
 40
0.9376207298
 40
1.0
 40
1.0
 40
1.0
 40
1.0
 10
13.5261672727
 20
46.1448693809
 30
0.0
 10
13.5261535201
 20
46.0092948834
 30
0.0
 10
13.562451484
 20
45.7313739248
 30
0.0
 10
13.7217993011
 20
45.330060431
 30
0.0
 10
13.9804545554
 20
44.949628928
 30
0.0
 10
14.3310280542
 20
44.5976179937
 30
0.0
 10
14.7654021478
 20
44.2801994546
 30
0.0
 10
15.2743567823
 20
44.0033649092
 30
0.0
 10
15.84724745
 20
43.7725896911
 30
0.0
 10
16.4720150258
 20
43.5925310642
 30
0.0
 10
17.1354603128
 20
43.466943081
 30
0.0
 10
17.8234925133
 20
43.3985301387
 30
0.0
 10
18.5214488858
 20
43.3887092042
 30
0.0
 10
19.214447366
 20
43.4376908899
 30
0.0
 10
19.8876792309
 20
43.5444383703
 30
0.0
 10
20.5269635983
 20
43.706695414
 30
0.0
 10
21.1184586366
 20
43.921091953
 30
0.0
 10
21.485191617
 20
44.1018567367
 30
0.0
 10
21.6562604563
 20
44.2006227876
 30
0.0
  0
SPLINE
  5
297
100
AcDbEntity
  8
0
100
AcDbSpline
 62
7
  6
BYLAYER
 70
0
 71
3
 72
23
 73
19
 74
0
 42
0.0000001
 43
0.0000001
 44
0.0000000001
 40
0.0
 40
0.0
 40
0.0
 40
0.0
 40
0.0623831945
 40
0.1287487697
 40
0.1983462288
 40
0.2703360178
 40
0.3437245163
 40
0.4174677012
 40
0.4905050383
 40
0.5618043486
 40
0.6304129956
 40
0.6955106379
 40
0.7564679631
 40
0.8129145891
 40
0.8648228638
 40
0.9126046397
 40
0.9571861
 40
1.0
 40
1.0
 40
1.0
 40
1.0
 10
41.3004281778
 20
65.2427177616
 30
0.0
 10
41.5000212369
 20
65.3579521801
 30
0.0
 10
41.927853684
 20
65.5688564303
 30
0.0
 10
42.6179266674
 20
65.8189561627
 30
0.0
 10
43.363726576
 20
66.0082437838
 30
0.0
 10
44.1491524742
 20
66.1328173777
 30
0.0
 10
44.957651152
 20
66.1899593277
 30
0.0
 10
45.7719371117
 20
66.1784896648
 30
0.0
 10
46.5746560663
 20
66.0986739895
 30
0.0
 10
47.3486989229
 20
65.9521873695
 30
0.0
 10
48.0776057038
 20
65.7421037428
 30
0.0
 10
48.7459732929
 20
65.4728322057
 30
0.0
 10
49.3397708287
 20
65.1498777846
 30
0.0
 10
49.8465647449
 20
64.779577187
 30
0.0
 10
50.2555365485
 20
64.3688670476
 30
0.0
 10
50.5572753743
 20
63.925031553
 30
0.0
 10
50.7432423163
 20
63.456851605
 30
0.0
 10
50.7855488503
 20
63.1326026982
 30
0.0
 10
50.7855499775
 20
62.9744300688
 30
0.0
  0
SPLINE
  5
298
100
AcDbEntity
  8
0
100
AcDbSpline
 62
7
  6
BYLAYER
 70
0
 71
3
 72
13
 73
9
 74
0
 42
0.0000001
 43
0.0000001
 44
0.0000000001
 40
0.0
 40
0.0
 40
0.0
 40
0.0
 40
0.2893796193
 40
0.5483174434
 40
0.6677453536
 40
0.7817684919
 40
0.8919066128
 40
1.0
 40
1.0
 40
1.0
 40
1.0
 10
29.3735459638
 20
53.0954342063
 30
0.0
 10
29.4867704784
 20
53.0300654812
 30
0.0
 10
29.6920968265
 20
52.8887649051
 30
0.0
 10
29.902080334
 20
52.6678674872
 30
0.0
 10
30.0202922902
 20
52.4786140747
 30
0.0
 10
30.082750806
 20
52.3358329583
 30
0.0
 10
30.1206518847
 20
52.1899254129
 30
0.0
 10
30.1291075704
 20
52.0911276946
 30
0.0
 10
30.129107571
 20
52.0422918656
 30
0.0
  0
SPLINE
  5
299
100
AcDbEntity
  8
0
100
AcDbSpline
 62
7
  6
BYLAYER
 70
0
 71
3
 72
10
 73
6
 74
0
 42
0.0000001
 43
0.0000001
 44
0.0000000001
 40
0.0
 40
0.0
 40
0.0
 40
0.0
 40
0.272322898
 40
0.529816769
 40
1.0
 40
1.0
 40
1.0
 40
1.0
 10
53.6062366273
 20
56.9145061459
 30
0.0
 10
53.8883409572
 20
57.0773781844
 30
0.0
 10
54.42395028
 20
57.4187085035
 30
0.0
 10
55.364467314
 20
58.1588088999
 30
0.0
 10
55.9602025111
 20
58.8101248827
 30
0.0
 10
56.2738996551
 20
59.2769346581
 30
0.0
  0
SPLINE
  5
29A
100
AcDbEntity
  8
0
100
AcDbSpline
 62
7
  6
BYLAYER
 70
0
 71
3
 72
9
 73
5
 74
0
 42
0.0000001
 43
0.0000001
 44
0.0000000001
 40
0.0
 40
0.0
 40
0.0
 40
0.0
 40
0.5113135821
 40
1.0
 40
1.0
 40
1.0
 40
1.0
 10
56.4092152297
 20
59.488569049
 30
0.0
 10
56.5579782153
 20
59.7335869402
 30
0.0
 10
56.8106839903
 20
60.2375868297
 30
0.0
 10
56.9656224136
 20
60.7805540665
 30
0.0
 10
57.013706261
 20
61.0502594902
 30
0.0
  0
SPLINE
  5
29B
100
AcDbEntity
  8
0
100
AcDbSpline
 62
7
  6
BYLAYER
 70
0
 71
3
 72
14
 73
10
 74
0
 42
0.0000001
 43
0.0000001
 44
0.0000000001
 40
0.0
 40
0.0
 40
0.0
 40
0.0
 40
0.2892630221
 40
0.4225627951
 40
0.5485082827
 40
0.6678909515
 40
0.7818704516
 40
0.8919550708
 40
1.0
 40
1.0
 40
1.0
 40
1.0
 10
21.6562604563
 20
44.2006227876
 30
0.0
 10
21.8652972966
 20
44.3213095432
 30
0.0
 10
22.1580674216
 20
44.5228938551
 30
0.0
 10
22.4892973066
 20
44.8398978607
 30
0.0
 10
22.6909096645
 20
45.0842493614
 30
0.0
 10
22.8502092095
 20
45.3393695531
 30
0.0
 10
22.9655942792
 20
45.6029341166
 30
0.0
 10
23.0354789255
 20
45.8723288919
 30
0.0
 10
23.0511243623
 20
46.0547116403
 30
0.0
 10
23.0511335079
 20
46.144869381
 30
0.0
  0
SPLINE
  5
29C
100
AcDbEntity
  8
0
100
AcDbSpline
 62
7
  6
BYLAYER
 70
0
 71
3
 72
15
 73
11
 74
0
 42
0.0000001
 43
0.0000001
 44
0.0000000001
 40
0.0
 40
0.0
 40
0.0
 40
0.0
 40
0.1485547683
 40
0.2895089108
 40
0.4227326418
 40
0.5486406705
 40
0.6680016091
 40
0.781939512
 40
0.8919872335
 40
1.0
 40
1.0
 40
1.0
 40
1.0
 10
25.0238705223
 20
40.960178607
 30
0.0
 10
25.2386471265
 20
41.084179197
 30
0.0
 10
25.647474669
 20
41.3433603636
 30
0.0
 10
26.2064791772
 20
41.7759433431
 30
0.0
 10
26.6899690181
 20
42.2387565423
 30
0.0
 10
27.093095967
 20
42.7274257908
 30
0.0
 10
27.4118412602
 20
43.2376263277
 30
0.0
 10
27.6425357093
 20
43.764808036
 30
0.0
 10
27.7823447716
 20
44.3035776946
 30
0.0
 10
27.8136179679
 20
44.6683517279
 30
0.0
 10
27.8136178142
 20
44.8486718468
 30
0.0
  0
ELLIPSE
  5
29D
100
AcDbEntity
  8
0
100
AcDbEllipse
 62
7
  6
BYLAYER
 10
27.7178800595
 20
42.5154220625
 30
0.0
 11
-7.7508862162
 21
8.4741148073
 31
0.0
 40
0.2019141021
 41
-2.1389287613
 42
-2.0464208319
  0
ENDSEC
  0
SECTION
  2
OBJECTS
  0
DICTIONARY
  5
C
100
AcDbDictionary
280
0
281
1
  3
ACAD_GROUP
350
D
  3
ACAD_MLINESTYLE
350
17
  3
ACAD_LAYOUT
350
1A
  3
ACAD_PLOTSETTINGS
350
19
  3
ACAD_PLOTSTYLENAME
350
E
  0
DICTIONARY
  5
D
102
{ACAD_REACTORS
330
C
102
}
100
AcDbDictionary
280
0
281
1
  0
ACDBDICTIONARYWDFLT
  5
E
102
{ACAD_REACTORS
330
C
102
}
100
AcDbDictionary
281
1
  3
Normal
350
F
100
AcDbDictionaryWithDefault
340
F
  0
DICTIONARY
  5
17
102
{ACAD_REACTORS
330
C
102
}
100
AcDbDictionary
280
0
281
1
  3
Standard
350
18
  0
DICTIONARY
  5
19
102
{ACAD_REACTORS
330
C
102
}
100
AcDbDictionary
281
1
  0
DICTIONARY
  5
1A
102
{ACAD_REACTORS
330
C
102
}
100
AcDbDictionary
281
1
  3
Model
350
29E
  3
Layout1
350
29F
  0
ACDBPLACEHOLDER
  5
F
102
{ACAD_REACTORS
330
E
102
}
  0
MLINESTYLE
  5
18
102
{ACAD_REACTORS
330
17
102
}
100
AcDbMlineStyle
  2
STANDARD
 70
0
  3

 62
256
 51
90.0
 52
90.0
 71
2
 49
0.5
 62
256
  6
BYLAYER
 49
-0.5
 62
256
  6
BYLAYER
  0
LAYOUT
  5
29E
102
{ACAD_REACTORS
330
1A
102
}
100
AcDbPlotSettings
  1

  2
none_device
  4

  6

 40
0.0
 41
0.0
 42
0.0
 43
0.0
 44
210.0
 45
297.0
 46
0.0
 47
0.0
 48
0.0
 49
0.0
140
0.0
141
0.0
142
1.0
143
1.0
 70
1024
 72
1
 73
0
 74
0
  7

 75
0
147
1.0
148
0.0
149
0.0
100
AcDbLayout
  1
Model
 70
0
 71
0
 10
0.0
 20
0.0
 11
210.0
 21
297.0
 12
0.0
 22
0.0
 32
0.0
 14
0.0
 24
0.0
 34
0.0
 15
0.0
 25
0.0
 35
0.0
146
0.0
 13
0.0
 23
0.0
 33
0.0
 16
1.0
 26
0.0
 36
0.0
 17
0.0
 27
1.0
 37
0.0
 76
0
330
210
345
0
346
0
  0
LAYOUT
  5
29F
102
{ACAD_REACTORS
330
1A
102
}
100
AcDbPlotSettings
  1

  2
none_device
  4

  6

 40
0.0
 41
0.0
 42
0.0
 43
0.0
 44
210.0
 45
297.0
 46
0.0
 47
0.0
 48
0.0
 49
0.0
140
0.0
141
0.0
142
1.0
143
1.0
 70
0
 72
1
 73
0
 74
0
  7

 75
0
147
1.0
148
0.0
149
0.0
100
AcDbLayout
  1
Layout1
 70
0
 71
1
 10
0.0
 20
0.0
 11
210.0
 21
297.0
 12
0.0
 22
0.0
 32
0.0
 14
0.0
 24
0.0
 34
0.0
 15
0.0
 25
0.0
 35
0.0
146
0.0
 13
0.0
 23
0.0
 33
0.0
 16
1.0
 26
0.0
 36
0.0
 17
0.0
 27
1.0
 37
0.0
 76
0
330
211
345
0
346
0
  0
ENDSEC
  0
EOF
