999
DXF file: C:\Users\sesa63760\Dev\_Creo\CAD\MCADID0003071_3D-CAD\drw0001_1.dxf
999
Pro/ENGINEER 2019471 by Parametric Technology Corporation
  0
SECTION
  2
HEADER
  9
$ACADVER
  1
AC1024
  9
$DWGCODEPAGE
  3
ANSI_1252
  9
$EXTMAX
 10
60.1732540993
 20
85.1021736548
 30
0.0
  9
$EXTMIN
 10
0.0
 20
0.0
 30
0.0
  9
$LIMMIN
 10
0.0
 20
0.0
  9
$LIMMAX
 10
60.1732540993
 20
85.1021736548
  9
$VIEWCTR
 10
30.0866270497
 20
42.5510868274
  9
$VIEWSIZE
 40
85.1021736548
  9
$CLAYER
  8
0
  9
$LTSCALE
 40
5.5474009493
  9
$CELTYPE
  6
BYLAYER
  9
$DIMSCALE
 40
1.0
  9
$DIMASZ
 40
0.7163482631
  9
$DIMEXO
 40
1.0
  9
$DIMDLI
 40
3.8327497468
  9
$DIMEXE
 40
1.0
  9
$DIMCEN
 40
0.907756519
  9
$DIMLFAC
 40
1.0
  9
$DIMBLK
  1
_FILLED
  9
$DIMALT
 70
0
  9
$DIMALTF
 40
0.0393700787
  9
$DIMTXT
 40
1.0028875683
  9
$DIMTOL
 70
1
  9
$DIMLIM
 70
0
  9
$DIMTFAC
 40
1.0
  9
$DIMTP
 40
0.01
  9
$DIMTM
 40
0.01
  9
$DIMGAP
 40
0.625
  9
$DIMDSEP
 70
46
  9
$AUNITS
 70
0
  9
$PDMODE
 70
3
  9
$PDSIZE
 40
0.3125
  9
$HANDSEED
  5
27E
  9
$TILEMODE
 70
1
  9
$MEASUREMENT
 70
1
  9
$INSUNITS
 70
4
  0
ENDSEC
  0
SECTION
  2
CLASSES
  0
CLASS
  1
ACDBDICTIONARYWDFLT
  2
AcDbDictionaryWithDefault
  3
AutoCAD 2000
 90
0
 91
1
280
0
281
0
  0
CLASS
  1
ACDBPLACEHOLDER
  2
AcDbPlaceHolder
  3
AutoCAD 2000
 90
0
 91
1
280
0
281
0
  0
CLASS
  1
LAYOUT
  2
AcDbLayout
  3
AutoCAD 2000
 90
0
 91
0
280
0
281
0
  0
ENDSEC
  0
SECTION
  2
TABLES
  0
TABLE
  2
VPORT
  5
8
100
AcDbSymbolTable
 70
2
  0
VPORT
  5
1F4
100
AcDbSymbolTableRecord
100
AcDbViewportTableRecord
  2
*ACTIVE
 70
0
 10
0.0
 20
0.0
 11
1.0
 21
1.0
 12
30.0866270497
 22
42.5510868274
 13
0.0
 23
0.0
 14
1.0
 24
1.0
 15
0.0
 25
0.0
 16
0.0
 26
0.0
 36
1.0
 17
0.0
 27
0.0
 37
0.0
 40
85.1021736548
 41
0.7070707071
 42
50.0
 43
0.0
 44
0.0
 50
0.0
 51
0.0
 71
0
 72
100
 73
1
 74
1
 75
0
 76
0
 77
0
 78
0
  0
ENDTAB
  0
TABLE
  2
LTYPE
  5
5
100
AcDbSymbolTable
 70
6
  0
LTYPE
  5
14
100
AcDbSymbolTableRecord
100
AcDbLinetypeTableRecord
  2
BYBLOCK
 70
0
  3

 72
65
 73
0
 40
0.0
  0
LTYPE
  5
15
100
AcDbSymbolTableRecord
100
AcDbLinetypeTableRecord
  2
BYLAYER
 70
0
  3

 72
65
 73
0
 40
0.0
  0
LTYPE
  5
16
100
AcDbSymbolTableRecord
100
AcDbLinetypeTableRecord
  2
CONTINUOUS
 70
64
  3
Solid line
 72
65
 73
0
 40
0.0
  0
LTYPE
  5
1F5
100
AcDbSymbolTableRecord
100
AcDbLinetypeTableRecord
  2
CENTER
 70
64
  3
____ _ ____ _ ____ _ ____ _ ____ _ ____ _ ____
 72
65
 73
4
 40
0.6
 49
0.375
 74
0
 49
-0.075
 74
0
 49
0.075
 74
0
 49
-0.075
 74
0
  0
LTYPE
  5
1F6
100
AcDbSymbolTableRecord
100
AcDbLinetypeTableRecord
  2
HIDDEN
 70
64
  3
- - - - - - - - - - - - - - - - - - - -
 72
65
 73
2
 40
0.2
 49
0.1
 74
0
 49
-0.1
 74
0
  0
LTYPE
  5
1F7
100
AcDbSymbolTableRecord
100
AcDbLinetypeTableRecord
  2
PHANTOM
 70
64
  3
_____ _ _ _____ _ _ _____ _ _ _____
 72
65
 73
6
 40
0.8
 49
0.45
 74
0
 49
-0.05
 74
0
 49
0.1
 74
0
 49
-0.05
 74
0
 49
0.1
 74
0
 49
-0.05
 74
0
  0
LTYPE
  5
1F8
100
AcDbSymbolTableRecord
100
AcDbLinetypeTableRecord
  2
DOT
 70
64
  3
. . . . . . . . . . . . . . . . . . . .
 72
65
 73
2
 40
0.2
 49
0.1
 74
0
 49
-0.1
 74
0
  0
LTYPE
  5
1F9
100
AcDbSymbolTableRecord
100
AcDbLinetypeTableRecord
  2
DASHED
 70
64
  3
- - - - - - - - - - - - - - - - - - - -
 72
65
 73
2
 40
0.2
 49
0.1
 74
0
 49
-0.1
 74
0
  0
ENDTAB
  0
TABLE
  2
LAYER
  5
2
100
AcDbSymbolTable
 70
36
  0
LAYER
  5
10
100
AcDbSymbolTableRecord
100
AcDbLayerTableRecord
  2
0
 70
0
 62
7
  6
CONTINUOUS
370
-3
390
F
  0
LAYER
  5
1FA
100
AcDbSymbolTableRecord
100
AcDbLayerTableRecord
  2
DEFAULT_1
 70
0
 62
7
  6
CENTER
370
-3
390
F
  0
LAYER
  5
1FB
100
AcDbSymbolTableRecord
100
AcDbLayerTableRecord
  2
DEFAULT_2
 70
0
 62
7
  6
HIDDEN
370
-3
390
F
  0
LAYER
  5
1FC
100
AcDbSymbolTableRecord
100
AcDbLayerTableRecord
  2
DEFAULT_3
 70
0
 62
7
  6
PHANTOM
370
-3
390
F
  0
LAYER
  5
1FD
100
AcDbSymbolTableRecord
100
AcDbLayerTableRecord
  2
00_COMPONENTS
 70
0
 62
7
  6
CONTINUOUS
370
-3
390
F
  0
LAYER
  5
1FE
100
AcDbSymbolTableRecord
100
AcDbLayerTableRecord
  2
01_1_DEFAULT_DATUMS
 70
0
 62
7
  6
CONTINUOUS
370
-3
390
F
  0
LAYER
  5
1FF
100
AcDbSymbolTableRecord
100
AcDbLayerTableRecord
  2
01_PLANES
 70
0
 62
7
  6
CONTINUOUS
370
-3
390
F
  0
LAYER
  5
200
100
AcDbSymbolTableRecord
100
AcDbLayerTableRecord
  2
02_COORD_SYS
 70
0
 62
7
  6
CONTINUOUS
370
-3
390
F
  0
LAYER
  5
201
100
AcDbSymbolTableRecord
100
AcDbLayerTableRecord
  2
03_AXES
 70
0
 62
7
  6
CONTINUOUS
370
-3
390
F
  0
LAYER
  5
202
100
AcDbSymbolTableRecord
100
AcDbLayerTableRecord
  2
04_POINTS
 70
0
 62
7
  6
CONTINUOUS
370
-3
390
F
  0
LAYER
  5
203
100
AcDbSymbolTableRecord
100
AcDbLayerTableRecord
  2
05_CURVES
 70
0
 62
7
  6
CONTINUOUS
370
-3
390
F
  0
LAYER
  5
204
100
AcDbSymbolTableRecord
100
AcDbLayerTableRecord
  2
06_SURFS
 70
0
 62
7
  6
CONTINUOUS
370
-3
390
F
  0
LAYER
  5
205
100
AcDbSymbolTableRecord
100
AcDbLayerTableRecord
  2
07_COSMETICS
 70
0
 62
7
  6
CONTINUOUS
370
-3
390
F
  0
LAYER
  5
206
100
AcDbSymbolTableRecord
100
AcDbLayerTableRecord
  2
10_NOTES
 70
0
 62
7
  6
CONTINUOUS
370
-3
390
F
  0
LAYER
  5
207
100
AcDbSymbolTableRecord
100
AcDbLayerTableRecord
  2
11_NOTES_PUB
 70
0
 62
7
  6
CONTINUOUS
370
-3
390
F
  0
LAYER
  5
208
100
AcDbSymbolTableRecord
100
AcDbLayerTableRecord
  2
13_REF_GTOL
 70
0
 62
7
  6
CONTINUOUS
370
-3
390
F
  0
LAYER
  5
209
100
AcDbSymbolTableRecord
100
AcDbLayerTableRecord
  2
16_MISC
 70
0
 62
7
  6
CONTINUOUS
370
-3
390
F
  0
LAYER
  5
20A
100
AcDbSymbolTableRecord
100
AcDbLayerTableRecord
  2
17_NO_PRINT
 70
0
 62
7
  6
CONTINUOUS
370
-3
390
F
  0
LAYER
  5
20B
100
AcDbSymbolTableRecord
100
AcDbLayerTableRecord
  2
18_DATUM_CAMS_JOINTS
 70
0
 62
7
  6
CONTINUOUS
370
-3
390
F
  0
LAYER
  5
20C
100
AcDbSymbolTableRecord
100
AcDbLayerTableRecord
  2
19_DATUM_FUNCTIONAL
 70
0
 62
7
  6
CONTINUOUS
370
-3
390
F
  0
LAYER
  5
20D
100
AcDbSymbolTableRecord
100
AcDbLayerTableRecord
  2
20_DATUM_KINEMATIC_SCHEME
 70
0
 62
7
  6
CONTINUOUS
370
-3
390
F
  0
ENDTAB
  0
TABLE
  2
STYLE
  5
3
100
AcDbSymbolTable
 70
1
  0
STYLE
  5
11
100
AcDbSymbolTableRecord
100
AcDbTextStyleTableRecord
  2
STANDARD
 70
0
 40
0.0
 41
1.0
 50
0.0
 71
0
 42
0.2
  3
ARIAL.TTF
  4

  0
STYLE
  5
20E
100
AcDbSymbolTableRecord
100
AcDbTextStyleTableRecord
  2
TEXTSTYLE_1
 70
0
 40
0.0
 41
0.8
 50
0.0
 71
0
 42
0.2
  3
gdt
  4

  0
ENDTAB
  0
TABLE
  2
VIEW
  5
6
100
AcDbSymbolTable
 70
0
  0
ENDTAB
  0
TABLE
  2
UCS
  5
7
100
AcDbSymbolTable
 70
0
  0
ENDTAB
  0
TABLE
  2
APPID
  5
9
100
AcDbSymbolTable
 70
1
  0
APPID
  5
20F
100
AcDbSymbolTableRecord
100
AcDbRegAppTableRecord
  2
ACAD
 70
0
  0
ENDTAB
  0
TABLE
  2
BLOCK_RECORD
  5
1
100
AcDbSymbolTable
 70
0
  0
BLOCK_RECORD
  5
210
100
AcDbSymbolTableRecord
100
AcDbBlockTableRecord
  2
*Model_Space
  0
BLOCK_RECORD
  5
211
100
AcDbSymbolTableRecord
100
AcDbBlockTableRecord
  2
*Paper_Space
  0
BLOCK_RECORD
  5
212
100
AcDbSymbolTableRecord
100
AcDbBlockTableRecord
  2
_FILLED
  0
ENDTAB
  0
TABLE
  2
DIMSTYLE
  5
A
100
AcDbSymbolTable
 70
1
100
AcDbDimStyleTable
 71
0
  0
DIMSTYLE
105
213
100
AcDbSymbolTableRecord
100
AcDbDimStyleTableRecord
  2
STANDARD
 70
0
  3

  4

 40
1.0
 41
0.7163482631
 42
1.0
 43
0.38
 44
1.0
 45
0.0
 46
0.0
 47
0.01
 48
0.01
140
1.0028875683
141
0.09
142
0.0
143
25.4
144
1.0
145
0.0
146
1.0
147
0.625
 71
1
 72
0
 73
0
 74
0
 75
0
 76
0
 77
1
 78
8
 79
2
170
0
171
1
172
0
173
0
174
0
175
0
176
0
177
0
178
0
270
2
179
2
271
2
272
2
273
2
274
2
275
0
280
0
281
0
282
0
283
1
284
8
285
0
286
0
287
3
288
0
340
11
278
46
341
212
342
212
343
212
344
212
  0
ENDTAB
  0
ENDSEC
  0
SECTION
  2
BLOCKS
  0
BLOCK
  5
20
100
AcDbEntity
  8
0
100
AcDbBlockBegin
  2
*Model_Space
 70
0
 10
0.0
 20
0.0
 30
0.0
  3
*Model_Space
  1

  0
ENDBLK
  5
21
100
AcDbEntity
  8
0
100
AcDbBlockEnd
  0
BLOCK
  5
1C
100
AcDbEntity
  8
0
100
AcDbBlockBegin
  2
*Paper_Space
 70
0
 10
0.0
 20
0.0
 30
0.0
  3
*Paper_Space
  1

  0
ENDBLK
  5
1D
100
AcDbEntity
  8
0
100
AcDbBlockEnd
  0
BLOCK
  5
214
100
AcDbEntity
  8
0
100
AcDbBlockBegin
  2
_FILLED
 70
64
 10
0.0
 20
0.0
  3
_FILLED
  1

  0
SOLID
  5
215
100
AcDbEntity
  8
0
  6
BYBLOCK
 62
0
100
AcDbTrace
 10
0.0
 20
0.0
 11
-1.0
 21
0.25
 12
-1.0
 22
-0.25
 13
-1.0
 23
-0.25
  0
ENDBLK
  5
216
100
AcDbEntity
  8
0
  6
BYBLOCK
 62
0
100
AcDbBlockEnd
  0
ENDSEC
  0
SECTION
  2
ENTITIES
  0
LINE
  5
217
100
AcDbEntity
  8
0
100
AcDbLine
 62
7
  6
BYLAYER
 10
9.9442182336
 20
24.1973832835
 11
10.8422171106
 21
23.6789085661
  0
LINE
  5
218
100
AcDbEntity
  8
0
100
AcDbLine
 62
7
  6
BYLAYER
 10
6.9807972629
 20
29.3302381021
 11
6.9807897853
 21
30.3671739358
  0
LINE
  5
219
100
AcDbEntity
  8
0
100
AcDbLine
 62
7
  6
BYLAYER
 10
23.5941144295
 20
66.6084547974
 11
21.4388619336
 21
65.3641266164
  0
LINE
  5
21A
100
AcDbEntity
  8
0
100
AcDbLine
 62
7
  6
BYLAYER
 10
21.5993469425
 20
62.5975408403
 11
22.6769731904
 21
63.2197049308
  0
LINE
  5
21B
100
AcDbEntity
  8
0
100
AcDbLine
 62
7
  6
BYLAYER
 10
26.288232393
 20
60.9053141881
 11
27.7250673902
 21
61.7348663087
  0
LINE
  5
21C
100
AcDbEntity
  8
0
100
AcDbLine
 62
7
  6
BYLAYER
 10
21.4388619336
 20
58.1054201281
 11
20.0020269364
 21
57.2758680075
  0
LINE
  5
21D
100
AcDbEntity
  8
0
100
AcDbLine
 62
7
  6
BYLAYER
 10
34.37043673
 20
64.5346090332
 11
30.778349237
 21
62.4607287315
  0
LWPOLYLINE
  5
21E
100
AcDbEntity
  8
0
100
AcDbPolyline
 62
7
  6
BYLAYER
 90
6
 70
0
 10
21.893045305
 20
28.2120644035
 10
23.2991113907
 20
26.9891412802
 10
24.6043040886
 20
26.235604972
 10
27.1261694166
 20
25.5170588458
 10
29.3040325651
 20
25.9026899308
 10
29.5396827228
 20
26.0277224935
  0
LWPOLYLINE
  5
21F
100
AcDbEntity
  8
0
100
AcDbPolyline
 62
7
  6
BYLAYER
 90
3
 70
0
 10
16.0490494514
 20
40.2689355221
 10
16.1568314101
 20
38.704745327
 10
16.4208391052
 20
37.6643239999
  0
LINE
  5
220
100
AcDbEntity
  8
0
100
AcDbLine
 62
7
  6
BYLAYER
 10
24.0061383613
 20
55.9583384891
 11
23.1451296647
 21
55.4612378536
  0
LINE
  5
221
100
AcDbEntity
  8
0
100
AcDbLine
 62
7
  6
BYLAYER
 10
25.4093298856
 20
55.9984174156
 11
26.1223949631
 21
56.4101032726
  0
LINE
  5
222
100
AcDbEntity
  8
0
100
AcDbLine
 62
7
  6
BYLAYER
 10
40.656702008
 20
21.5011199636
 11
31.1779372545
 21
26.9735635424
  0
LINE
  5
223
100
AcDbEntity
  8
0
100
AcDbLine
 62
7
  6
BYLAYER
 10
42.0935370052
 20
22.3306720843
 11
42.4706974572
 21
22.1129233219
  0
LINE
  5
224
100
AcDbEntity
  8
0
100
AcDbLine
 62
7
  6
BYLAYER
 10
45.8761659549
 20
20.1468196473
 11
48.3797424617
 21
18.7014117766
  0
LINE
  5
225
100
AcDbEntity
  8
0
100
AcDbLine
 62
7
  6
BYLAYER
 10
20.0020269364
 20
46.3310151455
 11
20.0020269364
 21
57.2758680075
  0
LINE
  5
226
100
AcDbEntity
  8
0
100
AcDbLine
 62
7
  6
BYLAYER
 10
21.4388619336
 20
65.3641266164
 11
21.4388619336
 21
62.4490941967
  0
LINE
  5
227
100
AcDbEntity
  8
0
100
AcDbLine
 62
7
  6
BYLAYER
 10
21.4388619336
 20
58.5919608637
 11
21.4388619336
 21
58.1054201281
  0
LINE
  5
228
100
AcDbEntity
  8
0
100
AcDbLine
 62
7
  6
BYLAYER
 10
27.8844922173
 20
50.8819314319
 11
18.3637327564
 21
45.3851512057
  0
LINE
  5
229
100
AcDbEntity
  8
0
100
AcDbLine
 62
7
  6
BYLAYER
 10
46.9429074645
 20
25.1305661442
 11
43.7998047362
 21
26.945196298
  0
LINE
  5
22A
100
AcDbEntity
  8
0
100
AcDbLine
 62
7
  6
BYLAYER
 10
26.288232393
 20
57.2759609439
 11
26.288232393
 21
60.9053141881
  0
LINE
  5
22B
100
AcDbEntity
  8
0
100
AcDbLine
 62
7
  6
BYLAYER
 10
46.9428476431
 20
57.2760884178
 11
43.3507601501
 21
55.2022081161
  0
LINE
  5
22C
100
AcDbEntity
  8
0
100
AcDbLine
 62
7
  6
BYLAYER
 10
42.0935370052
 20
53.4394141769
 11
40.656702008
 21
52.6098620562
  0
LINE
  5
22D
100
AcDbEntity
  8
0
100
AcDbLine
 62
7
  6
BYLAYER
 10
18.8880906975
 20
39.088783868
 11
8.1118282184
 21
32.867142963
  0
LINE
  5
22E
100
AcDbEntity
  8
0
100
AcDbLine
 62
7
  6
BYLAYER
 10
42.254022014
 20
50.6728284007
 11
43.3316482619
 21
51.2949924912
  0
LINE
  5
22F
100
AcDbEntity
  8
0
100
AcDbLine
 62
7
  6
BYLAYER
 10
41.5179803734
 20
49.47776514
 11
40.656702008
 21
48.9805088121
  0
LINE
  5
230
100
AcDbEntity
  8
0
100
AcDbLine
 62
7
  6
BYLAYER
 10
50.5349949576
 20
51.0544820502
 11
48.3797424617
 21
49.8101538692
  0
LINE
  5
231
100
AcDbEntity
  8
0
100
AcDbLine
 62
7
  6
BYLAYER
 10
43.7998047362
 20
43.5365254141
 11
44.7109528513
 21
44.0625738835
  0
LINE
  5
232
100
AcDbEntity
  8
0
100
AcDbLine
 62
7
  6
BYLAYER
 10
46.0640049571
 20
44.0737049761
 11
47.141631205
 21
44.6958690666
  0
LINE
  5
233
100
AcDbEntity
  8
0
100
AcDbLine
 62
7
  6
BYLAYER
 10
24.3490662493
 20
29.6300402927
 11
13.5728037702
 21
23.4083993877
  0
LINE
  5
234
100
AcDbEntity
  8
0
100
AcDbLine
 62
7
  6
BYLAYER
 10
46.9429074645
 20
41.7218952603
 11
48.3797424617
 21
42.5514473809
  0
LINE
  5
235
100
AcDbEntity
  8
0
100
AcDbLine
 62
7
  6
BYLAYER
 10
20.0020269364
 20
57.2758680075
 11
23.1451296647
 21
55.4612378536
  0
LINE
  5
236
100
AcDbEntity
  8
0
100
AcDbLine
 62
7
  6
BYLAYER
 10
43.7998047362
 20
43.5365254141
 11
46.9429074645
 21
41.7218952603
  0
LINE
  5
237
100
AcDbEntity
  8
0
100
AcDbLine
 62
7
  6
BYLAYER
 10
21.4388619336
 20
58.1054201281
 11
21.8160223857
 21
57.8876713658
  0
LINE
  5
238
100
AcDbEntity
  8
0
100
AcDbLine
 62
7
  6
BYLAYER
 10
45.85436753
 20
44.0094402933
 11
48.3797424617
 21
42.5514473809
  0
LINE
  5
239
100
AcDbEntity
  8
0
100
AcDbLine
 62
7
  6
BYLAYER
 10
40.656702008
 20
52.6098620562
 11
40.656702008
 21
48.9805088121
  0
LINE
  5
23A
100
AcDbEntity
  8
0
100
AcDbLine
 62
7
  6
BYLAYER
 10
40.656702008
 20
25.1304732077
 11
40.656702008
 21
21.5011199636
  0
LINE
  5
23B
100
AcDbEntity
  8
0
100
AcDbLine
 62
7
  6
BYLAYER
 10
54.1270824506
 20
44.8326977938
 11
50.5349949576
 21
42.7588174922
  0
LINE
  5
23C
100
AcDbEntity
  8
0
100
AcDbLine
 62
7
  6
BYLAYER
 10
42.0935370052
 20
53.4394141769
 11
42.0935370052
 21
50.5492827731
  0
LINE
  5
23D
100
AcDbEntity
  8
0
100
AcDbLine
 62
7
  6
BYLAYER
 10
42.0935370052
 20
22.8172128198
 11
42.0935370052
 21
22.3306720843
  0
LINE
  5
23E
100
AcDbEntity
  8
0
100
AcDbLine
 62
7
  6
BYLAYER
 10
54.1270824506
 20
44.8326977938
 11
50.5349949576
 21
46.9065435582
  0
LINE
  5
23F
100
AcDbEntity
  8
0
100
AcDbLine
 62
7
  6
BYLAYER
 10
26.288232393
 20
60.9053141881
 11
40.656702008
 21
52.6098620562
  0
LINE
  5
240
100
AcDbEntity
  8
0
100
AcDbLine
 62
7
  6
BYLAYER
 10
39.0604421837
 20
31.5245027197
 11
29.5396827228
 21
26.0277224935
  0
LINE
  5
241
100
AcDbEntity
  8
0
100
AcDbLine
 62
7
  6
BYLAYER
 10
48.3797424617
 20
49.8101538692
 11
42.0935370052
 21
53.4394141769
  0
LINE
  5
242
100
AcDbEntity
  8
0
100
AcDbLine
 62
7
  6
BYLAYER
 10
27.7250673902
 20
61.7348663087
 11
21.4388619336
 21
65.3641266164
  0
LINE
  5
243
100
AcDbEntity
  8
0
100
AcDbLine
 62
7
  6
BYLAYER
 10
46.9428476431
 20
53.1283623517
 11
46.9428476431
 21
57.2760884178
  0
LINE
  5
244
100
AcDbEntity
  8
0
100
AcDbLine
 62
7
  6
BYLAYER
 10
46.9429074645
 20
41.7218952603
 11
46.9429074645
 21
25.1305661442
  0
LINE
  5
245
100
AcDbEntity
  8
0
100
AcDbLine
 62
7
  6
BYLAYER
 10
48.3797424617
 20
18.7014117766
 11
48.3797424617
 21
25.9601182649
  0
LINE
  5
246
100
AcDbEntity
  8
0
100
AcDbLine
 62
7
  6
BYLAYER
 10
48.3797424617
 20
42.5514473809
 11
48.3797424617
 21
49.8101538692
  0
LINE
  5
247
100
AcDbEntity
  8
0
100
AcDbLine
 62
7
  6
BYLAYER
 10
50.5349949576
 20
51.0544820502
 11
43.3507601501
 21
55.2022081161
  0
LINE
  5
248
100
AcDbEntity
  8
0
100
AcDbLine
 62
7
  6
BYLAYER
 10
30.778349237
 20
62.4607287315
 11
23.5941144295
 21
66.6084547974
  0
LINE
  5
249
100
AcDbEntity
  8
0
100
AcDbLine
 62
7
  6
BYLAYER
 10
50.5349949576
 20
19.9457399576
 11
50.5349949576
 21
28.2414045156
  0
LINE
  5
24A
100
AcDbEntity
  8
0
100
AcDbLine
 62
7
  6
BYLAYER
 10
50.5349949576
 20
42.7588174922
 11
50.5349949576
 21
51.0544820502
  0
LINE
  5
24B
100
AcDbEntity
  8
0
100
AcDbLine
 62
7
  6
BYLAYER
 10
42.254022014
 20
26.8227927964
 11
42.9670885184
 21
27.2344794772
  0
LINE
  5
24C
100
AcDbEntity
  8
0
100
AcDbLine
 62
7
  6
BYLAYER
 10
40.656702008
 20
25.1304732077
 11
41.5669566981
 21
25.6560058611
  0
LINE
  5
24D
100
AcDbEntity
  8
0
100
AcDbLine
 62
7
  6
BYLAYER
 10
54.1270824506
 20
30.3152848173
 11
50.5349949576
 21
28.2414045156
  0
LINE
  5
24E
100
AcDbEntity
  8
0
100
AcDbLine
 62
7
  6
BYLAYER
 10
46.9428476431
 20
57.2760884178
 11
34.37043673
 21
64.5346090332
  0
LINE
  5
24F
100
AcDbEntity
  8
0
100
AcDbLine
 62
7
  6
BYLAYER
 10
54.1270824506
 20
30.3152848173
 11
54.1270824506
 21
44.8326977938
  0
LINE
  5
250
100
AcDbEntity
  8
0
100
AcDbLine
 62
7
  6
BYLAYER
 10
48.3797424617
 20
25.9601182649
 11
46.9429074645
 21
25.1305661442
  0
LINE
  5
251
100
AcDbEntity
  8
0
100
AcDbLine
 62
7
  6
BYLAYER
 10
40.656702008
 20
21.5011199636
 11
42.0935370052
 21
22.3306720843
  0
LINE
  5
252
100
AcDbEntity
  8
0
100
AcDbLine
 62
7
  6
BYLAYER
 10
46.0640049571
 20
20.2236693717
 11
47.141631205
 21
20.8458334622
  0
LINE
  5
253
100
AcDbEntity
  8
0
100
AcDbLine
 62
7
  6
BYLAYER
 10
50.5349949576
 20
19.9457399576
 11
48.3797424617
 21
18.7014117766
  0
SPLINE
  5
254
100
AcDbEntity
  8
0
100
AcDbSpline
 62
7
  6
BYLAYER
 70
0
 71
3
 72
15
 73
11
 74
0
 42
0.0000001
 43
0.0000001
 44
0.0000000001
 40
0.0
 40
0.0
 40
0.0
 40
0.0
 40
0.1141514495
 40
0.2373302063
 40
0.3669779115
 40
0.5000008368
 40
0.6330241294
 40
0.762674829
 40
0.8858462111
 40
1.0
 40
1.0
 40
1.0
 40
1.0
 10
6.9807972629
 20
29.3302381021
 30
0.0
 10
6.9807972629
 20
29.0959902136
 30
0.0
 10
7.0237116188
 20
28.6085161253
 30
0.0
 10
7.1947411147
 20
27.8731080647
 30
0.0
 10
7.468771399
 20
27.1282033611
 30
0.0
 10
7.8354872077
 20
26.401809107
 30
0.0
 10
8.2812030035
 20
25.7210167336
 30
0.0
 10
8.7892995878
 20
25.1112631821
 30
0.0
 10
9.3406493912
 20
24.5954310861
 30
0.0
 10
9.7413510595
 20
24.3145378392
 30
0.0
 10
9.9442182283
 20
24.1974087045
 30
0.0
  0
SPLINE
  5
255
100
AcDbEntity
  8
0
100
AcDbSpline
 62
7
  6
BYLAYER
 70
0
 71
3
 72
15
 73
11
 74
0
 42
0.0000001
 43
0.0000001
 44
0.0000000001
 40
0.0
 40
0.0
 40
0.0
 40
0.0
 40
0.148525705
 40
0.2895006365
 40
0.4227411389
 40
0.5486444378
 40
0.6679950214
 40
0.7819390827
 40
0.8919879708
 40
1.0
 40
1.0
 40
1.0
 40
1.0
 10
26.288232393
 20
57.2759609439
 30
0.0
 10
26.288232393
 20
57.1602453334
 30
0.0
 10
26.278859331
 20
56.9345445525
 30
0.0
 10
26.234490027
 20
56.6076682271
 30
0.0
 10
26.1602388674
 20
56.3042478768
 30
0.0
 10
26.0568305812
 20
56.0272797613
 30
0.0
 10
25.9249502672
 20
55.7794458382
 30
0.0
 10
25.7657699382
 20
55.563156569
 30
0.0
 10
25.5805920033
 20
55.3809810686
 30
0.0
 10
25.4404934655
 20
55.2831846243
 30
0.0
 10
25.3676159206
 20
55.2411090053
 30
0.0
  0
SPLINE
  5
256
100
AcDbEntity
  8
0
100
AcDbSpline
 62
7
  6
BYLAYER
 70
0
 71
3
 72
24
 73
20
 74
0
 42
0.0000001
 43
0.0000001
 44
0.0000000001
 40
0.0
 40
0.0
 40
0.0
 40
0.0
 40
0.0213330313
 40
0.042895392
 40
0.0874733193
 40
0.1352526971
 40
0.1871584528
 40
0.2435995415
 40
0.3045510531
 40
0.3696438276
 40
0.4382453381
 40
0.5095363284
 40
0.5825661325
 40
0.6563010532
 40
0.7296839096
 40
0.8016677554
 40
0.8712587398
 40
0.9376262922
 40
1.0
 40
1.0
 40
1.0
 40
1.0
 10
42.2540285237
 20
26.8227815182
 30
0.0
 10
42.2072185007
 20
26.7957622151
 30
0.0
 10
42.1164744688
 20
26.7353107887
 30
0.0
 10
41.948667564
 20
26.5898037399
 30
0.0
 10
41.7676432019
 20
26.3612612933
 30
0.0
 10
41.6076670745
 20
26.0299554707
 30
0.0
 10
41.5039654884
 20
25.6462390999
 30
0.0
 10
41.4578073566
 20
25.2183282385
 30
0.0
 10
41.4695828038
 20
24.7549711237
 30
0.0
 10
41.5388509147
 20
24.2657442765
 30
0.0
 10
41.6640072495
 20
23.7608630864
 30
0.0
 10
41.8423739082
 20
23.2509759883
 30
0.0
 10
42.0701881988
 20
22.7469272329
 30
0.0
 10
42.3425661784
 20
22.2594408263
 30
0.0
 10
42.6537020863
 20
21.7989105061
 30
0.0
 10
42.9969538094
 20
21.3751821289
 30
0.0
 10
43.3650847932
 20
20.9971779488
 30
0.0
 10
43.7502243224
 20
20.6731404099
 30
0.0
 10
44.0221573462
 20
20.4913690162
 30
0.0
 10
44.1590134855
 20
20.4123568748
 30
0.0
  0
SPLINE
  5
257
100
AcDbEntity
  8
0
100
AcDbSpline
 62
7
  6
BYLAYER
 70
0
 71
3
 72
15
 73
11
 74
0
 42
0.0000001
 43
0.0000001
 44
0.0000000001
 40
0.0
 40
0.0
 40
0.0
 40
0.0
 40
0.1080125436
 40
0.2180618663
 40
0.332006219
 40
0.451356913
 40
0.5772601256
 40
0.7105003496
 40
0.8514748396
 40
1.0
 40
1.0
 40
1.0
 40
1.0
 10
41.5773184804
 20
27.1653251464
 30
0.0
 10
41.6501944198
 20
27.2073998385
 30
0.0
 10
41.8049346188
 20
27.2798283619
 30
0.0
 10
42.0552863577
 20
27.3491078853
 30
0.0
 10
42.3221818868
 20
27.3788176302
 30
0.0
 10
42.6027452765
 20
27.3691142055
 30
0.0
 10
42.8943031758
 20
27.320187818
 30
0.0
 10
43.1941905695
 20
27.2327860649
 30
0.0
 10
43.4994504657
 20
27.1077793567
 30
0.0
 10
43.6995945635
 20
27.0030513594
 30
0.0
 10
43.7998047362
 20
26.945196298
 30
0.0
  0
SPLINE
  5
258
100
AcDbEntity
  8
0
100
AcDbSpline
 62
7
  6
BYLAYER
 70
0
 71
3
 72
14
 73
10
 74
0
 42
0.0000001
 43
0.0000001
 44
0.0000000001
 40
0.0
 40
0.0
 40
0.0
 40
0.0
 40
0.1080443764
 40
0.2181294432
 40
0.3321092738
 40
0.4514919287
 40
0.5774376489
 40
0.7107386674
 40
1.0
 40
1.0
 40
1.0
 40
1.0
 10
42.254029576
 20
50.6728153038
 30
0.0
 10
42.1915680529
 20
50.636745055
 30
0.0
 10
42.0714614443
 20
50.5529522846
 30
0.0
 10
41.9127696484
 20
50.3967688611
 30
0.0
 10
41.7763114323
 20
50.2113982852
 30
0.0
 10
41.6632736453
 20
49.9989766651
 30
0.0
 10
41.5746207472
 20
49.7615466021
 30
0.0
 10
41.4874823737
 20
49.405249698
 30
0.0
 10
41.4649254327
 20
49.1217693801
 30
0.0
 10
41.4649254327
 20
48.9286639631
 30
0.0
  0
SPLINE
  5
259
100
AcDbEntity
  8
0
100
AcDbSpline
 62
7
  6
BYLAYER
 70
0
 71
3
 72
24
 73
20
 74
0
 42
0.0000001
 43
0.0000001
 44
0.0000000001
 40
0.0
 40
0.0
 40
0.0
 40
0.0
 40
0.0213330313
 40
0.042895392
 40
0.0874733193
 40
0.1352526971
 40
0.1871584528
 40
0.2435995415
 40
0.3045510531
 40
0.3696438276
 40
0.4382453381
 40
0.5095363284
 40
0.5825661325
 40
0.6563010532
 40
0.7296839096
 40
0.8016677554
 40
0.8712587398
 40
0.9376262922
 40
1.0
 40
1.0
 40
1.0
 40
1.0
 10
21.5993534521
 20
62.5975295621
 30
0.0
 10
21.5525434292
 20
62.570510259
 30
0.0
 10
21.4617993973
 20
62.5100588325
 30
0.0
 10
21.2939924924
 20
62.3645517838
 30
0.0
 10
21.1129681304
 20
62.1360093372
 30
0.0
 10
20.9529920029
 20
61.8047035146
 30
0.0
 10
20.8492904169
 20
61.4209871438
 30
0.0
 10
20.8031322851
 20
60.9930762824
 30
0.0
 10
20.8149077323
 20
60.5297191676
 30
0.0
 10
20.8841758431
 20
60.0404923204
 30
0.0
 10
21.0093321779
 20
59.5356111303
 30
0.0
 10
21.1876988367
 20
59.0257240322
 30
0.0
 10
21.4155131272
 20
58.5216752768
 30
0.0
 10
21.6878911069
 20
58.0341888702
 30
0.0
 10
21.9990270147
 20
57.57365855
 30
0.0
 10
22.3422787379
 20
57.1499301728
 30
0.0
 10
22.7104097217
 20
56.7719259927
 30
0.0
 10
23.0955492509
 20
56.4478884538
 30
0.0
 10
23.3674822747
 20
56.2661170601
 30
0.0
 10
23.504338414
 20
56.1871049187
 30
0.0
  0
SPLINE
  5
25A
100
AcDbEntity
  8
0
100
AcDbSpline
 62
7
  6
BYLAYER
 70
0
 71
3
 72
16
 73
12
 74
0
 42
0.0000001
 43
0.0000001
 44
0.0000000001
 40
0.0
 40
0.0
 40
0.0
 40
0.0
 40
0.1080065186
 40
0.2180486153
 40
0.3319795452
 40
0.4513346913
 40
0.5134438634
 40
0.5772985708
 40
0.7105090799
 40
0.851444826
 40
1.0
 40
1.0
 40
1.0
 40
1.0
 10
18.3637392347
 20
45.3851399855
 30
0.0
 10
18.1805085116
 20
45.279336647
 30
0.0
 10
17.8281906833
 20
45.0335372487
 30
0.0
 10
17.3627199964
 20
44.5753751602
 30
0.0
 10
16.9623399143
 20
44.0317061395
 30
0.0
 10
16.6897420013
 20
43.5190292301
 30
0.0
 10
16.5062135348
 20
43.0746055041
 30
0.0
 10
16.3419267602
 20
42.5938847724
 30
0.0
 10
16.1841859748
 20
41.9492366998
 30
0.0
 10
16.0725584988
 20
41.1274657096
 30
0.0
 10
16.0490494514
 20
40.5599542285
 30
0.0
 10
16.0490494514
 20
40.2689355221
 30
0.0
  0
SPLINE
  5
25B
100
AcDbEntity
  8
0
100
AcDbSpline
 62
7
  6
BYLAYER
 70
0
 71
3
 72
14
 73
10
 74
0
 42
0.0000001
 43
0.0000001
 44
0.0000000001
 40
0.0
 40
0.0
 40
0.0
 40
0.0
 40
0.1080610879
 40
0.2181596691
 40
0.332155279
 40
0.4515599132
 40
0.7103708631
 40
0.8514080973
 40
1.0
 40
1.0
 40
1.0
 40
1.0
 10
8.1118282185
 20
32.8671429627
 30
0.0
 10
8.0222917841
 20
32.8154505963
 30
0.0
 10
7.8501687957
 20
32.6952986018
 30
0.0
 10
7.6226688146
 20
32.4714851664
 30
0.0
 10
7.4270900551
 20
32.2057355319
 30
0.0
 10
7.2052499521
 20
31.788798911
 30
0.0
 10
7.0629166028
 20
31.3069982665
 30
0.0
 10
6.9923210191
 20
30.7867158508
 30
0.0
 10
6.9807897853
 20
30.5093386394
 30
0.0
 10
6.9807897853
 20
30.3671739358
 30
0.0
  0
SPLINE
  5
25C
100
AcDbEntity
  8
0
100
AcDbSpline
 62
7
  6
BYLAYER
 70
0
 71
3
 72
15
 73
11
 74
0
 42
0.0000001
 43
0.0000001
 44
0.0000000001
 40
0.0
 40
0.0
 40
0.0
 40
0.0
 40
0.1486025682
 40
0.2895002298
 40
0.4227203132
 40
0.5486432716
 40
0.6679991308
 40
0.7819389812
 40
0.8919869925
 40
1.0
 40
1.0
 40
1.0
 40
1.0
 10
10.8422171106
 20
23.6789085661
 30
0.0
 10
10.9654002022
 20
23.6077867297
 30
0.0
 10
11.2112868301
 20
23.4790837362
 30
0.0
 10
11.5863341345
 20
23.3255383869
 30
0.0
 10
11.9547132347
 20
23.2181898928
 30
0.0
 10
12.3129247801
 20
23.1580350138
 30
0.0
 10
12.6576521826
 20
23.1460960202
 30
0.0
 10
12.985564702
 20
23.1826073533
 30
0.0
 10
13.2931470587
 20
23.2677235857
 30
0.0
 10
13.4832658186
 20
23.3567061456
 30
0.0
 10
13.57280377
 20
23.4083993879
 30
0.0
  0
SPLINE
  5
25D
100
AcDbEntity
  8
0
100
AcDbSpline
 62
7
  6
BYLAYER
 70
0
 71
3
 72
14
 73
10
 74
0
 42
0.0000001
 43
0.0000001
 44
0.0000000001
 40
0.0
 40
0.0
 40
0.0
 40
0.0
 40
0.2892616601
 40
0.4225607036
 40
0.5485056449
 40
0.6678885896
 40
0.7818689255
 40
0.8919543603
 40
1.0
 40
1.0
 40
1.0
 40
1.0
 10
44.1590134855
 20
20.4123568748
 30
0.0
 10
44.3262444065
 20
20.3158082418
 30
0.0
 10
44.583017092
 20
20.1936081695
 30
0.0
 10
44.9351387488
 20
20.090931159
 30
0.0
 10
45.1850776594
 20
20.0489939831
 30
0.0
 10
45.4255525759
 20
20.0406794999
 30
0.0
 10
45.654312687
 20
20.0661661602
 30
0.0
 10
45.8689116701
 20
20.1255092981
 30
0.0
 10
46.0015306041
 20
20.1876234663
 30
0.0
 10
46.0639984474
 20
20.2236806499
 30
0.0
  0
SPLINE
  5
25E
100
AcDbEntity
  8
0
100
AcDbSpline
 62
7
  6
BYLAYER
 70
0
 71
3
 72
14
 73
10
 74
0
 42
0.0000001
 43
0.0000001
 44
0.0000000001
 40
0.0
 40
0.0
 40
0.0
 40
0.0
 40
0.2892616601
 40
0.4225607036
 40
0.5485056449
 40
0.6678885896
 40
0.7818689255
 40
0.8919543603
 40
1.0
 40
1.0
 40
1.0
 40
1.0
 10
23.504338414
 20
56.1871049187
 30
0.0
 10
23.6715693349
 20
56.0905562857
 30
0.0
 10
23.9283420204
 20
55.9683562134
 30
0.0
 10
24.2804636773
 20
55.8656792029
 30
0.0
 10
24.5304025879
 20
55.823742027
 30
0.0
 10
24.7708775043
 20
55.8154275438
 30
0.0
 10
24.9996376155
 20
55.8409142041
 30
0.0
 10
25.2142365986
 20
55.900257342
 30
0.0
 10
25.3468555325
 20
55.9623715102
 30
0.0
 10
25.4093233759
 20
55.9984286938
 30
0.0
  0
SPLINE
  5
25F
100
AcDbEntity
  8
0
100
AcDbSpline
 62
7
  6
BYLAYER
 70
0
 71
3
 72
24
 73
20
 74
0
 42
0.0000001
 43
0.0000001
 44
0.0000000001
 40
0.0
 40
0.0
 40
0.0
 40
0.0
 40
0.0623738741
 40
0.1287402907
 40
0.1983303572
 40
0.270313364
 40
0.3436955342
 40
0.4174304538
 40
0.4904610203
 40
0.5617531972
 40
0.6303557552
 40
0.6954492399
 40
0.7564010617
 40
0.8128419883
 40
0.8647473311
 40
0.9125264327
 40
0.9571042971
 40
0.978666753
 40
1.0
 40
1.0
 40
1.0
 40
1.0
 10
41.4649254327
 20
48.9286639631
 30
0.0
 10
41.4649254327
 20
48.7706376929
 30
0.0
 10
41.486378733
 20
48.4442559981
 30
0.0
 10
41.5744351631
 20
47.9487053189
 30
0.0
 10
41.7177291014
 20
47.4409035911
 30
0.0
 10
41.913055923
 20
46.931782851
 30
0.0
 10
42.1563151335
 20
46.4320728065
 30
0.0
 10
42.4422991756
 20
45.952446312
 30
0.0
 10
42.7649079284
 20
45.5031254514
 30
0.0
 10
43.117301534
 20
45.0937082176
 30
0.0
 10
43.4919658591
 20
44.7328762662
 30
0.0
 10
43.881015384
 20
44.4282729697
 30
0.0
 10
44.2764052041
 20
44.1863962193
 30
0.0
 10
44.6700630114
 20
44.0124169364
 30
0.0
 10
45.0542171955
 20
43.9103699768
 30
0.0
 10
45.4211199763
 20
43.8832564883
 30
0.0
 10
45.7095524826
 20
43.9257585489
 30
0.0
 10
45.9194693456
 20
43.9983258685
 30
0.0
 10
46.0171926525
 20
44.0466892939
 30
0.0
 10
46.063997395
 20
44.073718073
 30
0.0
  0
SPLINE
  5
260
100
AcDbEntity
  8
0
100
AcDbSpline
 62
7
  6
BYLAYER
 70
0
 71
3
 72
14
 73
10
 74
0
 42
0.0000001
 43
0.0000001
 44
0.0000000001
 40
0.0
 40
0.0
 40
0.0
 40
0.0
 40
0.1080443764
 40
0.2181294432
 40
0.3321092738
 40
0.4514919287
 40
0.5774376489
 40
0.7107386674
 40
1.0
 40
1.0
 40
1.0
 40
1.0
 10
46.063997395
 20
44.073718073
 30
0.0
 10
46.1264589182
 20
44.1097883218
 30
0.0
 10
46.2465655268
 20
44.1935810922
 30
0.0
 10
46.4052573227
 20
44.3497645157
 30
0.0
 10
46.5417155388
 20
44.5351350916
 30
0.0
 10
46.6547533258
 20
44.7475567117
 30
0.0
 10
46.7434062239
 20
44.9849867747
 30
0.0
 10
46.8305445974
 20
45.3412836788
 30
0.0
 10
46.8531015384
 20
45.6247639967
 30
0.0
 10
46.8531015384
 20
45.8178694137
 30
0.0
  0
SPLINE
  5
261
100
AcDbEntity
  8
0
100
AcDbSpline
 62
7
  6
BYLAYER
 70
0
 71
3
 72
14
 73
10
 74
0
 42
0.0000001
 43
0.0000001
 44
0.0000000001
 40
0.0
 40
0.0
 40
0.0
 40
0.0
 40
0.1080448842
 40
0.2181303821
 40
0.3321104994
 40
0.4514932597
 40
0.5774388933
 40
0.7107396434
 40
1.0
 40
1.0
 40
1.0
 40
1.0
 10
22.6769807534
 20
63.2196918301
 30
0.0
 10
22.7394480728
 20
63.255748853
 30
0.0
 10
22.8720652276
 20
63.3178660103
 30
0.0
 10
23.0866649286
 20
63.3772040991
 30
0.0
 10
23.3154239643
 20
63.4026952574
 30
0.0
 10
23.5558991659
 20
63.3943796135
 30
0.0
 10
23.8058395126
 20
63.3524432241
 30
0.0
 10
24.1579614308
 20
63.2497647661
 30
0.0
 10
24.4147345637
 20
63.1275655857
 30
0.0
 10
24.5819646619
 20
63.0310174277
 30
0.0
  0
SPLINE
  5
262
100
AcDbEntity
  8
0
100
AcDbSpline
 62
7
  6
BYLAYER
 70
0
 71
3
 72
9
 73
5
 74
0
 42
0.0000001
 43
0.0000001
 44
0.0000000001
 40
0.0
 40
0.0
 40
0.0
 40
0.0
 40
0.2409109716
 40
1.0
 40
1.0
 40
1.0
 40
1.0
 10
42.4103203831
 20
27.3649696859
 30
0.0
 10
42.3892952533
 20
27.3272171666
 30
0.0
 10
42.3071454789
 20
27.1676707743
 30
0.0
 10
42.2453867686
 20
26.99795466
 30
0.0
 10
42.2086645792
 20
26.8668418427
 30
0.0
  0
SPLINE
  5
263
100
AcDbEntity
  8
0
100
AcDbSpline
 62
7
  6
BYLAYER
 70
0
 71
3
 72
14
 73
10
 74
0
 42
0.0000001
 43
0.0000001
 44
0.0000000001
 40
0.0
 40
0.0
 40
0.0
 40
0.0
 40
0.1485919027
 40
0.2896291369
 40
0.5484400868
 40
0.667844721
 40
0.7818403309
 40
0.8919389121
 40
1.0
 40
1.0
 40
1.0
 40
1.0
 10
25.4801046824
 20
32.1300093199
 30
0.0
 10
25.4801046824
 20
31.9878446163
 30
0.0
 10
25.4685734486
 20
31.7104674048
 30
0.0
 10
25.3979778649
 20
31.1901849892
 30
0.0
 10
25.2556445156
 20
30.7083843446
 30
0.0
 10
25.0338044126
 20
30.2914477238
 30
0.0
 10
24.8382256531
 20
30.0256980893
 30
0.0
 10
24.610725672
 20
29.8018846539
 30
0.0
 10
24.4386026836
 20
29.6817326594
 30
0.0
 10
24.3490662492
 20
29.6300402929
 30
0.0
  0
SPLINE
  5
264
100
AcDbEntity
  8
0
100
AcDbSpline
 62
7
  6
BYLAYER
 70
0
 71
3
 72
24
 73
20
 74
0
 42
0.0000001
 43
0.0000001
 44
0.0000000001
 40
0.0
 40
0.0
 40
0.0
 40
0.0
 40
0.0213330313
 40
0.042895392
 40
0.0874733193
 40
0.1352526971
 40
0.1871584528
 40
0.2435995415
 40
0.3045510531
 40
0.3696438276
 40
0.4382453381
 40
0.5095363284
 40
0.5825661325
 40
0.6563010532
 40
0.7296839096
 40
0.8016677554
 40
0.8712587398
 40
0.9376262922
 40
1.0
 40
1.0
 40
1.0
 40
1.0
 10
25.4093233759
 20
55.9984286938
 30
0.0
 10
25.4561333988
 20
56.0254479969
 30
0.0
 10
25.5468774307
 20
56.0858994233
 30
0.0
 10
25.7146843356
 20
56.2314064721
 30
0.0
 10
25.8957086976
 20
56.4599489187
 30
0.0
 10
26.0556848251
 20
56.7912547413
 30
0.0
 10
26.1593864112
 20
57.1749711121
 30
0.0
 10
26.2055445429
 20
57.6028819735
 30
0.0
 10
26.1937690957
 20
58.0662390883
 30
0.0
 10
26.1245009849
 20
58.5554659355
 30
0.0
 10
25.9993446501
 20
59.0603471256
 30
0.0
 10
25.8209779914
 20
59.5702342237
 30
0.0
 10
25.5931637008
 20
60.0742829791
 30
0.0
 10
25.3207857211
 20
60.5617693857
 30
0.0
 10
25.0096498133
 20
61.0222997059
 30
0.0
 10
24.6663980902
 20
61.4460280831
 30
0.0
 10
24.2982671063
 20
61.8240322632
 30
0.0
 10
23.9131275771
 20
62.1480698021
 30
0.0
 10
23.6411945533
 20
62.3298411958
 30
0.0
 10
23.504338414
 20
62.4088533372
 30
0.0
  0
SPLINE
  5
265
100
AcDbEntity
  8
0
100
AcDbSpline
 62
7
  6
BYLAYER
 70
0
 71
3
 72
24
 73
20
 74
0
 42
0.0000001
 43
0.0000001
 44
0.0000000001
 40
0.0
 40
0.0
 40
0.0
 40
0.0
 40
0.0213330313
 40
0.042895392
 40
0.0874733193
 40
0.1352526971
 40
0.1871584528
 40
0.2435995415
 40
0.3045510531
 40
0.3696438276
 40
0.4382453381
 40
0.5095363284
 40
0.5825661325
 40
0.6563010532
 40
0.7296839096
 40
0.8016677554
 40
0.8712587398
 40
0.9376262922
 40
1.0
 40
1.0
 40
1.0
 40
1.0
 10
46.0639984474
 20
20.2236806499
 30
0.0
 10
46.1108084704
 20
20.250699953
 30
0.0
 10
46.2015525023
 20
20.3111513794
 30
0.0
 10
46.3693594071
 20
20.4566584282
 30
0.0
 10
46.5503837692
 20
20.6852008748
 30
0.0
 10
46.7103598966
 20
21.0165066974
 30
0.0
 10
46.8140614827
 20
21.4002230682
 30
0.0
 10
46.8602196145
 20
21.8281339296
 30
0.0
 10
46.8484441673
 20
22.2914910444
 30
0.0
 10
46.7791760564
 20
22.7807178916
 30
0.0
 10
46.6540197216
 20
23.2855990817
 30
0.0
 10
46.4756530629
 20
23.7954861798
 30
0.0
 10
46.2478387723
 20
24.2995349352
 30
0.0
 10
45.9754607927
 20
24.7870213418
 30
0.0
 10
45.6643248848
 20
25.247551662
 30
0.0
 10
45.3210731617
 20
25.6712800392
 30
0.0
 10
44.9529421779
 20
26.0492842193
 30
0.0
 10
44.5678026487
 20
26.3733217582
 30
0.0
 10
44.2958696249
 20
26.5550931519
 30
0.0
 10
44.1590134855
 20
26.6341052933
 30
0.0
  0
SPLINE
  5
266
100
AcDbEntity
  8
0
100
AcDbSpline
 62
7
  6
BYLAYER
 70
0
 71
3
 72
26
 73
22
 74
0
 42
0.0000001
 43
0.0000001
 44
0.0000000001
 40
0.0
 40
0.0
 40
0.0
 40
0.0
 40
0.062377344
 40
0.1287159616
 40
0.1983022629
 40
0.2702750217
 40
0.3436471746
 40
0.4173740634
 40
0.4903937481
 40
0.5616758644
 40
0.6302689718
 40
0.6953526518
 40
0.7562966133
 40
0.812730626
 40
0.8646282938
 40
0.8890141067
 40
0.9124619967
 40
0.9351057413
 40
0.9571097222
 40
0.9786691299
 40
1.0
 40
1.0
 40
1.0
 40
1.0
 10
31.8543660279
 20
31.1439381771
 30
0.0
 10
31.8543660279
 20
31.6075723704
 30
0.0
 10
31.7915374533
 20
32.5649207922
 30
0.0
 10
31.5330959111
 20
34.0185103285
 30
0.0
 10
31.1128369332
 20
35.5079775718
 30
0.0
 10
30.5398715909
 20
37.0014458301
 30
0.0
 10
29.826309718
 20
38.4672791649
 30
0.0
 10
28.9874180694
 20
39.8741974392
 30
0.0
 10
28.0410672446
 20
41.1921945911
 30
0.0
 10
27.0074263938
 20
42.3931821627
 30
0.0
 10
25.9084107079
 20
43.451626078
 30
0.0
 10
24.7671872162
 20
44.3450845849
 30
0.0
 10
23.607324366
 20
45.0546309106
 30
0.0
 10
22.4528200031
 20
45.5649674011
 30
0.0
 10
21.494138588
 20
45.8195127255
 30
0.0
 10
20.7568726998
 20
45.9062715731
 30
0.0
 10
20.2321117596
 20
45.9144849652
 30
0.0
 10
19.7271175059
 20
45.8671758329
 30
0.0
 10
19.2446823433
 20
45.764226996
 30
0.0
 10
18.7876738194
 20
45.6062784481
 30
0.0
 10
18.5010398093
 20
45.4644217726
 30
0.0
 10
18.3637392347
 20
45.3851399855
 30
0.0
  0
SPLINE
  5
267
100
AcDbEntity
  8
0
100
AcDbSpline
 62
7
  6
BYLAYER
 70
0
 71
3
 72
24
 73
20
 74
0
 42
0.0000001
 43
0.0000001
 44
0.0000000001
 40
0.0
 40
0.0
 40
0.0
 40
0.0
 40
0.0213330252
 40
0.0428953764
 40
0.0874732639
 40
0.13525256
 40
0.1871581891
 40
0.2435991118
 40
0.3045504306
 40
0.369643004
 40
0.4382443248
 40
0.5095351573
 40
0.5825648564
 40
0.6562997442
 40
0.729682656
 40
0.8016666577
 40
0.8712579053
 40
0.9376258279
 40
1.0
 40
1.0
 40
1.0
 40
1.0
 10
43.3316547723
 20
51.2949812179
 30
0.0
 10
43.3784589822
 20
51.3220097953
 30
0.0
 10
43.4761829722
 20
51.3703698864
 30
0.0
 10
43.6860978728
 20
51.442940063
 30
0.0
 10
43.9745313237
 20
51.4854394514
 30
0.0
 10
44.3414353687
 20
51.4583296978
 30
0.0
 10
44.725590573
 20
51.3562804168
 30
0.0
 10
45.1192473411
 20
51.1823006917
 30
0.0
 10
45.5146346121
 20
50.9404266991
 30
0.0
 10
45.9036795284
 20
50.6358284084
 30
0.0
 10
46.2783377237
 20
50.2750028429
 30
0.0
 10
46.6307265298
 20
49.8655931687
 30
0.0
 10
46.9533360717
 20
49.4162798871
 30
0.0
 10
47.2393212018
 20
48.9366543879
 30
0.0
 10
47.4825836839
 20
48.4369412488
 30
0.0
 10
47.6779179032
 20
47.9278154079
 30
0.0
 10
47.8212152772
 20
47.420004813
 30
0.0
 10
47.9092730127
 20
46.9244467278
 30
0.0
 10
47.9307277863
 20
46.5980605292
 30
0.0
 10
47.9307277863
 20
46.4400335042
 30
0.0
  0
SPLINE
  5
268
100
AcDbEntity
  8
0
100
AcDbSpline
 62
7
  6
BYLAYER
 70
0
 71
3
 72
18
 73
14
 74
0
 42
0.0000001
 43
0.0000001
 44
0.0000000001
 40
0.0
 40
0.0
 40
0.0
 40
0.0
 40
0.1550892073
 40
0.3062251896
 40
0.4497949531
 40
0.5828481033
 40
0.7035001094
 40
0.7590887985
 40
0.8116304424
 40
0.8614400621
 40
0.908989319
 40
0.954919592
 40
1.0
 40
1.0
 40
1.0
 40
1.0
 10
47.1444391571
 20
25.2404290761
 30
0.0
 10
47.2682193723
 20
25.0256327508
 30
0.0
 10
47.4890298118
 20
24.5873734846
 30
0.0
 10
47.7373252006
 20
23.9109094287
 30
0.0
 10
47.8921772346
 20
23.2428212993
 30
0.0
 10
47.9477178221
 20
22.6079322596
 30
0.0
 10
47.9078725683
 20
22.1118243773
 30
0.0
 10
47.8206685271
 20
21.7559423228
 30
0.0
 10
47.7319566052
 20
21.5188731388
 30
0.0
 10
47.6190096495
 20
21.306686392
 30
0.0
 10
47.4825797244
 20
21.1215829489
 30
0.0
 10
47.3240216845
 20
20.9655917875
 30
0.0
 10
47.2040337937
 20
20.881870588
 30
0.0
 10
47.141623642
 20
20.8458465629
 30
0.0
  0
SPLINE
  5
269
100
AcDbEntity
  8
0
100
AcDbSpline
 62
7
  6
BYLAYER
 70
0
 71
3
 72
15
 73
11
 74
0
 42
0.0000001
 43
0.0000001
 44
0.0000000001
 40
0.0
 40
0.0
 40
0.0
 40
0.0
 40
0.1080125436
 40
0.2180618663
 40
0.332006219
 40
0.451356913
 40
0.5772601256
 40
0.7105003496
 40
0.8514748396
 40
1.0
 40
1.0
 40
1.0
 40
1.0
 10
25.3676159206
 20
55.2411090053
 30
0.0
 10
25.2947399812
 20
55.1990343132
 30
0.0
 10
25.1399997822
 20
55.1266057898
 30
0.0
 10
24.8896480432
 20
55.0573262664
 30
0.0
 10
24.6227525141
 20
55.0276165214
 30
0.0
 10
24.3421891244
 20
55.0373199462
 30
0.0
 10
24.0506312252
 20
55.0862463337
 30
0.0
 10
23.7507438315
 20
55.1736480868
 30
0.0
 10
23.4454839352
 20
55.298654795
 30
0.0
 10
23.2453398374
 20
55.4033827923
 30
0.0
 10
23.1451296647
 20
55.4612378536
 30
0.0
  0
SPLINE
  5
26A
100
AcDbEntity
  8
0
100
AcDbSpline
 62
7
  6
BYLAYER
 70
0
 71
3
 72
16
 73
12
 74
0
 42
0.0000001
 43
0.0000001
 44
0.0000000001
 40
0.0
 40
0.0
 40
0.0
 40
0.0
 40
0.1080065186
 40
0.2180486153
 40
0.3319795452
 40
0.4513346913
 40
0.5134438634
 40
0.5772985708
 40
0.7105090799
 40
0.851444826
 40
1.0
 40
1.0
 40
1.0
 40
1.0
 10
29.5396762445
 20
26.0277337137
 30
0.0
 10
29.7229069676
 20
26.1335370522
 30
0.0
 10
30.0752247959
 20
26.3793364505
 30
0.0
 10
30.5406954828
 20
26.8374985389
 30
0.0
 10
30.941075565
 20
27.3811675596
 30
0.0
 10
31.2136734779
 20
27.8938444691
 30
0.0
 10
31.3972019444
 20
28.3382681951
 30
0.0
 10
31.561488719
 20
28.8189889268
 30
0.0
 10
31.7192295044
 20
29.4636369993
 30
0.0
 10
31.8308569804
 20
30.2854079895
 30
0.0
 10
31.8543660279
 20
30.8529194706
 30
0.0
 10
31.8543660279
 20
31.1439381771
 30
0.0
  0
SPLINE
  5
26B
100
AcDbEntity
  8
0
100
AcDbSpline
 62
7
  6
BYLAYER
 70
0
 71
3
 72
26
 73
22
 74
0
 42
0.0000001
 43
0.0000001
 44
0.0000000001
 40
0.0
 40
0.0
 40
0.0
 40
0.0
 40
0.0657719717
 40
0.1363667833
 40
0.2106145809
 40
0.2871365364
 40
0.3643750656
 40
0.4407403191
 40
0.5146896006
 40
0.5848426076
 40
0.6500967154
 40
0.7097646793
 40
0.7637454745
 40
0.8127218948
 40
0.8358596858
 40
0.8584291007
 40
0.8807556202
 40
0.9031850167
 40
0.9260550161
 40
0.9496704094
 40
1.0
 40
1.0
 40
1.0
 40
1.0
 10
12.9077909791
 20
25.9083640977
 30
0.0
 10
12.9077909791
 20
26.1180111689
 30
0.0
 10
12.8734328064
 20
26.5530377887
 30
0.0
 10
12.7348123306
 20
27.2114221889
 30
0.0
 10
12.5112180305
 20
27.882174489
 30
0.0
 10
12.2096221272
 20
28.5448135478
 30
0.0
 10
11.8390608505
 20
29.1793058558
 30
0.0
 10
11.4108613002
 20
29.7663426465
 30
0.0
 10
10.9379839776
 20
30.2880929113
 30
0.0
 10
10.4346643003
 20
30.7287759512
 30
0.0
 10
9.915820239
 20
31.0751472615
 30
0.0
 10
9.3962102582
 20
31.3166192704
 30
0.0
 10
8.8904528013
 20
31.4452492561
 30
0.0
 10
8.4837344747
 20
31.4527431918
 30
0.0
 10
8.1866028235
 20
31.3946754735
 30
0.0
 10
7.9813311708
 20
31.3222146234
 30
0.0
 10
7.7914887785
 20
31.2203519664
 30
0.0
 10
7.618667895
 20
31.0901449358
 30
0.0
 10
7.4643943625
 20
30.9326290248
 30
0.0
 10
7.2812884834
 20
30.6832416042
 30
0.0
 10
7.1812818405
 20
30.4664335095
 30
0.0
 10
7.1294557822
 20
30.3146107316
 30
0.0
  0
SPLINE
  5
26C
100
AcDbEntity
  8
0
100
AcDbSpline
 62
7
  6
BYLAYER
 70
0
 71
3
 72
9
 73
5
 74
0
 42
0.0000001
 43
0.0000001
 44
0.0000000001
 40
0.0
 40
0.0
 40
0.0
 40
0.0
 40
0.4778563444
 40
1.0
 40
1.0
 40
1.0
 40
1.0
 10
7.1294557822
 20
30.3146107316
 30
0.0
 10
7.078056317
 20
30.1640376443
 30
0.0
 10
7.002617966
 20
29.8376061313
 30
0.0
 10
6.9807972629
 20
29.5040879864
 30
0.0
 10
6.9807972629
 20
29.3302381021
 30
0.0
  0
SPLINE
  5
26D
100
AcDbEntity
  8
0
100
AcDbSpline
 62
7
  6
BYLAYER
 70
0
 71
3
 72
25
 73
21
 74
0
 42
0.0000001
 43
0.0000001
 44
0.0000000001
 40
0.0
 40
0.0
 40
0.0
 40
0.0
 40
0.0623733757
 40
0.1287280346
 40
0.1983135594
 40
0.2702912948
 40
0.3436687514
 40
0.4173996816
 40
0.4904238624
 40
0.5617106244
 40
0.6303076443
 40
0.6953947824
 40
0.7563427378
 40
0.8127809614
 40
0.8646816231
 40
0.9124565119
 40
0.9351018586
 40
0.9571071324
 40
0.9786678002
 40
1.0
 40
1.0
 40
1.0
 40
1.0
 10
14.7038422033
 20
25.9083684149
 30
0.0
 10
14.7038422033
 20
26.1348884309
 30
0.0
 10
14.6731119124
 20
26.6026954655
 30
0.0
 10
14.5468731722
 20
27.312976046
 30
0.0
 10
14.3414875957
 20
28.0408034107
 30
0.0
 10
14.0615438316
 20
28.7705609899
 30
0.0
 10
13.7128610984
 20
29.4868194536
 30
0.0
 10
13.3029374254
 20
30.1742844934
 30
0.0
 10
12.8405235055
 20
30.8183087033
 30
0.0
 10
12.3354547576
 20
31.4051605947
 30
0.0
 10
11.7984325441
 20
31.9223438582
 30
0.0
 10
11.2407724446
 20
32.3589118278
 30
0.0
 10
10.6740754334
 20
32.705631299
 30
0.0
 10
10.1097833312
 20
32.9550154501
 30
0.0
 10
9.5593273794
 20
33.1013133655
 30
0.0
 10
9.1128824413
 20
33.1340578486
 30
0.0
 10
8.7780386244
 20
33.1026726292
 30
0.0
 10
8.5422895342
 20
33.0523762532
 30
0.0
 10
8.3189929739
 20
32.9751680485
 30
0.0
 10
8.1789211545
 20
32.9058779499
 30
0.0
 10
8.1118282185
 20
32.8671429627
 30
0.0
  0
SPLINE
  5
26E
100
AcDbEntity
  8
0
100
AcDbSpline
 62
7
  6
BYLAYER
 70
0
 71
3
 72
26
 73
22
 74
0
 42
0.0000001
 43
0.0000001
 44
0.0000000001
 40
0.0
 40
0.0
 40
0.0
 40
0.0
 40
0.0213312464
 40
0.0428909581
 40
0.0648951953
 40
0.0875391983
 40
0.1109873171
 40
0.1353733043
 40
0.1872711929
 40
0.2437052086
 40
0.3046489544
 40
0.3697322256
 40
0.4383247883
 40
0.5096063854
 40
0.5826256934
 40
0.6563527666
 40
0.7297242729
 40
0.8016960388
 40
0.8712825763
 40
0.9376220773
 40
1.0
 40
1.0
 40
1.0
 40
1.0
 10
27.8845024538
 20
50.8819139317
 30
0.0
 10
28.0218052633
 20
50.9611972646
 30
0.0
 10
28.3084435017
 20
51.1030567618
 30
0.0
 10
28.7654598884
 20
51.261003127
 30
0.0
 10
29.2479009118
 20
51.3639523303
 30
0.0
 10
29.7529009737
 20
51.4112566807
 30
0.0
 10
30.2776664086
 20
51.4030405041
 30
0.0
 10
31.0149360316
 20
51.3162767873
 30
0.0
 10
31.9736182718
 20
51.0617253718
 30
0.0
 10
33.1281196067
 20
50.551383776
 30
0.0
 10
34.2879752028
 20
49.8418360291
 30
0.0
 10
35.4291888685
 20
48.94838054
 30
0.0
 10
36.5281949472
 20
47.8899437415
 30
0.0
 10
37.5618276351
 20
46.6889645661
 30
0.0
 10
38.5081763702
 20
45.3709734663
 30
0.0
 10
39.347062562
 20
43.9640603843
 30
0.0
 10
40.0606245172
 20
42.4982400989
 30
0.0
 10
40.6335837944
 20
41.0047817176
 30
0.0
 10
41.0538496054
 20
39.515316388
 30
0.0
 10
41.312294105
 20
38.0617152643
 30
0.0
 10
41.3751254887
 20
37.1043566395
 30
0.0
 10
41.3751254887
 20
36.6407184033
 30
0.0
  0
SPLINE
  5
26F
100
AcDbEntity
  8
0
100
AcDbSpline
 62
7
  6
BYLAYER
 70
0
 71
3
 72
14
 73
10
 74
0
 42
0.0000001
 43
0.0000001
 44
0.0000000001
 40
0.0
 40
0.0
 40
0.0
 40
0.0
 40
0.1080610879
 40
0.2181596691
 40
0.332155279
 40
0.4515599132
 40
0.7103708631
 40
0.8514080973
 40
1.0
 40
1.0
 40
1.0
 40
1.0
 10
13.57280377
 20
23.4083993879
 30
0.0
 10
13.6623402044
 20
23.4600917544
 30
0.0
 10
13.8344631929
 20
23.5802437489
 30
0.0
 10
14.061963174
 20
23.8040571843
 30
0.0
 10
14.2575419335
 20
24.0698068188
 30
0.0
 10
14.4793820365
 20
24.4867434396
 30
0.0
 10
14.6217153858
 20
24.9685440842
 30
0.0
 10
14.6923109694
 20
25.4888264998
 30
0.0
 10
14.7038422033
 20
25.7662037113
 30
0.0
 10
14.7038422033
 20
25.9083684149
 30
0.0
  0
SPLINE
  5
270
100
AcDbEntity
  8
0
100
AcDbSpline
 62
7
  6
BYLAYER
 70
0
 71
3
 72
25
 73
21
 74
0
 42
0.0000001
 43
0.0000001
 44
0.0000000001
 40
0.0
 40
0.0
 40
0.0
 40
0.0
 40
0.0213321998
 40
0.0428928676
 40
0.0648981414
 40
0.0875434881
 40
0.1353183769
 40
0.1872190386
 40
0.2436572622
 40
0.3046052176
 40
0.3696923557
 40
0.4382893756
 40
0.5095761376
 40
0.5826003184
 40
0.6563312486
 40
0.7297087052
 40
0.8016864406
 40
0.8712719654
 40
0.9376266243
 40
1.0
 40
1.0
 40
1.0
 40
1.0
 10
18.8880906977
 20
39.0887838677
 30
0.0
 10
18.9551836336
 20
39.1275188549
 30
0.0
 10
19.0952554531
 20
39.1968089535
 30
0.0
 10
19.3185520134
 20
39.2740171582
 30
0.0
 10
19.5543011035
 20
39.3243135342
 30
0.0
 10
19.8891449204
 20
39.3556987536
 30
0.0
 10
20.3355898586
 20
39.3229542705
 30
0.0
 10
20.8860458103
 20
39.1766563551
 30
0.0
 10
21.4503379126
 20
38.927272204
 30
0.0
 10
22.0170349237
 20
38.5805527328
 30
0.0
 10
22.5746950232
 20
38.1439847632
 30
0.0
 10
23.1117172367
 20
37.6268014997
 30
0.0
 10
23.6167859847
 20
37.0399496083
 30
0.0
 10
24.0791999045
 20
36.3959253985
 30
0.0
 10
24.4891235775
 20
35.7084603586
 30
0.0
 10
24.8378063108
 20
34.9922018949
 30
0.0
 10
25.1177500748
 20
34.2624443157
 30
0.0
 10
25.3231356513
 20
33.534616951
 30
0.0
 10
25.4493743915
 20
32.8243363705
 30
0.0
 10
25.4801046824
 20
32.3565293359
 30
0.0
 10
25.4801046824
 20
32.1300093199
 30
0.0
  0
SPLINE
  5
271
100
AcDbEntity
  8
0
100
AcDbSpline
 62
7
  6
BYLAYER
 70
0
 71
3
 72
15
 73
11
 74
0
 42
0.0000001
 43
0.0000001
 44
0.0000000001
 40
0.0
 40
0.0
 40
0.0
 40
0.0
 40
0.1141546703
 40
0.2373261017
 40
0.3669753162
 40
0.4999989361
 40
0.6330227034
 40
0.7626723508
 40
0.8858444607
 40
1.0
 40
1.0
 40
1.0
 40
1.0
 10
43.7998047362
 20
43.5365254141
 30
0.0
 10
43.5846341949
 20
43.6607513737
 30
0.0
 10
43.1596337437
 20
43.9586690903
 30
0.0
 10
42.5748559166
 20
44.5057687528
 30
0.0
 10
42.0359515543
 20
45.1524821287
 30
0.0
 10
41.5632187717
 20
45.8745489262
 30
0.0
 10
41.1742529167
 20
46.6449799261
 30
0.0
 10
40.883629823
 20
47.4350425159
 30
0.0
 10
40.7022106203
 20
48.2150278194
 30
0.0
 10
40.656702008
 20
48.7320507858
 30
0.0
 10
40.656702008
 20
48.9805088121
 30
0.0
  0
SPLINE
  5
272
100
AcDbEntity
  8
0
100
AcDbSpline
 62
7
  6
BYLAYER
 70
0
 71
3
 72
22
 73
18
 74
0
 42
0.0000001
 43
0.0000001
 44
0.0000000001
 40
0.0
 40
0.0
 40
0.0
 40
0.0
 40
0.144610209
 40
0.2112336537
 40
0.2742016437
 40
0.3338914481
 40
0.3908686439
 40
0.4459026279
 40
0.4999163281
 40
0.5539304293
 40
0.6089645331
 40
0.6659456152
 40
0.7256277597
 40
0.7885910496
 40
0.8552313761
 40
0.9257355692
 40
1.0
 40
1.0
 40
1.0
 40
1.0
 10
9.9442182283
 20
24.1974087045
 30
0.0
 10
10.1281791679
 20
24.0911954331
 30
0.0
 10
10.4106186118
 20
23.9567814249
 30
0.0
 10
10.7979453009
 20
23.8437890094
 30
0.0
 10
11.0728866022
 20
23.7976951785
 30
0.0
 10
11.3374339829
 20
23.7884536925
 30
0.0
 10
11.589067693
 20
23.8165378329
 30
0.0
 10
11.825179953
 20
23.8818161652
 30
0.0
 10
12.0431609217
 20
23.9838718492
 30
0.0
 10
12.2405396473
 20
24.1216097941
 30
0.0
 10
12.4151574765
 20
24.2934350159
 30
0.0
 10
12.5652513409
 20
24.4973351654
 30
0.0
 10
12.6896042724
 20
24.7310087898
 30
0.0
 10
12.7871112347
 20
24.9921608851
 30
0.0
 10
12.8571164501
 20
25.2782713807
 30
0.0
 10
12.8989441101
 20
25.5864778819
 30
0.0
 10
12.9077909791
 20
25.7992752539
 30
0.0
 10
12.9077909791
 20
25.9083640977
 30
0.0
  0
SPLINE
  5
273
100
AcDbEntity
  8
0
100
AcDbSpline
 62
7
  6
BYLAYER
 70
0
 71
3
 72
15
 73
11
 74
0
 42
0.0000001
 43
0.0000001
 44
0.0000000001
 40
0.0
 40
0.0
 40
0.0
 40
0.0
 40
0.148525705
 40
0.2895006365
 40
0.4227411389
 40
0.5486444378
 40
0.6679950214
 40
0.7819390827
 40
0.8919879708
 40
1.0
 40
1.0
 40
1.0
 40
1.0
 10
40.656702008
 20
25.1304732077
 30
0.0
 10
40.656702008
 20
25.2461888183
 30
0.0
 10
40.6660750699
 20
25.4718895991
 30
0.0
 10
40.7104443739
 20
25.7987659246
 30
0.0
 10
40.7846955336
 20
26.1021862748
 30
0.0
 10
40.8881038197
 20
26.3791543903
 30
0.0
 10
41.0199841338
 20
26.6269883135
 30
0.0
 10
41.1791644628
 20
26.8432775827
 30
0.0
 10
41.3643423976
 20
27.0254530831
 30
0.0
 10
41.5044409354
 20
27.1232495273
 30
0.0
 10
41.5773184804
 20
27.1653251464
 30
0.0
  0
SPLINE
  5
274
100
AcDbEntity
  8
0
100
AcDbSpline
 62
7
  6
BYLAYER
 70
0
 71
3
 72
16
 73
12
 74
0
 42
0.0000001
 43
0.0000001
 44
0.0000000001
 40
0.0
 40
0.0
 40
0.0
 40
0.0
 40
0.1485548766
 40
0.289490208
 40
0.4227010223
 40
0.4865559961
 40
0.5486653873
 40
0.6680204275
 40
0.7819501369
 40
0.8919918087
 40
1.0
 40
1.0
 40
1.0
 40
1.0
 10
41.3751254887
 20
36.6407184033
 30
0.0
 10
41.3751254887
 20
36.349700414
 30
0.0
 10
41.3516170979
 20
35.7821905458
 30
0.0
 10
41.239988905
 20
34.9604208477
 30
0.0
 10
41.0822484463
 20
34.3157726992
 30
0.0
 10
40.9179608209
 20
33.8350508532
 30
0.0
 10
40.7344310438
 20
33.3906270714
 30
0.0
 10
40.4618336601
 20
32.8779529073
 30
0.0
 10
40.0614587385
 20
32.3342845609
 30
0.0
 10
39.5959850184
 20
31.8761256364
 30
0.0
 10
39.2436652756
 20
31.6303254037
 30
0.0
 10
39.0604319471
 20
31.5245202199
 30
0.0
  0
SPLINE
  5
275
100
AcDbEntity
  8
0
100
AcDbSpline
 62
7
  6
BYLAYER
 70
0
 71
3
 72
9
 73
5
 74
0
 42
0.0000001
 43
0.0000001
 44
0.0000000001
 40
0.0
 40
0.0
 40
0.0
 40
0.0
 40
0.2575634062
 40
1.0
 40
1.0
 40
1.0
 40
1.0
 10
44.1590134855
 20
26.6341052933
 30
0.0
 10
44.1245396975
 20
26.6540082939
 30
0.0
 10
43.9894171977
 20
26.7290300776
 30
0.0
 10
43.8490988077
 20
26.7948485241
 30
0.0
 10
43.7424434629
 20
26.83716746
 30
0.0
  0
SPLINE
  5
276
100
AcDbEntity
  8
0
100
AcDbSpline
 62
7
  6
BYLAYER
 70
0
 71
3
 72
12
 73
8
 74
0
 42
0.0000001
 43
0.0000001
 44
0.0000000001
 40
0.0
 40
0.0
 40
0.0
 40
0.0
 40
0.2801140857
 40
0.5360762758
 40
0.7730987655
 40
0.8872391399
 40
1.0
 40
1.0
 40
1.0
 40
1.0
 10
43.7424434629
 20
26.83716746
 30
0.0
 10
43.6089223681
 20
26.8901462457
 30
0.0
 10
43.3448274936
 20
26.9722499686
 30
0.0
 10
42.9480473943
 20
27.015905004
 30
0.0
 10
42.6354308482
 20
26.9780314372
 30
0.0
 10
42.4090239398
 20
26.9030113004
 30
0.0
 10
42.3041101554
 20
26.8516892328
 30
0.0
 10
42.2540285237
 20
26.8227815182
 30
0.0
  0
SPLINE
  5
277
100
AcDbEntity
  8
0
100
AcDbSpline
 62
7
  6
BYLAYER
 70
0
 71
3
 72
9
 73
5
 74
0
 42
0.0000001
 43
0.0000001
 44
0.0000000001
 40
0.0
 40
0.0
 40
0.0
 40
0.0
 40
0.2598838335
 40
1.0
 40
1.0
 40
1.0
 40
1.0
 10
25.4247731506
 20
55.9371185931
 30
0.0
 10
25.4699294358
 20
55.9255628034
 30
0.0
 10
25.6447777165
 20
55.8856320947
 30
0.0
 10
25.8242522599
 20
55.8647401702
 30
0.0
 10
25.9569798154
 20
55.8626850743
 30
0.0
  0
SPLINE
  5
278
100
AcDbEntity
  8
0
100
AcDbSpline
 62
7
  6
BYLAYER
 70
0
 71
3
 72
11
 73
7
 74
0
 42
0.0000001
 43
0.0000001
 44
0.0000000001
 40
0.0
 40
0.0
 40
0.0
 40
0.0
 40
0.2282914006
 40
0.4746595154
 40
0.7339674672
 40
1.0
 40
1.0
 40
1.0
 40
1.0
 10
24.5819646619
 20
63.0310174277
 30
0.0
 10
24.7667499504
 20
62.9243340052
 30
0.0
 10
25.1317255204
 20
62.6683958834
 30
0.0
 10
25.6338185766
 20
62.1983051956
 30
0.0
 10
26.0963125586
 20
61.6426513693
 30
0.0
 10
26.3656165854
 20
61.2306107963
 30
0.0
 10
26.4897640856
 20
61.0151771199
 30
0.0
  0
SPLINE
  5
279
100
AcDbEntity
  8
0
100
AcDbSpline
 62
7
  6
BYLAYER
 70
0
 71
3
 72
14
 73
10
 74
0
 42
0.0000001
 43
0.0000001
 44
0.0000000001
 40
0.0
 40
0.0
 40
0.0
 40
0.0
 40
0.2892616601
 40
0.4225607036
 40
0.5485056449
 40
0.6678885896
 40
0.7818689255
 40
0.8919543603
 40
1.0
 40
1.0
 40
1.0
 40
1.0
 10
23.504338414
 20
62.4088533372
 30
0.0
 10
23.3371074931
 20
62.5054019702
 30
0.0
 10
23.0803348076
 20
62.6276020425
 30
0.0
 10
22.7282131507
 20
62.730279053
 30
0.0
 10
22.4782742402
 20
62.7722162289
 30
0.0
 10
22.2377993237
 20
62.7805307121
 30
0.0
 10
22.0090392125
 20
62.7550440517
 30
0.0
 10
21.7944402294
 20
62.6957009139
 30
0.0
 10
21.6618212955
 20
62.6335867457
 30
0.0
 10
21.5993534521
 20
62.5975295621
 30
0.0
  0
SPLINE
  5
27A
100
AcDbEntity
  8
0
100
AcDbSpline
 62
7
  6
BYLAYER
 70
0
 71
3
 72
14
 73
10
 74
0
 42
0.0000001
 43
0.0000001
 44
0.0000000001
 40
0.0
 40
0.0
 40
0.0
 40
0.0
 40
0.2892626359
 40
0.4225619479
 40
0.5485069759
 40
0.6678898151
 40
0.7818698643
 40
0.891954868
 40
1.0
 40
1.0
 40
1.0
 40
1.0
 10
47.9307277863
 20
46.4400335042
 30
0.0
 10
47.9307277863
 20
46.2469271373
 30
0.0
 10
47.9081718413
 20
45.963446761
 30
0.0
 10
47.8210323451
 20
45.607150807
 30
0.0
 10
47.732380846
 20
45.3697215946
 30
0.0
 10
47.619342197
 20
45.1573008014
 30
0.0
 10
47.4828873379
 20
44.9719270455
 30
0.0
 10
47.3241915287
 20
44.815746768
 30
0.0
 10
47.2040866192
 20
44.7319509619
 30
0.0
 10
47.1416246946
 20
44.6958803399
 30
0.0
  0
SPLINE
  5
27B
100
AcDbEntity
  8
0
100
AcDbSpline
 62
7
  6
BYLAYER
 70
0
 71
3
 72
24
 73
20
 74
0
 42
0.0000001
 43
0.0000001
 44
0.0000000001
 40
0.0
 40
0.0
 40
0.0
 40
0.0
 40
0.0623738741
 40
0.1287402907
 40
0.1983303572
 40
0.270313364
 40
0.3436955342
 40
0.4174304538
 40
0.4904610203
 40
0.5617531972
 40
0.6303557552
 40
0.6954492399
 40
0.7564010617
 40
0.8128419883
 40
0.8647473311
 40
0.9125264327
 40
0.9571042971
 40
0.978666753
 40
1.0
 40
1.0
 40
1.0
 40
1.0
 10
46.8531015384
 20
45.8178694137
 30
0.0
 10
46.8531015384
 20
45.9758956839
 30
0.0
 10
46.8316482381
 20
46.3022773787
 30
0.0
 10
46.743591808
 20
46.7978280579
 30
0.0
 10
46.6002978697
 20
47.3056297857
 30
0.0
 10
46.4049710481
 20
47.8147505258
 30
0.0
 10
46.1617118376
 20
48.3144605703
 30
0.0
 10
45.8757277955
 20
48.7940870648
 30
0.0
 10
45.5531190427
 20
49.2434079254
 30
0.0
 10
45.2007254371
 20
49.6528251592
 30
0.0
 10
44.826061112
 20
50.0136571106
 30
0.0
 10
44.4370115871
 20
50.3182604072
 30
0.0
 10
44.041621767
 20
50.5601371575
 30
0.0
 10
43.6479639597
 20
50.7341164404
 30
0.0
 10
43.2638097756
 20
50.8361634
 30
0.0
 10
42.8969069948
 20
50.8632768885
 30
0.0
 10
42.6084744885
 20
50.8207748279
 30
0.0
 10
42.3985576255
 20
50.7482075083
 30
0.0
 10
42.3008343186
 20
50.6998440829
 30
0.0
 10
42.254029576
 20
50.6728153038
 30
0.0
  0
ENDSEC
  0
SECTION
  2
OBJECTS
  0
DICTIONARY
  5
C
100
AcDbDictionary
280
0
281
1
  3
ACAD_GROUP
350
D
  3
ACAD_MLINESTYLE
350
17
  3
ACAD_LAYOUT
350
1A
  3
ACAD_PLOTSETTINGS
350
19
  3
ACAD_PLOTSTYLENAME
350
E
  0
DICTIONARY
  5
D
102
{ACAD_REACTORS
330
C
102
}
100
AcDbDictionary
280
0
281
1
  0
ACDBDICTIONARYWDFLT
  5
E
102
{ACAD_REACTORS
330
C
102
}
100
AcDbDictionary
281
1
  3
Normal
350
F
100
AcDbDictionaryWithDefault
340
F
  0
DICTIONARY
  5
17
102
{ACAD_REACTORS
330
C
102
}
100
AcDbDictionary
280
0
281
1
  3
Standard
350
18
  0
DICTIONARY
  5
19
102
{ACAD_REACTORS
330
C
102
}
100
AcDbDictionary
281
1
  0
DICTIONARY
  5
1A
102
{ACAD_REACTORS
330
C
102
}
100
AcDbDictionary
281
1
  3
Model
350
27C
  3
Layout1
350
27D
  0
ACDBPLACEHOLDER
  5
F
102
{ACAD_REACTORS
330
E
102
}
  0
MLINESTYLE
  5
18
102
{ACAD_REACTORS
330
17
102
}
100
AcDbMlineStyle
  2
STANDARD
 70
0
  3

 62
256
 51
90.0
 52
90.0
 71
2
 49
0.5
 62
256
  6
BYLAYER
 49
-0.5
 62
256
  6
BYLAYER
  0
LAYOUT
  5
27C
102
{ACAD_REACTORS
330
1A
102
}
100
AcDbPlotSettings
  1

  2
none_device
  4

  6

 40
0.0
 41
0.0
 42
0.0
 43
0.0
 44
210.0
 45
297.0
 46
0.0
 47
0.0
 48
0.0
 49
0.0
140
0.0
141
0.0
142
1.0
143
1.0
 70
1024
 72
1
 73
0
 74
0
  7

 75
0
147
1.0
148
0.0
149
0.0
100
AcDbLayout
  1
Model
 70
0
 71
0
 10
0.0
 20
0.0
 11
210.0
 21
297.0
 12
0.0
 22
0.0
 32
0.0
 14
0.0
 24
0.0
 34
0.0
 15
0.0
 25
0.0
 35
0.0
146
0.0
 13
0.0
 23
0.0
 33
0.0
 16
1.0
 26
0.0
 36
0.0
 17
0.0
 27
1.0
 37
0.0
 76
0
330
210
345
0
346
0
  0
LAYOUT
  5
27D
102
{ACAD_REACTORS
330
1A
102
}
100
AcDbPlotSettings
  1

  2
none_device
  4

  6

 40
0.0
 41
0.0
 42
0.0
 43
0.0
 44
210.0
 45
297.0
 46
0.0
 47
0.0
 48
0.0
 49
0.0
140
0.0
141
0.0
142
1.0
143
1.0
 70
0
 72
1
 73
0
 74
0
  7

 75
0
147
1.0
148
0.0
149
0.0
100
AcDbLayout
  1
Layout1
 70
0
 71
1
 10
0.0
 20
0.0
 11
210.0
 21
297.0
 12
0.0
 22
0.0
 32
0.0
 14
0.0
 24
0.0
 34
0.0
 15
0.0
 25
0.0
 35
0.0
146
0.0
 13
0.0
 23
0.0
 33
0.0
 16
1.0
 26
0.0
 36
0.0
 17
0.0
 27
1.0
 37
0.0
 76
0
330
211
345
0
346
0
  0
ENDSEC
  0
EOF
