999
DXF file: C:\Users\sesa63760\Dev\_Creo\CAD\MCADID0003049_3D-CAD\drw0001_1.dxf
999
Pro/ENGINEER 2019471 by Parametric Technology Corporation
  0
SECTION
  2
HEADER
  9
$ACADVER
  1
AC1024
  9
$DWGCODEPAGE
  3
ANSI_1252
  9
$EXTMAX
 10
81.2765907604
 20
114.9483212183
 30
0.0
  9
$EXTMIN
 10
0.0
 20
0.0
 30
0.0
  9
$LIMMIN
 10
0.0
 20
0.0
  9
$LIMMAX
 10
81.2765907604
 20
114.9483212183
  9
$VIEWCTR
 10
40.6382953802
 20
57.4741606091
  9
$VIEWSIZE
 40
114.9483212183
  9
$CLAYER
  8
0
  9
$LTSCALE
 40
7.4929276053
  9
$CELTYPE
  6
BYLAYER
  9
$DIMSCALE
 40
1.0
  9
$DIMASZ
 40
0.9675784614
  9
$DIMEXO
 40
1.0
  9
$DIMDLI
 40
5.1769318001
  9
$DIMEXE
 40
1.0
  9
$DIMCEN
 40
1.2261154263
  9
$DIMLFAC
 40
1.0
  9
$DIMBLK
  1
_FILLED
  9
$DIMALT
 70
0
  9
$DIMALTF
 40
0.0393700787
  9
$DIMTXT
 40
1.354609846
  9
$DIMTOL
 70
1
  9
$DIMLIM
 70
0
  9
$DIMTFAC
 40
1.0
  9
$DIMTP
 40
0.01
  9
$DIMTM
 40
0.01
  9
$DIMGAP
 40
0.625
  9
$DIMDSEP
 70
46
  9
$AUNITS
 70
0
  9
$PDMODE
 70
3
  9
$PDSIZE
 40
0.3125
  9
$HANDSEED
  5
273
  9
$TILEMODE
 70
1
  9
$MEASUREMENT
 70
1
  9
$INSUNITS
 70
4
  0
ENDSEC
  0
SECTION
  2
CLASSES
  0
CLASS
  1
ACDBDICTIONARYWDFLT
  2
AcDbDictionaryWithDefault
  3
AutoCAD 2000
 90
0
 91
1
280
0
281
0
  0
CLASS
  1
ACDBPLACEHOLDER
  2
AcDbPlaceHolder
  3
AutoCAD 2000
 90
0
 91
1
280
0
281
0
  0
CLASS
  1
LAYOUT
  2
AcDbLayout
  3
AutoCAD 2000
 90
0
 91
0
280
0
281
0
  0
ENDSEC
  0
SECTION
  2
TABLES
  0
TABLE
  2
VPORT
  5
8
100
AcDbSymbolTable
 70
2
  0
VPORT
  5
1F4
100
AcDbSymbolTableRecord
100
AcDbViewportTableRecord
  2
*ACTIVE
 70
0
 10
0.0
 20
0.0
 11
1.0
 21
1.0
 12
40.6382953802
 22
57.4741606091
 13
0.0
 23
0.0
 14
1.0
 24
1.0
 15
0.0
 25
0.0
 16
0.0
 26
0.0
 36
1.0
 17
0.0
 27
0.0
 37
0.0
 40
114.9483212183
 41
0.7070707071
 42
50.0
 43
0.0
 44
0.0
 50
0.0
 51
0.0
 71
0
 72
100
 73
1
 74
1
 75
0
 76
0
 77
0
 78
0
  0
ENDTAB
  0
TABLE
  2
LTYPE
  5
5
100
AcDbSymbolTable
 70
6
  0
LTYPE
  5
14
100
AcDbSymbolTableRecord
100
AcDbLinetypeTableRecord
  2
BYBLOCK
 70
0
  3

 72
65
 73
0
 40
0.0
  0
LTYPE
  5
15
100
AcDbSymbolTableRecord
100
AcDbLinetypeTableRecord
  2
BYLAYER
 70
0
  3

 72
65
 73
0
 40
0.0
  0
LTYPE
  5
16
100
AcDbSymbolTableRecord
100
AcDbLinetypeTableRecord
  2
CONTINUOUS
 70
64
  3
Solid line
 72
65
 73
0
 40
0.0
  0
LTYPE
  5
1F5
100
AcDbSymbolTableRecord
100
AcDbLinetypeTableRecord
  2
CENTER
 70
64
  3
____ _ ____ _ ____ _ ____ _ ____ _ ____ _ ____
 72
65
 73
4
 40
0.6
 49
0.375
 74
0
 49
-0.075
 74
0
 49
0.075
 74
0
 49
-0.075
 74
0
  0
LTYPE
  5
1F6
100
AcDbSymbolTableRecord
100
AcDbLinetypeTableRecord
  2
HIDDEN
 70
64
  3
- - - - - - - - - - - - - - - - - - - -
 72
65
 73
2
 40
0.2
 49
0.1
 74
0
 49
-0.1
 74
0
  0
LTYPE
  5
1F7
100
AcDbSymbolTableRecord
100
AcDbLinetypeTableRecord
  2
PHANTOM
 70
64
  3
_____ _ _ _____ _ _ _____ _ _ _____
 72
65
 73
6
 40
0.8
 49
0.45
 74
0
 49
-0.05
 74
0
 49
0.1
 74
0
 49
-0.05
 74
0
 49
0.1
 74
0
 49
-0.05
 74
0
  0
LTYPE
  5
1F8
100
AcDbSymbolTableRecord
100
AcDbLinetypeTableRecord
  2
DOT
 70
64
  3
. . . . . . . . . . . . . . . . . . . .
 72
65
 73
2
 40
0.2
 49
0.1
 74
0
 49
-0.1
 74
0
  0
LTYPE
  5
1F9
100
AcDbSymbolTableRecord
100
AcDbLinetypeTableRecord
  2
DASHED
 70
64
  3
- - - - - - - - - - - - - - - - - - - -
 72
65
 73
2
 40
0.2
 49
0.1
 74
0
 49
-0.1
 74
0
  0
ENDTAB
  0
TABLE
  2
LAYER
  5
2
100
AcDbSymbolTable
 70
36
  0
LAYER
  5
10
100
AcDbSymbolTableRecord
100
AcDbLayerTableRecord
  2
0
 70
0
 62
7
  6
CONTINUOUS
370
-3
390
F
  0
LAYER
  5
1FA
100
AcDbSymbolTableRecord
100
AcDbLayerTableRecord
  2
DEFAULT_1
 70
0
 62
7
  6
CENTER
370
-3
390
F
  0
LAYER
  5
1FB
100
AcDbSymbolTableRecord
100
AcDbLayerTableRecord
  2
DEFAULT_2
 70
0
 62
7
  6
HIDDEN
370
-3
390
F
  0
LAYER
  5
1FC
100
AcDbSymbolTableRecord
100
AcDbLayerTableRecord
  2
DEFAULT_3
 70
0
 62
7
  6
PHANTOM
370
-3
390
F
  0
LAYER
  5
1FD
100
AcDbSymbolTableRecord
100
AcDbLayerTableRecord
  2
00_COMPONENTS
 70
0
 62
7
  6
CONTINUOUS
370
-3
390
F
  0
LAYER
  5
1FE
100
AcDbSymbolTableRecord
100
AcDbLayerTableRecord
  2
01_1_DEFAULT_DATUMS
 70
0
 62
7
  6
CONTINUOUS
370
-3
390
F
  0
LAYER
  5
1FF
100
AcDbSymbolTableRecord
100
AcDbLayerTableRecord
  2
01_PLANES
 70
0
 62
7
  6
CONTINUOUS
370
-3
390
F
  0
LAYER
  5
200
100
AcDbSymbolTableRecord
100
AcDbLayerTableRecord
  2
02_COORD_SYS
 70
0
 62
7
  6
CONTINUOUS
370
-3
390
F
  0
LAYER
  5
201
100
AcDbSymbolTableRecord
100
AcDbLayerTableRecord
  2
03_AXES
 70
0
 62
7
  6
CONTINUOUS
370
-3
390
F
  0
LAYER
  5
202
100
AcDbSymbolTableRecord
100
AcDbLayerTableRecord
  2
04_POINTS
 70
0
 62
7
  6
CONTINUOUS
370
-3
390
F
  0
LAYER
  5
203
100
AcDbSymbolTableRecord
100
AcDbLayerTableRecord
  2
05_CURVES
 70
0
 62
7
  6
CONTINUOUS
370
-3
390
F
  0
LAYER
  5
204
100
AcDbSymbolTableRecord
100
AcDbLayerTableRecord
  2
06_SURFS
 70
0
 62
7
  6
CONTINUOUS
370
-3
390
F
  0
LAYER
  5
205
100
AcDbSymbolTableRecord
100
AcDbLayerTableRecord
  2
07_COSMETICS
 70
0
 62
7
  6
CONTINUOUS
370
-3
390
F
  0
LAYER
  5
206
100
AcDbSymbolTableRecord
100
AcDbLayerTableRecord
  2
10_NOTES
 70
0
 62
7
  6
CONTINUOUS
370
-3
390
F
  0
LAYER
  5
207
100
AcDbSymbolTableRecord
100
AcDbLayerTableRecord
  2
11_NOTES_PUB
 70
0
 62
7
  6
CONTINUOUS
370
-3
390
F
  0
LAYER
  5
208
100
AcDbSymbolTableRecord
100
AcDbLayerTableRecord
  2
13_REF_GTOL
 70
0
 62
7
  6
CONTINUOUS
370
-3
390
F
  0
LAYER
  5
209
100
AcDbSymbolTableRecord
100
AcDbLayerTableRecord
  2
16_MISC
 70
0
 62
7
  6
CONTINUOUS
370
-3
390
F
  0
LAYER
  5
20A
100
AcDbSymbolTableRecord
100
AcDbLayerTableRecord
  2
17_NO_PRINT
 70
0
 62
7
  6
CONTINUOUS
370
-3
390
F
  0
LAYER
  5
20B
100
AcDbSymbolTableRecord
100
AcDbLayerTableRecord
  2
18_DATUM_CAMS_JOINTS
 70
0
 62
7
  6
CONTINUOUS
370
-3
390
F
  0
LAYER
  5
20C
100
AcDbSymbolTableRecord
100
AcDbLayerTableRecord
  2
19_DATUM_FUNCTIONAL
 70
0
 62
7
  6
CONTINUOUS
370
-3
390
F
  0
LAYER
  5
20D
100
AcDbSymbolTableRecord
100
AcDbLayerTableRecord
  2
20_DATUM_KINEMATIC_SCHEME
 70
0
 62
7
  6
CONTINUOUS
370
-3
390
F
  0
LAYER
  5
20E
100
AcDbSymbolTableRecord
100
AcDbLayerTableRecord
  2
INTFCLR_2703
 70
0
 62
7
  6
CONTINUOUS
370
-3
390
F
  0
ENDTAB
  0
TABLE
  2
STYLE
  5
3
100
AcDbSymbolTable
 70
1
  0
STYLE
  5
11
100
AcDbSymbolTableRecord
100
AcDbTextStyleTableRecord
  2
STANDARD
 70
0
 40
0.0
 41
1.0
 50
0.0
 71
0
 42
0.2
  3
ARIAL.TTF
  4

  0
STYLE
  5
20F
100
AcDbSymbolTableRecord
100
AcDbTextStyleTableRecord
  2
TEXTSTYLE_1
 70
0
 40
0.0
 41
0.8
 50
0.0
 71
0
 42
0.2
  3
gdt
  4

  0
ENDTAB
  0
TABLE
  2
VIEW
  5
6
100
AcDbSymbolTable
 70
0
  0
ENDTAB
  0
TABLE
  2
UCS
  5
7
100
AcDbSymbolTable
 70
0
  0
ENDTAB
  0
TABLE
  2
APPID
  5
9
100
AcDbSymbolTable
 70
1
  0
APPID
  5
210
100
AcDbSymbolTableRecord
100
AcDbRegAppTableRecord
  2
ACAD
 70
0
  0
ENDTAB
  0
TABLE
  2
BLOCK_RECORD
  5
1
100
AcDbSymbolTable
 70
0
  0
BLOCK_RECORD
  5
211
100
AcDbSymbolTableRecord
100
AcDbBlockTableRecord
  2
*Model_Space
  0
BLOCK_RECORD
  5
212
100
AcDbSymbolTableRecord
100
AcDbBlockTableRecord
  2
*Paper_Space
  0
BLOCK_RECORD
  5
213
100
AcDbSymbolTableRecord
100
AcDbBlockTableRecord
  2
_FILLED
  0
ENDTAB
  0
TABLE
  2
DIMSTYLE
  5
A
100
AcDbSymbolTable
 70
1
100
AcDbDimStyleTable
 71
0
  0
DIMSTYLE
105
214
100
AcDbSymbolTableRecord
100
AcDbDimStyleTableRecord
  2
STANDARD
 70
0
  3

  4

 40
1.0
 41
0.9675784614
 42
1.0
 43
0.38
 44
1.0
 45
0.0
 46
0.0
 47
0.01
 48
0.01
140
1.354609846
141
0.09
142
0.0
143
25.4
144
1.0
145
0.0
146
1.0
147
0.625
 71
1
 72
0
 73
0
 74
0
 75
0
 76
0
 77
1
 78
8
 79
2
170
0
171
1
172
0
173
0
174
0
175
0
176
0
177
0
178
0
270
2
179
2
271
2
272
2
273
2
274
2
275
0
280
0
281
0
282
0
283
1
284
8
285
0
286
0
287
3
288
0
340
11
278
46
341
213
342
213
343
213
344
213
  0
ENDTAB
  0
ENDSEC
  0
SECTION
  2
BLOCKS
  0
BLOCK
  5
20
100
AcDbEntity
  8
0
100
AcDbBlockBegin
  2
*Model_Space
 70
0
 10
0.0
 20
0.0
 30
0.0
  3
*Model_Space
  1

  0
ENDBLK
  5
21
100
AcDbEntity
  8
0
100
AcDbBlockEnd
  0
BLOCK
  5
1C
100
AcDbEntity
  8
0
100
AcDbBlockBegin
  2
*Paper_Space
 70
0
 10
0.0
 20
0.0
 30
0.0
  3
*Paper_Space
  1

  0
ENDBLK
  5
1D
100
AcDbEntity
  8
0
100
AcDbBlockEnd
  0
BLOCK
  5
215
100
AcDbEntity
  8
0
100
AcDbBlockBegin
  2
_FILLED
 70
64
 10
0.0
 20
0.0
  3
_FILLED
  1

  0
SOLID
  5
216
100
AcDbEntity
  8
0
  6
BYBLOCK
 62
0
100
AcDbTrace
 10
0.0
 20
0.0
 11
-1.0
 21
0.25
 12
-1.0
 22
-0.25
 13
-1.0
 23
-0.25
  0
ENDBLK
  5
217
100
AcDbEntity
  8
0
  6
BYBLOCK
 62
0
100
AcDbBlockEnd
  0
ENDSEC
  0
SECTION
  2
ENTITIES
  0
LINE
  5
218
100
AcDbEntity
  8
0
100
AcDbLine
 62
7
  6
BYLAYER
 10
9.4290186124
 20
43.3565232376
 11
9.4290186124
 21
40.6604322562
  0
LINE
  5
219
100
AcDbEntity
  8
0
100
AcDbLine
 62
7
  6
BYLAYER
 10
15.7790410454
 20
35.7867960367
 11
12.9125547225
 21
37.4417252474
  0
LINE
  5
21A
100
AcDbEntity
  8
0
100
AcDbLine
 62
7
  6
BYLAYER
 10
10.3908649398
 20
43.3565102861
 11
10.3908649398
 21
45.1193390047
  0
LINE
  5
21B
100
AcDbEntity
  8
0
100
AcDbLine
 62
7
  6
BYLAYER
 10
13.0848363409
 20
50.2001264933
 11
13.0848363409
 21
63.0584065582
  0
LINE
  5
21C
100
AcDbEntity
  8
0
100
AcDbLine
 62
7
  6
BYLAYER
 10
14.5090186124
 20
45.1400911176
 11
14.5090186124
 21
45.1193519562
  0
LINE
  5
21D
100
AcDbEntity
  8
0
100
AcDbLine
 62
7
  6
BYLAYER
 10
15.7790410454
 20
40.2457157366
 11
10.3908649398
 21
43.3565102861
  0
LINE
  5
21E
100
AcDbEntity
  8
0
100
AcDbLine
 62
7
  6
BYLAYER
 10
10.3908649398
 20
45.1193390047
 11
15.7790410454
 21
42.0085444552
  0
LINE
  5
21F
100
AcDbEntity
  8
0
100
AcDbLine
 62
7
  6
BYLAYER
 10
15.7790410454
 20
42.0085444552
 11
15.7790410454
 21
40.2457157366
  0
LINE
  5
220
100
AcDbEntity
  8
0
100
AcDbLine
 62
7
  6
BYLAYER
 10
15.7790410454
 20
36.9947320312
 11
15.7790410454
 21
35.7867960367
  0
LINE
  5
221
100
AcDbEntity
  8
0
100
AcDbLine
 62
7
  6
BYLAYER
 10
16.6770479633
 20
44.600886198
 11
16.6770479633
 21
44.6216253593
  0
LINE
  5
222
100
AcDbEntity
  8
0
100
AcDbLine
 62
7
  6
BYLAYER
 10
19.7415572234
 20
41.068802259
 11
18.4731066652
 21
41.8011259629
  0
LINE
  5
223
100
AcDbEntity
  8
0
100
AcDbLine
 62
7
  6
BYLAYER
 10
18.4731066652
 20
43.5639546815
 11
16.6770479633
 21
44.600886198
  0
LINE
  5
224
100
AcDbEntity
  8
0
100
AcDbLine
 62
7
  6
BYLAYER
 10
14.8720090427
 20
45.6430023288
 11
13.0849305596
 21
46.6747492309
  0
LINE
  5
225
100
AcDbEntity
  8
0
100
AcDbLine
 62
7
  6
BYLAYER
 10
16.6770479633
 20
44.6216253593
 11
14.8809892615
 21
45.6585568758
  0
LINE
  5
226
100
AcDbEntity
  8
0
100
AcDbLine
 62
7
  6
BYLAYER
 10
18.4731066652
 20
41.8011259629
 11
18.4731066652
 21
43.5639546815
  0
LINE
  5
227
100
AcDbEntity
  8
0
100
AcDbLine
 62
7
  6
BYLAYER
 10
23.7238148109
 20
42.2951948994
 11
26.0587314713
 21
40.9471606336
  0
LINE
  5
228
100
AcDbEntity
  8
0
100
AcDbLine
 62
7
  6
BYLAYER
 10
22.1290186124
 20
41.374444381
 11
22.1290186124
 21
40.6604322562
  0
LINE
  5
229
100
AcDbEntity
  8
0
100
AcDbLine
 62
7
  6
BYLAYER
 10
44.515601905
 20
81.2048591978
 11
13.0848363409
 21
63.0584065582
  0
LINE
  5
22A
100
AcDbEntity
  8
0
100
AcDbLine
 62
7
  6
BYLAYER
 10
41.1033520901
 20
34.0239948361
 11
28.6383070856
 21
41.2205291176
  0
LINE
  5
22B
100
AcDbEntity
  8
0
100
AcDbLine
 62
7
  6
BYLAYER
 10
14.4141249653
 20
49.4326787101
 11
13.0848363409
 21
50.2001264933
  0
LINE
  5
22C
100
AcDbEntity
  8
0
100
AcDbLine
 62
7
  6
BYLAYER
 10
13.0848363409
 20
63.0584065582
 11
41.1033520901
 21
46.8822749011
  0
LINE
  5
22D
100
AcDbEntity
  8
0
100
AcDbLine
 62
7
  6
BYLAYER
 10
56.4726404053
 20
74.3016159732
 11
57.7681512057
 21
75.0495750178
  0
LINE
  5
22E
100
AcDbEntity
  8
0
100
AcDbLine
 62
7
  6
BYLAYER
 10
23.5381101353
 20
54.7003825602
 11
13.1210564054
 21
48.6861296853
  0
LINE
  5
22F
100
AcDbEntity
  8
0
100
AcDbLine
 62
7
  6
BYLAYER
 10
64.969305612
 20
77.3365265548
 11
60.8145170902
 21
74.9377726019
  0
LINE
  5
230
100
AcDbEntity
  8
0
100
AcDbLine
 62
7
  6
BYLAYER
 10
13.0849305596
 20
46.6747492309
 11
10.3908649398
 21
45.1193390047
  0
LINE
  5
231
100
AcDbEntity
  8
0
100
AcDbLine
 62
7
  6
BYLAYER
 10
41.1033520901
 20
46.8822749011
 11
41.1033520901
 21
34.0239948361
  0
LINE
  5
232
100
AcDbEntity
  8
0
100
AcDbLine
 62
7
  6
BYLAYER
 10
18.4731066652
 20
43.5639546815
 11
15.7790410454
 21
42.0085444552
  0
LINE
  5
233
100
AcDbEntity
  8
0
100
AcDbLine
 62
7
  6
BYLAYER
 10
18.4731066652
 20
41.8011259629
 11
15.7790410454
 21
40.2457157366
  0
LINE
  5
234
100
AcDbEntity
  8
0
100
AcDbLine
 62
7
  6
BYLAYER
 10
21.568622105
 20
41.0509012379
 11
26.0587314713
 21
43.6432516149
  0
LINE
  5
235
100
AcDbEntity
  8
0
100
AcDbLine
 62
7
  6
BYLAYER
 10
18.4731066652
 20
37.3422062629
 11
15.7790410454
 21
35.7867960367
  0
LINE
  5
236
100
AcDbEntity
  8
0
100
AcDbLine
 62
7
  6
BYLAYER
 10
70.9692787508
 20
66.9442062011
 11
70.0928147921
 21
66.4381825192
  0
LINE
  5
237
100
AcDbEntity
  8
0
100
AcDbLine
 62
7
  6
BYLAYER
 10
26.0587314713
 20
40.9471606336
 11
21.568622105
 21
38.3548102565
  0
LINE
  5
238
100
AcDbEntity
  8
0
100
AcDbLine
 62
7
  6
BYLAYER
 10
30.6500782957
 20
42.3820188342
 11
20.2330245659
 21
36.3677659594
  0
LINE
  5
239
100
AcDbEntity
  8
0
100
AcDbLine
 62
7
  6
BYLAYER
 10
72.5341176543
 20
65.0287275407
 11
41.1033520901
 21
46.8822749011
  0
LINE
  5
23A
100
AcDbEntity
  8
0
100
AcDbLine
 62
7
  6
BYLAYER
 10
72.5341176543
 20
52.1704474757
 11
41.1033520901
 21
34.0239948361
  0
LINE
  5
23B
100
AcDbEntity
  8
0
100
AcDbLine
 62
7
  6
BYLAYER
 10
72.5341176543
 20
65.0287275407
 11
44.515601905
 21
81.2048591978
  0
LINE
  5
23C
100
AcDbEntity
  8
0
100
AcDbLine
 62
7
  6
BYLAYER
 10
72.21194692
 20
70.1918353421
 11
72.2119505323
 21
69.6909218508
  0
LINE
  5
23D
100
AcDbEntity
  8
0
100
AcDbLine
 62
7
  6
BYLAYER
 10
72.5341176543
 20
52.1704474757
 11
72.5341176543
 21
65.0287275407
  0
LINE
  5
23E
100
AcDbEntity
  8
0
100
AcDbLine
 62
7
  6
BYLAYER
 10
68.4031979202
 20
76.7888581244
 11
67.9694008248
 21
77.0393181552
  0
ARC
  5
23F
100
AcDbEntity
  8
0
100
AcDbCircle
 62
7
  6
BYLAYER
 10
24.5122833558
 20
440.6483187658
 40
399.6079952148
100
AcDbArc
 50
269.3159572144
 51
269.4571633467
  0
ARC
  5
240
100
AcDbEntity
  8
0
100
AcDbCircle
 62
7
  6
BYLAYER
 10
116.2754289178
 20
49.1953968772
 40
104.5197847893
100
AcDbArc
 50
181.3685611228
 51
181.6352253971
  0
ARC
  5
241
100
AcDbEntity
  8
0
100
AcDbCircle
 62
7
  6
BYLAYER
 10
93.0856549344
 20
48.5325362246
 40
81.3205390961
100
AcDbArc
 50
181.6346315554
 51
181.8292396656
  0
ARC
  5
242
100
AcDbEntity
  8
0
100
AcDbCircle
 62
7
  6
BYLAYER
 10
55.534124599
 20
65.3266663832
 40
11.1674882393
100
AcDbArc
 50
41.8286749494
 51
45.4868581587
  0
ARC
  5
243
100
AcDbEntity
  8
0
100
AcDbCircle
 62
7
  6
BYLAYER
 10
15.7790955549
 20
47.9611725253
 40
10.9668581998
100
AcDbArc
 50
269.8546880713
 51
270.1441809697
  0
ARC
  5
244
100
AcDbEntity
  8
0
100
AcDbCircle
 62
7
  6
BYLAYER
 10
15.466612324
 20
44.6441845459
 40
1.171283738
100
AcDbArc
 50
119.9989377273
 51
120.6601739851
  0
SPLINE
  5
245
100
AcDbEntity
  8
0
100
AcDbSpline
 62
7
  6
BYLAYER
 70
0
 71
3
 72
14
 73
10
 74
0
 42
0.0000001
 43
0.0000001
 44
0.0000000001
 40
0.0
 40
0.0
 40
0.0
 40
0.0
 40
0.2892619757
 40
0.4225611704
 40
0.5485063692
 40
0.6678893141
 40
0.7818694202
 40
0.8919545883
 40
1.0
 40
1.0
 40
1.0
 40
1.0
 10
73.1099687933
 20
70.7103054175
 30
0.0
 10
73.1099687933
 20
70.4372962162
 30
0.0
 10
73.0780801225
 20
70.036518155
 30
0.0
 10
72.95488398
 20
69.5327948571
 30
0.0
 10
72.8295506822
 20
69.1971220197
 30
0.0
 10
72.6697390883
 20
68.8968054087
 30
0.0
 10
72.4768218936
 20
68.6347274918
 30
0.0
 10
72.2524607774
 20
68.4139225568
 30
0.0
 10
72.0826584896
 20
68.2954536382
 30
0.0
 10
71.9943508844
 20
68.2444575787
 30
0.0
  0
SPLINE
  5
246
100
AcDbEntity
  8
0
100
AcDbSpline
 62
7
  6
BYLAYER
 70
0
 71
3
 72
9
 73
5
 74
0
 42
0.0000001
 43
0.0000001
 44
0.0000000001
 40
0.0
 40
0.0
 40
0.0
 40
0.0
 40
0.5234121571
 40
1.0
 40
1.0
 40
1.0
 40
1.0
 10
72.2119505323
 20
69.6909218508
 30
0.0
 10
72.2119505323
 20
69.4296419879
 30
0.0
 10
72.1776737852
 20
68.9295018043
 30
0.0
 10
72.0580367513
 20
68.4411991672
 30
0.0
 10
71.9765544603
 20
68.217682227
 30
0.0
  0
SPLINE
  5
247
100
AcDbEntity
  8
0
100
AcDbSpline
 62
7
  6
BYLAYER
 70
0
 71
3
 72
11
 73
7
 74
0
 42
0.0000001
 43
0.0000001
 44
0.0000000001
 40
0.0
 40
0.0
 40
0.0
 40
0.0
 40
0.2681564015
 40
0.5213642055
 40
0.763601463
 40
1.0
 40
1.0
 40
1.0
 40
1.0
 10
71.9765544603
 20
68.217682227
 30
0.0
 10
71.9258683968
 20
68.0786435021
 30
0.0
 10
71.8085895018
 20
67.8145201395
 30
0.0
 10
71.5771998326
 20
67.4599538192
 30
0.0
 10
71.2985357237
 20
67.1645197869
 30
0.0
 10
71.082248641
 20
67.0094624174
 30
0.0
 10
70.9692715234
 20
66.9442187183
 30
0.0
  0
SPLINE
  5
248
100
AcDbEntity
  8
0
100
AcDbSpline
 62
7
  6
BYLAYER
 70
0
 71
3
 72
12
 73
8
 74
0
 42
0.0000001
 43
0.0000001
 44
0.0000000001
 40
0.0
 40
0.0
 40
0.0
 40
0.0
 40
0.1081615361
 40
0.2183710432
 40
0.4513366253
 40
0.7104776032
 40
1.0
 40
1.0
 40
1.0
 40
1.0
 10
26.4011273336
 20
63.2658196333
 30
0.0
 10
26.4011356521
 20
63.2177353531
 30
0.0
 10
26.3927592594
 20
63.1204537896
 30
0.0
 10
26.3422006545
 20
62.9254591235
 30
0.0
 10
26.2125360908
 20
62.6862750905
 30
0.0
 10
25.970876451
 20
62.4325602386
 30
0.0
 10
25.7686672281
 20
62.2932428463
 30
0.0
 10
25.6572008924
 20
62.2288881115
 30
0.0
  0
SPLINE
  5
249
100
AcDbEntity
  8
0
100
AcDbSpline
 62
7
  6
BYLAYER
 70
0
 71
3
 72
20
 73
16
 74
0
 42
0.0000001
 43
0.0000001
 44
0.0000000001
 40
0.0
 40
0.0
 40
0.0
 40
0.0
 40
0.0623926386
 40
0.1288122238
 40
0.2703066646
 40
0.4173679468
 40
0.5616184706
 40
0.630254828
 40
0.6953818524
 40
0.7563646989
 40
0.8128341213
 40
0.8647666223
 40
0.9125678266
 40
0.9571682074
 40
1.0
 40
1.0
 40
1.0
 40
1.0
 10
43.2585761708
 20
52.06695925
 30
0.0
 10
43.167358981
 20
52.0142952953
 30
0.0
 10
42.9717411898
 20
51.917899774
 30
0.0
 10
42.5420944846
 20
51.7621657729
 30
0.0
 10
41.9507280334
 20
51.6439171332
 30
0.0
 10
41.2173321626
 20
51.6236704996
 30
0.0
 10
40.6120659878
 20
51.7085415779
 30
0.0
 10
40.1604599399
 20
51.8386779553
 30
0.0
 10
39.854896877
 20
51.9617564239
 30
0.0
 10
39.583457499
 20
52.1094067785
 30
0.0
 10
39.3517936084
 20
52.2786996149
 30
0.0
 10
39.1648025083
 20
52.4664238552
 30
0.0
 10
39.026904533
 20
52.6693454589
 30
0.0
 10
38.9418494396
 20
52.8833528061
 30
0.0
 10
38.9225448348
 20
53.0315841013
 30
0.0
 10
38.9225323258
 20
53.1038907611
 30
0.0
  0
SPLINE
  5
24A
100
AcDbEntity
  8
0
100
AcDbSpline
 62
7
  6
BYLAYER
 70
0
 71
3
 72
20
 73
16
 74
0
 42
0.0000001
 43
0.0000001
 44
0.0000000001
 40
0.0
 40
0.0
 40
0.0
 40
0.0
 40
0.0623926386
 40
0.1288122238
 40
0.2703066646
 40
0.4173679468
 40
0.5616184706
 40
0.630254828
 40
0.6953818524
 40
0.7563646989
 40
0.8128341213
 40
0.8647666223
 40
0.9125678266
 40
0.9571682074
 40
1.0
 40
1.0
 40
1.0
 40
1.0
 10
25.6572008924
 20
62.2288881115
 30
0.0
 10
25.5659837027
 20
62.1762241568
 30
0.0
 10
25.3703659115
 20
62.0798286355
 30
0.0
 10
24.9407192063
 20
61.9240946344
 30
0.0
 10
24.3493527551
 20
61.8058459948
 30
0.0
 10
23.6159568842
 20
61.7855993612
 30
0.0
 10
23.0106907095
 20
61.8704704394
 30
0.0
 10
22.5590846615
 20
62.0006068168
 30
0.0
 10
22.2535215987
 20
62.1236852854
 30
0.0
 10
21.9820822207
 20
62.27133564
 30
0.0
 10
21.7504183301
 20
62.4406284764
 30
0.0
 10
21.56342723
 20
62.6283527167
 30
0.0
 10
21.4255292546
 20
62.8312743204
 30
0.0
 10
21.3404741613
 20
63.0452816676
 30
0.0
 10
21.3211695565
 20
63.1935129628
 30
0.0
 10
21.3211570475
 20
63.2658196227
 30
0.0
  0
SPLINE
  5
24B
100
AcDbEntity
  8
0
100
AcDbSpline
 62
7
  6
BYLAYER
 70
0
 71
3
 72
12
 73
8
 74
0
 42
0.0000001
 43
0.0000001
 44
0.0000000001
 40
0.0
 40
0.0
 40
0.0
 40
0.0
 40
0.1081615361
 40
0.2183710432
 40
0.4513366253
 40
0.7104776032
 40
1.0
 40
1.0
 40
1.0
 40
1.0
 10
44.002502612
 20
53.1038907718
 30
0.0
 10
44.0025109305
 20
53.0558064916
 30
0.0
 10
43.9941345377
 20
52.958524928
 30
0.0
 10
43.9435759328
 20
52.763530262
 30
0.0
 10
43.8139113692
 20
52.524346229
 30
0.0
 10
43.5722517293
 20
52.2706313771
 30
0.0
 10
43.3700425065
 20
52.1313139848
 30
0.0
 10
43.2585761708
 20
52.06695925
 30
0.0
  0
SPLINE
  5
24C
100
AcDbEntity
  8
0
100
AcDbSpline
 62
7
  6
BYLAYER
 70
0
 71
3
 72
13
 73
9
 74
0
 42
0.0000001
 43
0.0000001
 44
0.0000000001
 40
0.0
 40
0.0
 40
0.0
 40
0.0
 40
0.2847116539
 40
0.5420224044
 40
0.6620135488
 40
0.7774077761
 40
0.8895476192
 40
1.0
 40
1.0
 40
1.0
 40
1.0
 10
17.0760210397
 20
36.5079597694
 30
0.0
 10
17.3565677087
 20
36.3717798804
 30
0.0
 10
17.9124251078
 20
36.1534403554
 30
0.0
 10
18.633318106
 20
36.0274446922
 30
0.0
 10
19.1743238717
 20
36.0360643028
 30
0.0
 10
19.5519290048
 20
36.0933710201
 30
0.0
 10
19.9073397176
 20
36.2014898846
 30
0.0
 10
20.1282550307
 20
36.3072697905
 30
0.0
 10
20.2330211967
 20
36.3677717945
 30
0.0
  0
SPLINE
  5
24D
100
AcDbEntity
  8
0
100
AcDbSpline
 62
7
  6
BYLAYER
 70
0
 71
3
 72
9
 73
5
 74
0
 42
0.0000001
 43
0.0000001
 44
0.0000000001
 40
0.0
 40
0.0
 40
0.0
 40
0.0
 40
0.4826194355
 40
1.0
 40
1.0
 40
1.0
 40
1.0
 10
20.2691653671
 20
38.068103465
 30
0.0
 10
20.0002575013
 20
37.9128503631
 30
0.0
 10
19.4178391058
 20
37.6339690095
 30
0.0
 10
18.8056081673
 20
37.4310174512
 30
0.0
 10
18.4843970533
 20
37.3436829034
 30
0.0
  0
SPLINE
  5
24E
100
AcDbEntity
  8
0
100
AcDbSpline
 62
7
  6
BYLAYER
 70
0
 71
3
 72
9
 73
5
 74
0
 42
0.0000001
 43
0.0000001
 44
0.0000000001
 40
0.0
 40
0.0
 40
0.0
 40
0.0
 40
0.491930974
 40
1.0
 40
1.0
 40
1.0
 40
1.0
 10
18.4843970533
 20
37.3436829034
 30
0.0
 10
18.0561975287
 20
37.2272591241
 30
0.0
 10
17.16778236
 20
37.0538257693
 30
0.0
 10
16.2649933764
 20
36.99550237
 30
0.0
 10
15.8066928857
 20
36.994349049
 30
0.0
  0
SPLINE
  5
24F
100
AcDbEntity
  8
0
100
AcDbSpline
 62
7
  6
BYLAYER
 70
0
 71
3
 72
14
 73
10
 74
0
 42
0.0000001
 43
0.0000001
 44
0.0000000001
 40
0.0
 40
0.0
 40
0.0
 40
0.0
 40
0.2781307287
 40
0.4133164354
 40
0.5439230411
 40
0.6687147303
 40
0.7867014725
 40
0.8972114902
 40
1.0
 40
1.0
 40
1.0
 40
1.0
 10
15.7512817505
 20
36.9943495959
 30
0.0
 10
15.2030034148
 20
36.9957400879
 30
0.0
 10
14.3863835126
 20
37.0582580825
 30
0.0
 10
13.3335793908
 20
37.2658355272
 30
0.0
 10
12.5922083185
 20
37.4774631057
 30
0.0
 10
11.9044922655
 20
37.7427911168
 30
0.0
 10
11.2817389347
 20
38.057545714
 30
0.0
 10
10.734518042
 20
38.4166230204
 30
0.0
 10
10.4144568736
 20
38.6918665953
 30
0.0
 10
10.2716117625
 20
38.8355785288
 30
0.0
  0
SPLINE
  5
250
100
AcDbEntity
  8
0
100
AcDbSpline
 62
7
  6
BYLAYER
 70
0
 71
3
 72
11
 73
7
 74
0
 42
0.0000001
 43
0.0000001
 44
0.0000000001
 40
0.0
 40
0.0
 40
0.0
 40
0.0
 40
0.2728885201
 40
0.5271440251
 40
0.7673682736
 40
1.0
 40
1.0
 40
1.0
 40
1.0
 10
10.2716117625
 20
38.8355785288
 30
0.0
 10
10.1395164061
 20
38.9684754752
 30
0.0
 10
9.9022798811
 20
39.2442753433
 30
0.0
 10
9.6319440174
 20
39.7000934546
 30
0.0
 10
9.4664512818
 20
40.1749065449
 30
0.0
 10
9.4290269937
 20
40.5006958445
 30
0.0
 10
9.429026346
 20
40.6604322568
 30
0.0
  0
SPLINE
  5
251
100
AcDbEntity
  8
0
100
AcDbSpline
 62
7
  6
BYLAYER
 70
0
 71
3
 72
9
 73
5
 74
0
 42
0.0000001
 43
0.0000001
 44
0.0000000001
 40
0.0
 40
0.0
 40
0.0
 40
0.0
 40
0.244713814
 40
1.0
 40
1.0
 40
1.0
 40
1.0
 10
20.7263392008
 20
38.3621672643
 30
0.0
 10
20.6903046164
 20
38.3363115943
 30
0.0
 10
20.5416648337
 20
38.2325966735
 30
0.0
 10
20.3877114702
 20
38.136545681
 30
0.0
 10
20.2691653671
 20
38.068103465
 30
0.0
  0
SPLINE
  5
252
100
AcDbEntity
  8
0
100
AcDbSpline
 62
7
  6
BYLAYER
 70
0
 71
3
 72
11
 73
7
 74
0
 42
0.0000001
 43
0.0000001
 44
0.0000000001
 40
0.0
 40
0.0
 40
0.0
 40
0.0
 40
0.2309740863
 40
0.4703145931
 40
0.725144808
 40
1.0
 40
1.0
 40
1.0
 40
1.0
 10
13.1210597746
 20
48.6861238502
 30
0.0
 10
12.9571063079
 20
48.5914414383
 30
0.0
 10
12.6455189854
 20
48.3571967587
 30
0.0
 10
12.2628300799
 20
47.8962823677
 30
0.0
 10
11.967647606
 20
47.3348774139
 30
0.0
 10
11.8369360795
 20
46.918424031
 30
0.0
 10
11.7854588664
 20
46.6990853882
 30
0.0
  0
SPLINE
  5
253
100
AcDbEntity
  8
0
100
AcDbSpline
 62
7
  6
BYLAYER
 70
0
 71
3
 72
15
 73
11
 74
0
 42
0.0000001
 43
0.0000001
 44
0.0000000001
 40
0.0
 40
0.0
 40
0.0
 40
0.0
 40
0.0989661911
 40
0.2016619481
 40
0.3111668617
 40
0.4295596942
 40
0.5578699393
 40
0.6962139603
 40
0.8439822232
 40
1.0
 40
1.0
 40
1.0
 40
1.0
 10
57.7681551934
 20
75.0495680998
 30
0.0
 10
57.9471803326
 20
75.1529221464
 30
0.0
 10
58.3396417921
 20
75.3189003843
 30
0.0
 10
58.9861788056
 20
75.4250419331
 30
0.0
 10
59.6803993414
 20
75.3911228839
 30
0.0
 10
60.4080653804
 20
75.2201594569
 30
0.0
 10
61.1559947612
 20
74.9171674946
 30
0.0
 10
61.9106301343
 20
74.4886971823
 30
0.0
 10
62.6579747827
 20
73.9432742787
 30
0.0
 10
63.1309152136
 20
73.5185079934
 30
0.0
 10
63.3633473278
 20
73.290086819
 30
0.0
  0
SPLINE
  5
254
100
AcDbEntity
  8
0
100
AcDbSpline
 62
7
  6
BYLAYER
 70
0
 71
3
 72
11
 73
7
 74
0
 42
0.0000001
 43
0.0000001
 44
0.0000000001
 40
0.0
 40
0.0
 40
0.0
 40
0.0
 40
0.2467291376
 40
0.4984863656
 40
0.7510042258
 40
1.0
 40
1.0
 40
1.0
 40
1.0
 10
63.8554927535
 20
72.7743254524
 30
0.0
 10
64.120428475
 20
72.4786754762
 30
0.0
 10
64.6257267053
 20
71.8538737671
 30
0.0
 10
65.2948081579
 20
70.8456625881
 30
0.0
 10
65.8702916706
 20
69.7771157464
 30
0.0
 10
66.1858555752
 20
69.032871287
 30
0.0
 10
66.3238729222
 20
68.6567595808
 30
0.0
  0
SPLINE
  5
255
100
AcDbEntity
  8
0
100
AcDbSpline
 62
7
  6
BYLAYER
 70
0
 71
3
 72
9
 73
5
 74
0
 42
0.0000001
 43
0.0000001
 44
0.0000000001
 40
0.0
 40
0.0
 40
0.0
 40
0.0
 40
0.5181354848
 40
1.0
 40
1.0
 40
1.0
 40
1.0
 10
11.2888718577
 20
45.9488520288
 30
0.0
 10
11.0977259395
 20
45.8384945402
 30
0.0
 10
10.7401531578
 20
45.6049229055
 30
0.0
 10
10.4156480997
 20
45.3263864687
 30
0.0
 10
10.2709729858
 20
45.1807742444
 30
0.0
  0
SPLINE
  5
256
100
AcDbEntity
  8
0
100
AcDbSpline
 62
7
  6
BYLAYER
 70
0
 71
3
 72
11
 73
7
 74
0
 42
0.0000001
 43
0.0000001
 44
0.0000000001
 40
0.0
 40
0.0
 40
0.0
 40
0.0
 40
0.2728551093
 40
0.5271133108
 40
0.7673554383
 40
1.0
 40
1.0
 40
1.0
 40
1.0
 10
10.2709729858
 20
45.1807742444
 30
0.0
 10
10.1389765435
 20
45.0479228157
 30
0.0
 10
9.9019341494
 20
44.772185167
 30
0.0
 10
9.6318096053
 20
44.3165190509
 30
0.0
 10
9.4664042266
 20
43.8418767892
 30
0.0
 10
9.4290219231
 20
43.5162010502
 30
0.0
 10
9.4290253072
 20
43.3565232408
 30
0.0
  0
SPLINE
  5
257
100
AcDbEntity
  8
0
100
AcDbSpline
 62
7
  6
BYLAYER
 70
0
 71
3
 72
9
 73
5
 74
0
 42
0.0000001
 43
0.0000001
 44
0.0000000001
 40
0.0
 40
0.0
 40
0.0
 40
0.0
 40
0.2547667094
 40
1.0
 40
1.0
 40
1.0
 40
1.0
 10
11.7982087734
 20
46.21280014
 30
0.0
 10
11.7540185334
 20
46.1922713283
 30
0.0
 10
11.5814167829
 20
46.1098775226
 30
0.0
 10
11.4123074374
 20
46.0201171686
 30
0.0
 10
11.2888718577
 20
45.9488520288
 30
0.0
  0
SPLINE
  5
258
100
AcDbEntity
  8
0
100
AcDbSpline
 62
7
  6
BYLAYER
 70
0
 71
3
 72
11
 73
7
 74
0
 42
0.0000001
 43
0.0000001
 44
0.0000000001
 40
0.0
 40
0.0
 40
0.0
 40
0.0
 40
0.2366699343
 40
0.4790443474
 40
0.7321712843
 40
1.0
 40
1.0
 40
1.0
 40
1.0
 10
64.9693128394
 20
77.3365140376
 30
0.0
 10
65.08091793
 20
77.4009653982
 30
0.0
 10
65.3201879557
 20
77.509585347
 30
0.0
 10
65.7099064598
 20
77.6034235523
 30
0.0
 10
66.1267549192
 20
77.6283262909
 30
0.0
 10
66.4102622799
 20
77.6001054901
 30
0.0
 10
66.5540766191
 20
77.5758464801
 30
0.0
  0
SPLINE
  5
259
100
AcDbEntity
  8
0
100
AcDbSpline
 62
7
  6
BYLAYER
 70
0
 71
3
 72
9
 73
5
 74
0
 42
0.0000001
 43
0.0000001
 44
0.0000000001
 40
0.0
 40
0.0
 40
0.0
 40
0.0
 40
0.4760821168
 40
1.0
 40
1.0
 40
1.0
 40
1.0
 10
66.5540766191
 20
77.5758464801
 30
0.0
 10
66.7918619099
 20
77.5357361838
 30
0.0
 10
67.2824230133
 20
77.3952172652
 30
0.0
 10
67.739581633
 20
77.1719833494
 30
0.0
 10
67.9694008243
 20
77.0392933962
 30
0.0
  0
SPLINE
  5
25A
100
AcDbEntity
  8
0
100
AcDbSpline
 62
7
  6
BYLAYER
 70
0
 71
3
 72
11
 73
7
 74
0
 42
0.0000001
 43
0.0000001
 44
0.0000000001
 40
0.0
 40
0.0
 40
0.0
 40
0.0
 40
0.2889490186
 40
0.5481085436
 40
0.7815230068
 40
1.0
 40
1.0
 40
1.0
 40
1.0
 10
14.8693219028
 20
45.6517309458
 30
0.0
 10
14.8152289551
 20
45.6196625648
 30
0.0
 10
14.7171211413
 20
45.550451315
 30
0.0
 10
14.6001134618
 20
45.4249647604
 30
0.0
 10
14.526225484
 20
45.2866330004
 30
0.0
 10
14.5090604309
 20
45.187638424
 30
0.0
 10
14.5090413297
 20
45.1400910769
 30
0.0
  0
SPLINE
  5
25B
100
AcDbEntity
  8
0
100
AcDbSpline
 62
7
  6
BYLAYER
 70
0
 71
3
 72
8
 73
4
 74
0
 42
0.0000001
 43
0.0000001
 44
0.0000000001
 40
0.0
 40
0.0
 40
0.0
 40
0.0
 40
1.0
 40
1.0
 40
1.0
 40
1.0
 10
21.568622105
 20
41.0509012379
 30
0.0
 10
21.2878593951
 20
41.0531453192
 30
0.0
 10
21.0070980889
 20
41.0555783378
 30
0.0
 10
20.7263392008
 20
41.0582582457
 30
0.0
  0
SPLINE
  5
25C
100
AcDbEntity
  8
0
100
AcDbSpline
 62
7
  6
BYLAYER
 70
0
 71
3
 72
23
 73
19
 74
0
 42
0.0000001
 43
0.0000001
 44
0.0000000001
 40
0.0
 40
0.0
 40
0.0
 40
0.0
 40
0.0428138705
 40
0.087395699
 40
0.1351790996
 40
0.1870890733
 40
0.243534662
 40
0.3044909944
 40
0.3695889303
 40
0.4381959606
 40
0.5094928492
 40
0.5825289278
 40
0.6562702827
 40
0.7296595489
 40
0.8016497143
 40
0.871246981
 40
0.9376205557
 40
1.0
 40
1.0
 40
1.0
 40
1.0
 10
66.6078936332
 20
77.5741309049
 30
0.0
 10
66.7406824559
 20
77.6508140704
 30
0.0
 10
67.0334348571
 20
77.7724305014
 30
0.0
 10
67.5166379068
 20
77.8433022149
 30
0.0
 10
68.035547576
 20
77.805097515
 30
0.0
 10
68.5786007135
 20
77.6607850006
 30
0.0
 10
69.1351603626
 20
77.4148278484
 30
0.0
 10
69.6941438257
 20
77.0728687221
 30
0.0
 10
70.2441678003
 20
76.6422363591
 30
0.0
 10
70.773850703
 20
76.132109404
 30
0.0
 10
71.2720510471
 20
75.5532947431
 30
0.0
 10
71.7281507578
 20
74.9180642224
 30
0.0
 10
72.1324715195
 20
74.2399783003
 30
0.0
 10
72.4763916878
 20
73.5334932897
 30
0.0
 10
72.7525514509
 20
72.8137009542
 30
0.0
 10
72.9551421595
 20
72.0957683807
 30
0.0
 10
73.079636768
 20
71.3951585183
 30
0.0
 10
73.1099687933
 20
70.9337206032
 30
0.0
 10
73.1099687933
 20
70.7103054175
 30
0.0
  0
SPLINE
  5
25D
100
AcDbEntity
  8
0
100
AcDbSpline
 62
7
  6
BYLAYER
 70
0
 71
3
 72
11
 73
7
 74
0
 42
0.0000001
 43
0.0000001
 44
0.0000000001
 40
0.0
 40
0.0
 40
0.0
 40
0.0
 40
0.2309740863
 40
0.4703145931
 40
0.725144808
 40
1.0
 40
1.0
 40
1.0
 40
1.0
 10
20.2330211967
 20
36.3677717945
 30
0.0
 10
20.3969746634
 20
36.4624542064
 30
0.0
 10
20.7085619859
 20
36.696698886
 30
0.0
 10
21.0912508914
 20
37.157613277
 30
0.0
 10
21.3864333654
 20
37.7190182308
 30
0.0
 10
21.5171448918
 20
38.1354716137
 30
0.0
 10
21.568622105
 20
38.3548102565
 30
0.0
  0
SPLINE
  5
25E
100
AcDbEntity
  8
0
100
AcDbSpline
 62
7
  6
BYLAYER
 70
0
 71
3
 72
9
 73
5
 74
0
 42
0.0000001
 43
0.0000001
 44
0.0000000001
 40
0.0
 40
0.0
 40
0.0
 40
0.0
 40
0.2403997389
 40
1.0
 40
1.0
 40
1.0
 40
1.0
 10
26.1961142172
 20
42.2158899533
 30
0.0
 10
26.1961142172
 20
42.3308892094
 30
0.0
 10
26.1837996049
 20
42.8092295345
 30
0.0
 10
26.1247129417
 20
43.2859248395
 30
0.0
 10
26.0587314713
 20
43.6432516149
 30
0.0
  0
SPLINE
  5
25F
100
AcDbEntity
  8
0
100
AcDbSpline
 62
7
  6
BYLAYER
 70
0
 71
3
 72
9
 73
5
 74
0
 42
0.0000001
 43
0.0000001
 44
0.0000000001
 40
0.0
 40
0.0
 40
0.0
 40
0.0
 40
0.2381403976
 40
1.0
 40
1.0
 40
1.0
 40
1.0
 10
26.0587314713
 20
40.9471606336
 30
0.0
 10
26.0819067027
 20
41.0459077006
 30
0.0
 10
26.1653983573
 20
41.4637877354
 30
0.0
 10
26.1961142172
 20
41.8913942702
 30
0.0
 10
26.1961142172
 20
42.2158899533
 30
0.0
  0
SPLINE
  5
260
100
AcDbEntity
  8
0
100
AcDbSpline
 62
7
  6
BYLAYER
 70
0
 71
3
 72
9
 73
5
 74
0
 42
0.0000001
 43
0.0000001
 44
0.0000000001
 40
0.0
 40
0.0
 40
0.0
 40
0.0
 40
0.2553302955
 40
1.0
 40
1.0
 40
1.0
 40
1.0
 10
20.2691653671
 20
40.7641944464
 30
0.0
 10
20.3092405283
 20
40.7873317134
 30
0.0
 10
20.4651356455
 20
40.8797636761
 30
0.0
 10
20.6166858502
 20
40.9795793625
 30
0.0
 10
20.7263392008
 20
41.0582582457
 30
0.0
  0
SPLINE
  5
261
100
AcDbEntity
  8
0
100
AcDbSpline
 62
7
  6
BYLAYER
 70
0
 71
3
 72
21
 73
17
 74
0
 42
0.0000001
 43
0.0000001
 44
0.0000000001
 40
0.0
 40
0.0
 40
0.0
 40
0.0
 40
0.068343672
 40
0.1392914727
 40
0.2856465089
 40
0.432544147
 40
0.5041199747
 40
0.5733522414
 40
0.6395551157
 40
0.7021711729
 40
0.7608147099
 40
0.8153288633
 40
0.8658409346
 40
0.9128227813
 40
0.9571351206
 40
1.0
 40
1.0
 40
1.0
 40
1.0
 10
21.568622105
 20
41.0509012379
 30
0.0
 10
21.5158775933
 20
41.3365424363
 30
0.0
 10
21.380506366
 20
41.9138596404
 30
0.0
 10
21.003094633
 20
43.0689373196
 30
0.0
 10
20.3454375404
 20
44.4775210129
 30
0.0
 10
19.4832217447
 20
45.7740261248
 30
0.0
 10
18.6892570002
 20
46.7055421203
 30
0.0
 10
18.0636755133
 20
47.3258172657
 30
0.0
 10
17.4139202676
 20
47.8629012567
 30
0.0
 10
16.750992628
 20
48.3075372161
 30
0.0
 10
16.0860232892
 20
48.6519566541
 30
0.0
 10
15.4300167233
 20
48.8900566084
 30
0.0
 10
14.7936784335
 20
49.01713988
 30
0.0
 10
14.1874369481
 20
49.0295689146
 30
0.0
 10
13.6225969573
 20
48.9254435194
 30
0.0
 10
13.2788238153
 20
48.7772318956
 30
0.0
 10
13.1210597746
 20
48.6861238502
 30
0.0
  0
SPLINE
  5
262
100
AcDbEntity
  8
0
100
AcDbSpline
 62
7
  6
BYLAYER
 70
0
 71
3
 72
23
 73
19
 74
0
 42
0.0000001
 43
0.0000001
 44
0.0000000001
 40
0.0
 40
0.0
 40
0.0
 40
0.0
 40
0.072805246
 40
0.1482327406
 40
0.2251413555
 40
0.3024118347
 40
0.3788603527
 40
0.4533539833
 40
0.5248542465
 40
0.5924765695
 40
0.6555608655
 40
0.7137561956
 40
0.7671225251
 40
0.8162367841
 40
0.8622683187
 40
0.906931188
 40
0.9522124902
 40
1.0
 40
1.0
 40
1.0
 40
1.0
 10
19.7415572234
 20
41.068802259
 30
0.0
 10
19.6814142367
 20
41.3392444171
 30
0.0
 10
19.5299832851
 20
41.8837375936
 30
0.0
 10
19.2237232447
 20
42.6850548002
 30
0.0
 10
18.8399236363
 20
43.4712479648
 30
0.0
 10
18.3874633318
 20
44.2245197599
 30
0.0
 10
17.8763323656
 20
44.928008179
 30
0.0
 10
17.3180575889
 20
45.565911363
 30
0.0
 10
16.7251041427
 20
46.1239794337
 30
0.0
 10
16.1105780728
 20
46.5897630499
 30
0.0
 10
15.4878458332
 20
46.9528417099
 30
0.0
 10
14.8701461056
 20
47.2049173345
 30
0.0
 10
14.2703023351
 20
47.3396395669
 30
0.0
 10
13.7008935478
 20
47.3521368794
 30
0.0
 10
13.1754002258
 20
47.2390541669
 30
0.0
 10
12.7092592236
 20
47.0005780065
 30
0.0
 10
12.3174169936
 20
46.6440669675
 30
0.0
 10
12.1194205453
 20
46.3460563816
 30
0.0
 10
12.0347650213
 20
46.1851150857
 30
0.0
  0
SPLINE
  5
263
100
AcDbEntity
  8
0
100
AcDbSpline
 62
7
  6
BYLAYER
 70
0
 71
3
 72
17
 73
13
 74
0
 42
0.0000001
 43
0.0000001
 44
0.0000000001
 40
0.0
 40
0.0
 40
0.0
 40
0.0
 40
0.1270711154
 40
0.2667028373
 40
0.4121591981
 40
0.5557134037
 40
0.6899536524
 40
0.809158912
 40
0.8623733688
 40
0.9114168963
 40
0.9569170425
 40
1.0
 40
1.0
 40
1.0
 40
1.0
 10
16.6770479633
 20
44.600886198
 30
0.0
 10
16.5862710487
 20
44.5484764347
 30
0.0
 10
16.3813578567
 20
44.4628921822
 30
0.0
 10
16.0471041979
 20
44.3928176463
 30
0.0
 10
15.6922387248
 20
44.3781788901
 30
0.0
 10
15.3439870145
 20
44.4202618093
 30
0.0
 10
15.0289373864
 20
44.515759535
 30
0.0
 10
14.8047511204
 20
44.6390942525
 30
0.0
 10
14.666999992
 20
44.760119931
 30
0.0
 10
14.5896441332
 20
44.855203185
 30
0.0
 10
14.5363410448
 20
44.9563491494
 30
0.0
 10
14.5174794292
 20
45.02779026
 30
0.0
 10
14.5127803249
 20
45.0630170251
 30
0.0
  0
SPLINE
  5
264
100
AcDbEntity
  8
0
100
AcDbSpline
 62
7
  6
BYLAYER
 70
0
 71
3
 72
12
 73
8
 74
0
 42
0.0000001
 43
0.0000001
 44
0.0000000001
 40
0.0
 40
0.0
 40
0.0
 40
0.0
 40
0.1081615361
 40
0.2183710432
 40
0.4513366253
 40
0.7104776032
 40
1.0
 40
1.0
 40
1.0
 40
1.0
 10
38.9225323258
 20
53.1038907611
 30
0.0
 10
38.9225240073
 20
53.1519750413
 30
0.0
 10
38.9309004001
 20
53.2492566049
 30
0.0
 10
38.981459005
 20
53.4442512709
 30
0.0
 10
39.1111235686
 20
53.683435304
 30
0.0
 10
39.3527832085
 20
53.9371501559
 30
0.0
 10
39.5549924313
 20
54.0764675482
 30
0.0
 10
39.666458767
 20
54.140822283
 30
0.0
  0
SPLINE
  5
265
100
AcDbEntity
  8
0
100
AcDbSpline
 62
7
  6
BYLAYER
 70
0
 71
3
 72
17
 73
13
 74
0
 42
0.0000001
 43
0.0000001
 44
0.0000000001
 40
0.0
 40
0.0
 40
0.0
 40
0.0
 40
0.0428571351
 40
0.0874839364
 40
0.1353160071
 40
0.1872791416
 40
0.3045400115
 40
0.4382081091
 40
0.5825513186
 40
0.7297108723
 40
0.8713103985
 40
1.0
 40
1.0
 40
1.0
 40
1.0
 10
14.5090413297
 20
45.1400910769
 30
0.0
 10
14.5090268067
 20
45.1039397174
 30
0.0
 10
14.5187066411
 20
45.0298291982
 30
0.0
 10
14.5611969252
 20
44.9228193371
 30
0.0
 10
14.6301776003
 20
44.82137517
 30
0.0
 10
14.7599996642
 20
44.6910604024
 30
0.0
 10
14.9812392916
 20
44.5563895907
 30
0.0
 10
15.2993381141
 20
44.4501308016
 30
0.0
 10
15.6563223056
 20
44.3999633312
 30
0.0
 10
16.0232539981
 20
44.410114052
 30
0.0
 10
16.3701748195
 20
44.4795233426
 30
0.0
 10
16.5830374837
 20
44.5673487076
 30
0.0
 10
16.6770479633
 20
44.6216253593
 30
0.0
  0
SPLINE
  5
266
100
AcDbEntity
  8
0
100
AcDbSpline
 62
7
  6
BYLAYER
 70
0
 71
3
 72
8
 73
4
 74
0
 42
0.0000001
 43
0.0000001
 44
0.0000000001
 40
0.0
 40
0.0
 40
0.0
 40
0.0
 40
1.0
 40
1.0
 40
1.0
 40
1.0
 10
20.7263392008
 20
38.3621672643
 30
0.0
 10
21.0070980889
 20
38.3594873564
 30
0.0
 10
21.2878593951
 20
38.3570543378
 30
0.0
 10
21.568622105
 20
38.3548102565
 30
0.0
  0
SPLINE
  5
267
100
AcDbEntity
  8
0
100
AcDbSpline
 62
7
  6
BYLAYER
 70
0
 71
3
 72
12
 73
8
 74
0
 42
0.0000001
 43
0.0000001
 44
0.0000000001
 40
0.0
 40
0.0
 40
0.0
 40
0.0
 40
0.1081615361
 40
0.2183710432
 40
0.4513366253
 40
0.7104776032
 40
1.0
 40
1.0
 40
1.0
 40
1.0
 10
21.3211570475
 20
63.2658196227
 30
0.0
 10
21.3211487289
 20
63.3139039029
 30
0.0
 10
21.3295251217
 20
63.4111854664
 30
0.0
 10
21.3800837266
 20
63.6061801325
 30
0.0
 10
21.5097482903
 20
63.8453641655
 30
0.0
 10
21.7514079301
 20
64.0990790174
 30
0.0
 10
21.953617153
 20
64.2383964097
 30
0.0
 10
22.0650834887
 20
64.3027511445
 30
0.0
  0
SPLINE
  5
268
100
AcDbEntity
  8
0
100
AcDbSpline
 62
7
  6
BYLAYER
 70
0
 71
3
 72
15
 73
11
 74
0
 42
0.0000001
 43
0.0000001
 44
0.0000000001
 40
0.0
 40
0.0
 40
0.0
 40
0.0
 40
0.1141546166
 40
0.2373258468
 40
0.3669753755
 40
0.4999989421
 40
0.6330242101
 40
0.7626710987
 40
0.8858488721
 40
1.0
 40
1.0
 40
1.0
 40
1.0
 10
67.9694008243
 20
77.0392933962
 30
0.0
 10
68.259836121
 20
76.8716057209
 30
0.0
 10
68.8334983052
 20
76.4694654931
 30
0.0
 10
69.6228310093
 20
75.7309790066
 30
0.0
 10
70.3502411307
 20
74.8580332632
 30
0.0
 10
70.9883453707
 20
73.8833775149
 30
0.0
 10
71.5133547302
 20
72.8434377053
 30
0.0
 10
71.9056636473
 20
71.776998315
 30
0.0
 10
72.1505136134
 20
70.7241638798
 30
0.0
 10
72.2119505323
 20
70.0262797845
 30
0.0
 10
72.2119505323
 20
69.6909218508
 30
0.0
  0
SPLINE
  5
269
100
AcDbEntity
  8
0
100
AcDbSpline
 62
7
  6
BYLAYER
 70
0
 71
3
 72
11
 73
7
 74
0
 42
0.0000001
 43
0.0000001
 44
0.0000000001
 40
0.0
 40
0.0
 40
0.0
 40
0.0
 40
0.2604985656
 40
0.50613279
 40
0.748498972
 40
1.0
 40
1.0
 40
1.0
 40
1.0
 10
17.4582827324
 20
36.68090307
 30
0.0
 10
17.6541512073
 20
36.668441075
 30
0.0
 10
18.0395006057
 20
36.6852246439
 30
0.0
 10
18.5838517744
 20
36.8577376468
 30
0.0
 10
19.0520617985
 20
37.173203067
 30
0.0
 10
19.2947310069
 20
37.4618231558
 30
0.0
 10
19.3987507858
 20
37.6202045925
 30
0.0
  0
SPLINE
  5
26A
100
AcDbEntity
  8
0
100
AcDbSpline
 62
7
  6
BYLAYER
 70
0
 71
3
 72
23
 73
19
 74
0
 42
0.0000001
 43
0.0000001
 44
0.0000000001
 40
0.0
 40
0.0
 40
0.0
 40
0.0
 40
0.0428138211
 40
0.0873956054
 40
0.1351779077
 40
0.1870866117
 40
0.2435334113
 40
0.3044905436
 40
0.3695875365
 40
0.4381950814
 40
0.5094930867
 40
0.5825291482
 40
0.6562714889
 40
0.729660141
 40
0.8016506953
 40
0.8712489929
 40
0.937616152
 40
1.0
 40
1.0
 40
1.0
 40
1.0
 10
9.4290253072
 20
43.3565232408
 30
0.0
 10
9.4290291383
 20
43.1757548534
 30
0.0
 10
9.4773735765
 20
42.8051832175
 30
0.0
 10
9.6899138667
 20
42.2701185542
 30
0.0
 10
10.0347614368
 20
41.762874216
 30
0.0
 10
10.5021624409
 20
41.2934887465
 30
0.0
 10
11.0813582278
 20
40.8702889443
 30
0.0
 10
11.7599824552
 20
40.5012013144
 30
0.0
 10
12.5238239734
 20
40.1934667431
 30
0.0
 10
13.3568478398
 20
39.9533748725
 30
0.0
 10
14.2414524679
 20
39.785962139
 30
0.0
 10
15.1588309709
 20
39.6947434882
 30
0.0
 10
16.0894351048
 20
39.6816332144
 30
0.0
 10
17.0134342109
 20
39.7469334216
 30
0.0
 10
17.9110719575
 20
39.8892993998
 30
0.0
 10
18.763428748
 20
40.1056281635
 30
0.0
 10
19.5520956464
 20
40.3914612136
 30
0.0
 10
20.0410566227
 20
40.6324965876
 30
0.0
 10
20.2691653671
 20
40.7641944464
 30
0.0
  0
SPLINE
  5
26B
100
AcDbEntity
  8
0
100
AcDbSpline
 62
7
  6
BYLAYER
 70
0
 71
3
 72
13
 73
9
 74
0
 42
0.0000001
 43
0.0000001
 44
0.0000000001
 40
0.0
 40
0.0
 40
0.0
 40
0.0
 40
0.1112979882
 40
0.2241729475
 40
0.3400761968
 40
0.4602689771
 40
0.7170750315
 40
1.0
 40
1.0
 40
1.0
 40
1.0
 10
22.1289930747
 20
40.660432259
 30
0.0
 10
22.1289958407
 20
40.5567797183
 30
0.0
 10
22.1135864524
 20
40.3476845952
 30
0.0
 10
22.0444062184
 20
40.0375703372
 30
0.0
 10
21.9300287589
 20
39.732281404
 30
0.0
 10
21.7138225751
 20
39.3260566722
 30
0.0
 10
21.3272564871
 20
38.8412916226
 30
0.0
 10
20.9404213643
 20
38.5157763008
 30
0.0
 10
20.7263392008
 20
38.3621672643
 30
0.0
  0
SPLINE
  5
26C
100
AcDbEntity
  8
0
100
AcDbSpline
 62
7
  6
BYLAYER
 70
0
 71
3
 72
15
 73
11
 74
0
 42
0.0000001
 43
0.0000001
 44
0.0000000001
 40
0.0
 40
0.0
 40
0.0
 40
0.0
 40
0.1141511279
 40
0.2373289013
 40
0.3669757899
 40
0.5000010579
 40
0.6330246245
 40
0.7626741532
 40
0.8858453834
 40
1.0
 40
1.0
 40
1.0
 40
1.0
 10
72.21194692
 20
70.1918353421
 30
0.0
 10
72.21194692
 20
70.4929029271
 30
0.0
 10
72.1567919261
 20
71.1194283736
 30
0.0
 10
71.9369778691
 20
72.0646104878
 30
0.0
 10
71.5847825387
 20
73.0220064505
 30
0.0
 10
71.1134553862
 20
73.9556124146
 30
0.0
 10
70.5405973048
 20
74.8306096125
 30
0.0
 10
69.8875648683
 20
75.6142966538
 30
0.0
 10
69.1789414332
 20
76.277272897
 30
0.0
 10
68.6639362073
 20
76.6382942865
 30
0.0
 10
68.4031979197
 20
76.788835897
 30
0.0
  0
SPLINE
  5
26D
100
AcDbEntity
  8
0
100
AcDbSpline
 62
7
  6
BYLAYER
 70
0
 71
3
 72
20
 73
16
 74
0
 42
0.0000001
 43
0.0000001
 44
0.0000000001
 40
0.0
 40
0.0
 40
0.0
 40
0.0
 40
0.0623926386
 40
0.1288122238
 40
0.2703066646
 40
0.4173679468
 40
0.5616184706
 40
0.630254828
 40
0.6953818524
 40
0.7563646989
 40
0.8128341213
 40
0.8647666223
 40
0.9125678266
 40
0.9571682074
 40
1.0
 40
1.0
 40
1.0
 40
1.0
 10
39.666458767
 20
54.140822283
 30
0.0
 10
39.7576759568
 20
54.1934862377
 30
0.0
 10
39.953293748
 20
54.289881759
 30
0.0
 10
40.3829404532
 20
54.4456157601
 30
0.0
 10
40.9743069044
 20
54.5638643997
 30
0.0
 10
41.7077027752
 20
54.5841110333
 30
0.0
 10
42.31296895
 20
54.499239955
 30
0.0
 10
42.7645749979
 20
54.3691035777
 30
0.0
 10
43.0701380608
 20
54.246025109
 30
0.0
 10
43.3415774388
 20
54.0983747545
 30
0.0
 10
43.5732413294
 20
53.9290819181
 30
0.0
 10
43.7602324295
 20
53.7413576778
 30
0.0
 10
43.8981304048
 20
53.5384360741
 30
0.0
 10
43.9831854982
 20
53.3244287269
 30
0.0
 10
44.002490103
 20
53.1761974317
 30
0.0
 10
44.002502612
 20
53.1038907718
 30
0.0
  0
SPLINE
  5
26E
100
AcDbEntity
  8
0
100
AcDbSpline
 62
7
  6
BYLAYER
 70
0
 71
3
 72
20
 73
16
 74
0
 42
0.0000001
 43
0.0000001
 44
0.0000000001
 40
0.0
 40
0.0
 40
0.0
 40
0.0
 40
0.0623926386
 40
0.1288122238
 40
0.2703066646
 40
0.4173679468
 40
0.5616184706
 40
0.630254828
 40
0.6953818524
 40
0.7563646989
 40
0.8128341213
 40
0.8647666223
 40
0.9125678266
 40
0.9571682074
 40
1.0
 40
1.0
 40
1.0
 40
1.0
 10
22.0650834887
 20
64.3027511445
 30
0.0
 10
22.1563006784
 20
64.3554150992
 30
0.0
 10
22.3519184696
 20
64.4518106205
 30
0.0
 10
22.7815651748
 20
64.6075446216
 30
0.0
 10
23.372931626
 20
64.7257932612
 30
0.0
 10
24.1063274969
 20
64.7460398948
 30
0.0
 10
24.7115936716
 20
64.6611688166
 30
0.0
 10
25.1631997195
 20
64.5310324392
 30
0.0
 10
25.4687627824
 20
64.4079539706
 30
0.0
 10
25.7402021604
 20
64.260303616
 30
0.0
 10
25.971866051
 20
64.0910107796
 30
0.0
 10
26.1588571511
 20
63.9032865393
 30
0.0
 10
26.2967551265
 20
63.7003649356
 30
0.0
 10
26.3818102198
 20
63.4863575884
 30
0.0
 10
26.4011148246
 20
63.3381262932
 30
0.0
 10
26.4011273336
 20
63.2658196333
 30
0.0
  0
SPLINE
  5
26F
100
AcDbEntity
  8
0
100
AcDbSpline
 62
7
  6
BYLAYER
 70
0
 71
3
 72
14
 73
10
 74
0
 42
0.0000001
 43
0.0000001
 44
0.0000000001
 40
0.0
 40
0.0
 40
0.0
 40
0.0
 40
0.2892721456
 40
0.4225555913
 40
0.5485004525
 40
0.6678904711
 40
0.7818713555
 40
0.8919542165
 40
1.0
 40
1.0
 40
1.0
 40
1.0
 10
32.1230585807
 20
45.637792451
 30
0.0
 10
32.1230585807
 20
45.2773148254
 30
0.0
 10
32.0809741603
 20
44.74815483
 30
0.0
 10
31.9182884077
 20
44.0830828272
 30
0.0
 10
31.7528139806
 20
43.6398893736
 30
0.0
 10
31.5418070386
 20
43.2433624321
 30
0.0
 10
31.2871171185
 20
42.897296529
 30
0.0
 10
30.9908369557
 20
42.6058146127
 30
0.0
 10
30.7666793714
 20
42.4493432147
 30
0.0
 10
30.6500745666
 20
42.3820253023
 30
0.0
  0
SPLINE
  5
270
100
AcDbEntity
  8
0
100
AcDbSpline
 62
7
  6
BYLAYER
 70
0
 71
3
 72
23
 73
19
 74
0
 42
0.0000001
 43
0.0000001
 44
0.0000000001
 40
0.0
 40
0.0
 40
0.0
 40
0.0
 40
0.0428149051
 40
0.0873975444
 40
0.1351804121
 40
0.1870894631
 40
0.2435363863
 40
0.3044934321
 40
0.3695901733
 40
0.4381973301
 40
0.5094948562
 40
0.582530613
 40
0.6562726932
 40
0.7296608816
 40
0.8016509144
 40
0.8712489598
 40
0.9376159953
 40
1.0
 40
1.0
 40
1.0
 40
1.0
 10
23.5381138644
 20
54.7003760921
 30
0.0
 10
23.7134569282
 20
54.8016045881
 30
0.0
 10
24.0999735988
 20
54.962236599
 30
0.0
 10
24.7379923604
 20
55.0557265411
 30
0.0
 10
25.4231169662
 20
55.0053056397
 30
0.0
 10
26.1401485797
 20
54.81481413
 30
0.0
 10
26.8749860434
 20
54.4900238175
 30
0.0
 10
27.6130160525
 20
54.0384909272
 30
0.0
 10
28.3392569222
 20
53.4699440596
 30
0.0
 10
29.0386283934
 20
52.7964137561
 30
0.0
 10
29.6963896817
 20
52.032151578
 30
0.0
 10
30.2985991539
 20
51.1934298041
 30
0.0
 10
30.8324534929
 20
50.2981385122
 30
0.0
 10
31.2865524348
 20
49.3653436347
 30
0.0
 10
31.6511386158
 20
48.414960903
 30
0.0
 10
31.9186268797
 20
47.4670776057
 30
0.0
 10
32.0830347232
 20
46.5420451209
 30
0.0
 10
32.1230585807
 20
45.9327978267
 30
0.0
 10
32.1230585807
 20
45.637792451
 30
0.0
  0
ENDSEC
  0
SECTION
  2
OBJECTS
  0
DICTIONARY
  5
C
100
AcDbDictionary
280
0
281
1
  3
ACAD_GROUP
350
D
  3
ACAD_MLINESTYLE
350
17
  3
ACAD_LAYOUT
350
1A
  3
ACAD_PLOTSETTINGS
350
19
  3
ACAD_PLOTSTYLENAME
350
E
  0
DICTIONARY
  5
D
102
{ACAD_REACTORS
330
C
102
}
100
AcDbDictionary
280
0
281
1
  0
ACDBDICTIONARYWDFLT
  5
E
102
{ACAD_REACTORS
330
C
102
}
100
AcDbDictionary
281
1
  3
Normal
350
F
100
AcDbDictionaryWithDefault
340
F
  0
DICTIONARY
  5
17
102
{ACAD_REACTORS
330
C
102
}
100
AcDbDictionary
280
0
281
1
  3
Standard
350
18
  0
DICTIONARY
  5
19
102
{ACAD_REACTORS
330
C
102
}
100
AcDbDictionary
281
1
  0
DICTIONARY
  5
1A
102
{ACAD_REACTORS
330
C
102
}
100
AcDbDictionary
281
1
  3
Model
350
271
  3
Layout1
350
272
  0
ACDBPLACEHOLDER
  5
F
102
{ACAD_REACTORS
330
E
102
}
  0
MLINESTYLE
  5
18
102
{ACAD_REACTORS
330
17
102
}
100
AcDbMlineStyle
  2
STANDARD
 70
0
  3

 62
256
 51
90.0
 52
90.0
 71
2
 49
0.5
 62
256
  6
BYLAYER
 49
-0.5
 62
256
  6
BYLAYER
  0
LAYOUT
  5
271
102
{ACAD_REACTORS
330
1A
102
}
100
AcDbPlotSettings
  1

  2
none_device
  4

  6

 40
0.0
 41
0.0
 42
0.0
 43
0.0
 44
210.0
 45
297.0
 46
0.0
 47
0.0
 48
0.0
 49
0.0
140
0.0
141
0.0
142
1.0
143
1.0
 70
1024
 72
1
 73
0
 74
0
  7

 75
0
147
1.0
148
0.0
149
0.0
100
AcDbLayout
  1
Model
 70
0
 71
0
 10
0.0
 20
0.0
 11
210.0
 21
297.0
 12
0.0
 22
0.0
 32
0.0
 14
0.0
 24
0.0
 34
0.0
 15
0.0
 25
0.0
 35
0.0
146
0.0
 13
0.0
 23
0.0
 33
0.0
 16
1.0
 26
0.0
 36
0.0
 17
0.0
 27
1.0
 37
0.0
 76
0
330
211
345
0
346
0
  0
LAYOUT
  5
272
102
{ACAD_REACTORS
330
1A
102
}
100
AcDbPlotSettings
  1

  2
none_device
  4

  6

 40
0.0
 41
0.0
 42
0.0
 43
0.0
 44
210.0
 45
297.0
 46
0.0
 47
0.0
 48
0.0
 49
0.0
140
0.0
141
0.0
142
1.0
143
1.0
 70
0
 72
1
 73
0
 74
0
  7

 75
0
147
1.0
148
0.0
149
0.0
100
AcDbLayout
  1
Layout1
 70
0
 71
1
 10
0.0
 20
0.0
 11
210.0
 21
297.0
 12
0.0
 22
0.0
 32
0.0
 14
0.0
 24
0.0
 34
0.0
 15
0.0
 25
0.0
 35
0.0
146
0.0
 13
0.0
 23
0.0
 33
0.0
 16
1.0
 26
0.0
 36
0.0
 17
0.0
 27
1.0
 37
0.0
 76
0
330
212
345
0
346
0
  0
ENDSEC
  0
EOF
