999
DXF file: C:\Users\sesa63760\Dev\_Creo\CAD\MCADID0003010_3D-CAD\drw0001_1.dxf
999
Pro/ENGINEER 2019471 by Parametric Technology Corporation
  0
SECTION
  2
HEADER
  9
$ACADVER
  1
AC1024
  9
$DWGCODEPAGE
  3
ANSI_1252
  9
$EXTMAX
 10
79.6391297478
 20
112.6324835005
 30
0.0
  9
$EXTMIN
 10
0.0
 20
0.0
 30
0.0
  9
$LIMMIN
 10
0.0
 20
0.0
  9
$LIMMAX
 10
79.6391297478
 20
112.6324835005
  9
$VIEWCTR
 10
39.8195648739
 20
56.3162417502
  9
$VIEWSIZE
 40
112.6324835005
  9
$CLAYER
  8
0
  9
$LTSCALE
 40
7.3419692948
  9
$CELTYPE
  6
BYLAYER
  9
$DIMSCALE
 40
1.0
  9
$DIMASZ
 40
0.948084878
  9
$DIMEXO
 40
1.0
  9
$DIMDLI
 40
5.072633331
  9
$DIMEXE
 40
1.0
  9
$DIMCEN
 40
1.2014131573
  9
$DIMLFAC
 40
1.0
  9
$DIMBLK
  1
_FILLED
  9
$DIMALT
 70
0
  9
$DIMALTF
 40
0.0393700787
  9
$DIMTXT
 40
1.3273188291
  9
$DIMTOL
 70
1
  9
$DIMLIM
 70
0
  9
$DIMTFAC
 40
1.0
  9
$DIMTP
 40
0.01
  9
$DIMTM
 40
0.01
  9
$DIMGAP
 40
0.625
  9
$DIMDSEP
 70
46
  9
$AUNITS
 70
0
  9
$PDMODE
 70
3
  9
$PDSIZE
 40
0.3125
  9
$HANDSEED
  5
26D
  9
$TILEMODE
 70
1
  9
$MEASUREMENT
 70
1
  9
$INSUNITS
 70
4
  0
ENDSEC
  0
SECTION
  2
CLASSES
  0
CLASS
  1
ACDBDICTIONARYWDFLT
  2
AcDbDictionaryWithDefault
  3
AutoCAD 2000
 90
0
 91
1
280
0
281
0
  0
CLASS
  1
ACDBPLACEHOLDER
  2
AcDbPlaceHolder
  3
AutoCAD 2000
 90
0
 91
1
280
0
281
0
  0
CLASS
  1
LAYOUT
  2
AcDbLayout
  3
AutoCAD 2000
 90
0
 91
0
280
0
281
0
  0
ENDSEC
  0
SECTION
  2
TABLES
  0
TABLE
  2
VPORT
  5
8
100
AcDbSymbolTable
 70
2
  0
VPORT
  5
1F4
100
AcDbSymbolTableRecord
100
AcDbViewportTableRecord
  2
*ACTIVE
 70
0
 10
0.0
 20
0.0
 11
1.0
 21
1.0
 12
39.8195648739
 22
56.3162417502
 13
0.0
 23
0.0
 14
1.0
 24
1.0
 15
0.0
 25
0.0
 16
0.0
 26
0.0
 36
1.0
 17
0.0
 27
0.0
 37
0.0
 40
112.6324835005
 41
0.7070707071
 42
50.0
 43
0.0
 44
0.0
 50
0.0
 51
0.0
 71
0
 72
100
 73
1
 74
1
 75
0
 76
0
 77
0
 78
0
  0
ENDTAB
  0
TABLE
  2
LTYPE
  5
5
100
AcDbSymbolTable
 70
6
  0
LTYPE
  5
14
100
AcDbSymbolTableRecord
100
AcDbLinetypeTableRecord
  2
BYBLOCK
 70
0
  3

 72
65
 73
0
 40
0.0
  0
LTYPE
  5
15
100
AcDbSymbolTableRecord
100
AcDbLinetypeTableRecord
  2
BYLAYER
 70
0
  3

 72
65
 73
0
 40
0.0
  0
LTYPE
  5
16
100
AcDbSymbolTableRecord
100
AcDbLinetypeTableRecord
  2
CONTINUOUS
 70
64
  3
Solid line
 72
65
 73
0
 40
0.0
  0
LTYPE
  5
1F5
100
AcDbSymbolTableRecord
100
AcDbLinetypeTableRecord
  2
CENTER
 70
64
  3
____ _ ____ _ ____ _ ____ _ ____ _ ____ _ ____
 72
65
 73
4
 40
0.6
 49
0.375
 74
0
 49
-0.075
 74
0
 49
0.075
 74
0
 49
-0.075
 74
0
  0
LTYPE
  5
1F6
100
AcDbSymbolTableRecord
100
AcDbLinetypeTableRecord
  2
HIDDEN
 70
64
  3
- - - - - - - - - - - - - - - - - - - -
 72
65
 73
2
 40
0.2
 49
0.1
 74
0
 49
-0.1
 74
0
  0
LTYPE
  5
1F7
100
AcDbSymbolTableRecord
100
AcDbLinetypeTableRecord
  2
PHANTOM
 70
64
  3
_____ _ _ _____ _ _ _____ _ _ _____
 72
65
 73
6
 40
0.8
 49
0.45
 74
0
 49
-0.05
 74
0
 49
0.1
 74
0
 49
-0.05
 74
0
 49
0.1
 74
0
 49
-0.05
 74
0
  0
LTYPE
  5
1F8
100
AcDbSymbolTableRecord
100
AcDbLinetypeTableRecord
  2
DOT
 70
64
  3
. . . . . . . . . . . . . . . . . . . .
 72
65
 73
2
 40
0.2
 49
0.1
 74
0
 49
-0.1
 74
0
  0
LTYPE
  5
1F9
100
AcDbSymbolTableRecord
100
AcDbLinetypeTableRecord
  2
DASHED
 70
64
  3
- - - - - - - - - - - - - - - - - - - -
 72
65
 73
2
 40
0.2
 49
0.1
 74
0
 49
-0.1
 74
0
  0
ENDTAB
  0
TABLE
  2
LAYER
  5
2
100
AcDbSymbolTable
 70
36
  0
LAYER
  5
10
100
AcDbSymbolTableRecord
100
AcDbLayerTableRecord
  2
0
 70
0
 62
7
  6
CONTINUOUS
370
-3
390
F
  0
LAYER
  5
1FA
100
AcDbSymbolTableRecord
100
AcDbLayerTableRecord
  2
DEFAULT_1
 70
0
 62
7
  6
CENTER
370
-3
390
F
  0
LAYER
  5
1FB
100
AcDbSymbolTableRecord
100
AcDbLayerTableRecord
  2
DEFAULT_2
 70
0
 62
7
  6
HIDDEN
370
-3
390
F
  0
LAYER
  5
1FC
100
AcDbSymbolTableRecord
100
AcDbLayerTableRecord
  2
DEFAULT_3
 70
0
 62
7
  6
PHANTOM
370
-3
390
F
  0
LAYER
  5
1FD
100
AcDbSymbolTableRecord
100
AcDbLayerTableRecord
  2
00_COMPONENTS
 70
0
 62
7
  6
CONTINUOUS
370
-3
390
F
  0
LAYER
  5
1FE
100
AcDbSymbolTableRecord
100
AcDbLayerTableRecord
  2
01_1_DEFAULT_DATUMS
 70
0
 62
7
  6
CONTINUOUS
370
-3
390
F
  0
LAYER
  5
1FF
100
AcDbSymbolTableRecord
100
AcDbLayerTableRecord
  2
01_PLANES
 70
0
 62
7
  6
CONTINUOUS
370
-3
390
F
  0
LAYER
  5
200
100
AcDbSymbolTableRecord
100
AcDbLayerTableRecord
  2
02_COORD_SYS
 70
0
 62
7
  6
CONTINUOUS
370
-3
390
F
  0
LAYER
  5
201
100
AcDbSymbolTableRecord
100
AcDbLayerTableRecord
  2
03_AXES
 70
0
 62
7
  6
CONTINUOUS
370
-3
390
F
  0
LAYER
  5
202
100
AcDbSymbolTableRecord
100
AcDbLayerTableRecord
  2
04_POINTS
 70
0
 62
7
  6
CONTINUOUS
370
-3
390
F
  0
LAYER
  5
203
100
AcDbSymbolTableRecord
100
AcDbLayerTableRecord
  2
05_CURVES
 70
0
 62
7
  6
CONTINUOUS
370
-3
390
F
  0
LAYER
  5
204
100
AcDbSymbolTableRecord
100
AcDbLayerTableRecord
  2
06_SURFS
 70
0
 62
7
  6
CONTINUOUS
370
-3
390
F
  0
LAYER
  5
205
100
AcDbSymbolTableRecord
100
AcDbLayerTableRecord
  2
07_COSMETICS
 70
0
 62
7
  6
CONTINUOUS
370
-3
390
F
  0
LAYER
  5
206
100
AcDbSymbolTableRecord
100
AcDbLayerTableRecord
  2
10_NOTES
 70
0
 62
7
  6
CONTINUOUS
370
-3
390
F
  0
LAYER
  5
207
100
AcDbSymbolTableRecord
100
AcDbLayerTableRecord
  2
11_NOTES_PUB
 70
0
 62
7
  6
CONTINUOUS
370
-3
390
F
  0
LAYER
  5
208
100
AcDbSymbolTableRecord
100
AcDbLayerTableRecord
  2
13_REF_GTOL
 70
0
 62
7
  6
CONTINUOUS
370
-3
390
F
  0
LAYER
  5
209
100
AcDbSymbolTableRecord
100
AcDbLayerTableRecord
  2
16_MISC
 70
0
 62
7
  6
CONTINUOUS
370
-3
390
F
  0
LAYER
  5
20A
100
AcDbSymbolTableRecord
100
AcDbLayerTableRecord
  2
17_NO_PRINT
 70
0
 62
7
  6
CONTINUOUS
370
-3
390
F
  0
LAYER
  5
20B
100
AcDbSymbolTableRecord
100
AcDbLayerTableRecord
  2
18_DATUM_CAMS_JOINTS
 70
0
 62
7
  6
CONTINUOUS
370
-3
390
F
  0
LAYER
  5
20C
100
AcDbSymbolTableRecord
100
AcDbLayerTableRecord
  2
19_DATUM_FUNCTIONAL
 70
0
 62
7
  6
CONTINUOUS
370
-3
390
F
  0
LAYER
  5
20D
100
AcDbSymbolTableRecord
100
AcDbLayerTableRecord
  2
20_DATUM_KINEMATIC_SCHEME
 70
0
 62
7
  6
CONTINUOUS
370
-3
390
F
  0
ENDTAB
  0
TABLE
  2
STYLE
  5
3
100
AcDbSymbolTable
 70
1
  0
STYLE
  5
11
100
AcDbSymbolTableRecord
100
AcDbTextStyleTableRecord
  2
STANDARD
 70
0
 40
0.0
 41
1.0
 50
0.0
 71
0
 42
0.2
  3
ARIAL.TTF
  4

  0
STYLE
  5
20E
100
AcDbSymbolTableRecord
100
AcDbTextStyleTableRecord
  2
TEXTSTYLE_1
 70
0
 40
0.0
 41
0.8
 50
0.0
 71
0
 42
0.2
  3
gdt
  4

  0
ENDTAB
  0
TABLE
  2
VIEW
  5
6
100
AcDbSymbolTable
 70
0
  0
ENDTAB
  0
TABLE
  2
UCS
  5
7
100
AcDbSymbolTable
 70
0
  0
ENDTAB
  0
TABLE
  2
APPID
  5
9
100
AcDbSymbolTable
 70
1
  0
APPID
  5
20F
100
AcDbSymbolTableRecord
100
AcDbRegAppTableRecord
  2
ACAD
 70
0
  0
ENDTAB
  0
TABLE
  2
BLOCK_RECORD
  5
1
100
AcDbSymbolTable
 70
0
  0
BLOCK_RECORD
  5
210
100
AcDbSymbolTableRecord
100
AcDbBlockTableRecord
  2
*Model_Space
  0
BLOCK_RECORD
  5
211
100
AcDbSymbolTableRecord
100
AcDbBlockTableRecord
  2
*Paper_Space
  0
BLOCK_RECORD
  5
212
100
AcDbSymbolTableRecord
100
AcDbBlockTableRecord
  2
_FILLED
  0
ENDTAB
  0
TABLE
  2
DIMSTYLE
  5
A
100
AcDbSymbolTable
 70
1
100
AcDbDimStyleTable
 71
0
  0
DIMSTYLE
105
213
100
AcDbSymbolTableRecord
100
AcDbDimStyleTableRecord
  2
STANDARD
 70
0
  3

  4

 40
1.0
 41
0.948084878
 42
1.0
 43
0.38
 44
1.0
 45
0.0
 46
0.0
 47
0.01
 48
0.01
140
1.3273188291
141
0.09
142
0.0
143
25.4
144
1.0
145
0.0
146
1.0
147
0.625
 71
1
 72
0
 73
0
 74
0
 75
0
 76
0
 77
1
 78
8
 79
2
170
0
171
1
172
0
173
0
174
0
175
0
176
0
177
0
178
0
270
2
179
2
271
2
272
2
273
2
274
2
275
0
280
0
281
0
282
0
283
1
284
8
285
0
286
0
287
3
288
0
340
11
278
46
341
212
342
212
343
212
344
212
  0
ENDTAB
  0
ENDSEC
  0
SECTION
  2
BLOCKS
  0
BLOCK
  5
20
100
AcDbEntity
  8
0
100
AcDbBlockBegin
  2
*Model_Space
 70
0
 10
0.0
 20
0.0
 30
0.0
  3
*Model_Space
  1

  0
ENDBLK
  5
21
100
AcDbEntity
  8
0
100
AcDbBlockEnd
  0
BLOCK
  5
1C
100
AcDbEntity
  8
0
100
AcDbBlockBegin
  2
*Paper_Space
 70
0
 10
0.0
 20
0.0
 30
0.0
  3
*Paper_Space
  1

  0
ENDBLK
  5
1D
100
AcDbEntity
  8
0
100
AcDbBlockEnd
  0
BLOCK
  5
214
100
AcDbEntity
  8
0
100
AcDbBlockBegin
  2
_FILLED
 70
64
 10
0.0
 20
0.0
  3
_FILLED
  1

  0
SOLID
  5
215
100
AcDbEntity
  8
0
  6
BYBLOCK
 62
0
100
AcDbTrace
 10
0.0
 20
0.0
 11
-1.0
 21
0.25
 12
-1.0
 22
-0.25
 13
-1.0
 23
-0.25
  0
ENDBLK
  5
216
100
AcDbEntity
  8
0
  6
BYBLOCK
 62
0
100
AcDbBlockEnd
  0
ENDSEC
  0
SECTION
  2
ENTITIES
  0
LINE
  5
217
100
AcDbEntity
  8
0
100
AcDbLine
 62
7
  6
BYLAYER
 10
9.202575055
 20
47.8077948512
 11
9.202575055
 21
42.6230045024
  0
LINE
  5
218
100
AcDbEntity
  8
0
100
AcDbLine
 62
7
  6
BYLAYER
 10
14.0504934935
 20
51.0530283614
 11
14.0504934935
 21
48.460633187
  0
LINE
  5
219
100
AcDbEntity
  8
0
100
AcDbLine
 62
7
  6
BYLAYER
 10
21.9880265404
 20
43.8780000187
 11
21.9880265404
 21
46.4703951931
  0
LINE
  5
21A
100
AcDbEntity
  8
0
100
AcDbLine
 62
7
  6
BYLAYER
 10
56.0976538319
 20
41.9290369419
 11
44.4153534255
 21
41.9309570947
  0
LINE
  5
21B
100
AcDbEntity
  8
0
100
AcDbLine
 62
7
  6
BYLAYER
 10
26.665075055
 20
43.878011261
 11
26.665075055
 21
42.6230045024
  0
LINE
  5
21C
100
AcDbEntity
  8
0
100
AcDbLine
 62
7
  6
BYLAYER
 10
37.8500873081
 20
43.8763325706
 11
21.9880265404
 21
43.8780000187
  0
LINE
  5
21D
100
AcDbEntity
  8
0
100
AcDbLine
 62
7
  6
BYLAYER
 10
44.4153534255
 20
41.9309570947
 11
37.8500873081
 21
43.8763325706
  0
LINE
  5
21E
100
AcDbEntity
  8
0
100
AcDbLine
 62
7
  6
BYLAYER
 10
21.9880265404
 20
46.4703951931
 11
37.8500873081
 21
46.468727745
  0
LINE
  5
21F
100
AcDbEntity
  8
0
100
AcDbLine
 62
7
  6
BYLAYER
 10
44.4153534255
 20
48.4119450307
 11
56.0976538319
 21
48.4100248779
  0
LINE
  5
220
100
AcDbEntity
  8
0
100
AcDbLine
 62
7
  6
BYLAYER
 10
36.7888358624
 20
53.820818461
 11
27.1597763843
 21
52.8861207714
  0
LINE
  5
221
100
AcDbEntity
  8
0
100
AcDbLine
 62
7
  6
BYLAYER
 10
27.1597763843
 20
52.8861207714
 11
22.5894348629
 21
52.8861097856
  0
LINE
  5
222
100
AcDbEntity
  8
0
100
AcDbLine
 62
7
  6
BYLAYER
 10
37.8500873081
 20
46.468727745
 11
36.7888358624
 21
53.820818461
  0
LINE
  5
223
100
AcDbEntity
  8
0
100
AcDbLine
 62
7
  6
BYLAYER
 10
45.5539377667
 20
56.6159477314
 11
43.263228157
 21
56.3935873872
  0
LINE
  5
224
100
AcDbEntity
  8
0
100
AcDbLine
 62
7
  6
BYLAYER
 10
43.263228157
 20
56.3935873872
 11
36.7888358624
 21
53.820818461
  0
LINE
  5
225
100
AcDbEntity
  8
0
100
AcDbLine
 62
7
  6
BYLAYER
 10
69.0455487554
 20
47.858158913
 11
66.2959114891
 21
48.7746827532
  0
LINE
  5
226
100
AcDbEntity
  8
0
100
AcDbLine
 62
7
  6
BYLAYER
 10
50.2091727827
 20
60.4038064488
 11
64.0339901027
 21
59.7387025857
  0
LINE
  5
227
100
AcDbEntity
  8
0
100
AcDbLine
 62
7
  6
BYLAYER
 10
44.4153534255
 20
48.4119450307
 11
43.263228157
 21
56.3935873872
  0
LINE
  5
228
100
AcDbEntity
  8
0
100
AcDbLine
 62
7
  6
BYLAYER
 10
47.3685046687
 20
69.8427730564
 11
47.3685046687
 21
64.6579827076
  0
LINE
  5
229
100
AcDbEntity
  8
0
100
AcDbLine
 62
7
  6
BYLAYER
 10
51.2976808134
 20
62.1974539973
 11
50.2091727827
 21
60.4038064488
  0
LINE
  5
22A
100
AcDbEntity
  8
0
100
AcDbLine
 62
7
  6
BYLAYER
 10
51.2976808134
 20
62.1974539973
 11
64.0320663607
 21
61.5848101681
  0
LINE
  5
22B
100
AcDbEntity
  8
0
100
AcDbLine
 62
7
  6
BYLAYER
 10
62.5831940616
 20
55.2331335714
 11
62.8728294872
 21
55.136590738
  0
LINE
  5
22C
100
AcDbEntity
  8
0
100
AcDbLine
 62
7
  6
BYLAYER
 10
67.2999130399
 20
55.0272533945
 11
63.8975806274
 21
56.1613370814
  0
LINE
  5
22D
100
AcDbEntity
  8
0
100
AcDbLine
 62
7
  6
BYLAYER
 10
71.0535518571
 20
53.8823122596
 11
68.3039145908
 21
54.7988360999
  0
LINE
  5
22E
100
AcDbEntity
  8
0
100
AcDbLine
 62
7
  6
BYLAYER
 10
50.2091727827
 20
60.4038064488
 11
49.8240469373
 21
59.0812816944
  0
LINE
  5
22F
100
AcDbEntity
  8
0
100
AcDbLine
 62
7
  6
BYLAYER
 10
52.9165676669
 20
67.7567223863
 11
51.2976808134
 21
62.1974539973
  0
LINE
  5
230
100
AcDbEntity
  8
0
100
AcDbLine
 62
7
  6
BYLAYER
 10
37.8500873081
 20
46.468727745
 11
44.4153534255
 21
48.4119450307
  0
LINE
  5
231
100
AcDbEntity
  8
0
100
AcDbLine
 62
7
  6
BYLAYER
 10
65.152582566
 20
56.685938955
 11
68.5549149785
 21
55.5518552682
  0
LINE
  5
232
100
AcDbEntity
  8
0
100
AcDbLine
 62
7
  6
BYLAYER
 10
52.0434049416
 20
70.3957296346
 11
52.0434049416
 21
72.9881248089
  0
LINE
  5
233
100
AcDbEntity
  8
0
100
AcDbLine
 62
7
  6
BYLAYER
 10
52.3383077797
 20
69.520025415
 11
52.3383077797
 21
72.1124205894
  0
LINE
  5
234
100
AcDbEntity
  8
0
100
AcDbLine
 62
7
  6
BYLAYER
 10
52.9165486387
 20
70.3953725716
 11
52.9165676669
 21
67.7567223863
  0
LINE
  5
235
100
AcDbEntity
  8
0
100
AcDbLine
 62
7
  6
BYLAYER
 10
56.0976538319
 20
48.4100248779
 11
56.0976538319
 21
41.9290369419
  0
LINE
  5
236
100
AcDbEntity
  8
0
100
AcDbLine
 62
7
  6
BYLAYER
 10
60.3160645174
 20
55.0819839072
 11
64.0344663351
 21
58.8003683191
  0
LINE
  5
237
100
AcDbEntity
  8
0
100
AcDbLine
 62
7
  6
BYLAYER
 10
63.8975806274
 20
56.1613370814
 11
61.4952743038
 21
53.7590420029
  0
LINE
  5
238
100
AcDbEntity
  8
0
100
AcDbLine
 62
7
  6
BYLAYER
 10
52.3383077797
 20
69.520025415
 11
52.0435271217
 21
70.395729683
  0
LINE
  5
239
100
AcDbEntity
  8
0
100
AcDbLine
 62
7
  6
BYLAYER
 10
52.0435272657
 20
72.9881248574
 11
52.3383077797
 21
72.1124205894
  0
LINE
  5
23A
100
AcDbEntity
  8
0
100
AcDbLine
 62
7
  6
BYLAYER
 10
60.3160645174
 20
50.9907228376
 11
60.3160645174
 21
55.0819839072
  0
LINE
  5
23B
100
AcDbEntity
  8
0
100
AcDbLine
 62
7
  6
BYLAYER
 10
61.4952743038
 20
53.7590420029
 11
61.4952743038
 21
52.3450454021
  0
LINE
  5
23C
100
AcDbEntity
  8
0
100
AcDbLine
 62
7
  6
BYLAYER
 10
62.9740067352
 20
50.7013673393
 11
67.2999130399
 21
55.0272533945
  0
LINE
  5
23D
100
AcDbEntity
  8
0
100
AcDbLine
 62
7
  6
BYLAYER
 10
61.4952743038
 20
53.7590420029
 11
61.6560928999
 21
52.9926769625
  0
LINE
  5
23E
100
AcDbEntity
  8
0
100
AcDbLine
 62
7
  6
BYLAYER
 10
62.9740067352
 20
44.2203794034
 11
62.9740067352
 21
50.7013673393
  0
LINE
  5
23F
100
AcDbEntity
  8
0
100
AcDbLine
 62
7
  6
BYLAYER
 10
64.0290695945
 20
67.4894244935
 11
64.0290461345
 21
70.742644287
  0
LINE
  5
240
100
AcDbEntity
  8
0
100
AcDbLine
 62
7
  6
BYLAYER
 10
64.0344663351
 20
56.2471705633
 11
64.0290695945
 21
67.4894244935
  0
LINE
  5
241
100
AcDbEntity
  8
0
100
AcDbLine
 62
7
  6
BYLAYER
 10
64.8310046687
 20
69.8427730564
 11
64.8310046687
 21
64.6579827076
  0
LINE
  5
242
100
AcDbEntity
  8
0
100
AcDbLine
 62
7
  6
BYLAYER
 10
67.2202308687
 20
48.4665836604
 11
62.9740067352
 21
44.2203794034
  0
ARC
  5
243
100
AcDbEntity
  8
0
100
AcDbCircle
 62
7
  6
BYLAYER
 10
56.100839086
 20
62.0757043563
 40
13.6656798496
100
AcDbArc
 50
269.9866452586
 51
275.5225935946
  0
ARC
  5
244
100
AcDbEntity
  8
0
100
AcDbCircle
 62
7
  6
BYLAYER
 10
56.1038727919
 20
55.5316642985
 40
13.6026287782
100
AcDbArc
 50
269.9738050505
 51
275.5354338027
  0
ARC
  5
245
100
AcDbEntity
  8
0
100
AcDbCircle
 62
7
  6
BYLAYER
 10
57.5348981986
 20
50.938114007
 40
4.9906456339
100
AcDbArc
 50
56.1323863845
 51
60.0193760925
  0
SPLINE
  5
246
100
AcDbEntity
  8
0
100
AcDbSpline
 62
7
  6
BYLAYER
 70
0
 71
3
 72
15
 73
11
 74
0
 42
0.0000001
 43
0.0000001
 44
0.0000000001
 40
0.0
 40
0.0
 40
0.0
 40
0.0
 40
0.1509720946
 40
0.2937982976
 40
0.4282860823
 40
0.5546548083
 40
0.673572455
 40
0.7862245158
 40
0.8943182037
 40
1.0
 40
1.0
 40
1.0
 40
1.0
 10
50.4421609103
 20
60.8185003624
 30
0.0
 10
50.2083962218
 20
60.9333077058
 30
0.0
 10
49.7625977219
 20
61.1761174875
 30
0.0
 10
49.1495361887
 20
61.5906237364
 30
0.0
 10
48.6168514267
 20
62.0415346464
 30
0.0
 10
48.170748019
 20
62.5238232477
 30
0.0
 10
47.8167992865
 20
63.0324737504
 30
0.0
 10
47.5597583302
 20
63.5620002579
 30
0.0
 10
47.4035689117
 20
64.1060029485
 30
0.0
 10
47.3685442029
 20
64.4756755455
 30
0.0
 10
47.3685445731
 20
64.6579826981
 30
0.0
  0
SPLINE
  5
247
100
AcDbEntity
  8
0
100
AcDbSpline
 62
7
  6
BYLAYER
 70
0
 71
3
 72
20
 73
16
 74
0
 42
0.0000001
 43
0.0000001
 44
0.0000000001
 40
0.0
 40
0.0
 40
0.0
 40
0.0
 40
0.0324166782
 40
0.0677889655
 40
0.1082400537
 40
0.1548837643
 40
0.208044853
 40
0.2675217524
 40
0.3327322541
 40
0.4028392393
 40
0.553442293
 40
0.709904429
 40
0.8619550182
 40
0.9333187889
 40
1.0
 40
1.0
 40
1.0
 40
1.0
 10
69.0455507415
 20
47.858164861
 30
0.0
 10
69.1039947132
 20
47.8386812308
 30
0.0
 10
69.2344496436
 20
47.8200501679
 30
0.0
 10
69.4394065576
 20
47.8574229087
 30
0.0
 10
69.6528429738
 20
47.954558603
 30
0.0
 10
69.8720627302
 20
48.1081054532
 30
0.0
 10
70.0941117681
 20
48.3149410533
 30
0.0
 10
70.315122353
 20
48.5713723342
 30
0.0
 10
70.5310632759
 20
48.8725819868
 30
0.0
 10
70.8133018329
 20
49.3373914124
 30
0.0
 10
71.1219368906
 20
49.9866326978
 30
0.0
 10
71.4049320167
 20
50.8136944141
 30
0.0
 10
71.5605969501
 20
51.5207172198
 30
0.0
 10
71.6253447945
 20
52.0685676156
 30
0.0
 10
71.6370388585
 20
52.3309927933
 30
0.0
 10
71.6370388585
 20
52.4577167075
 30
0.0
  0
SPLINE
  5
248
100
AcDbEntity
  8
0
100
AcDbSpline
 62
7
  6
BYLAYER
 70
0
 71
3
 72
17
 73
13
 74
0
 42
0.0000001
 43
0.0000001
 44
0.0000000001
 40
0.0
 40
0.0
 40
0.0
 40
0.0
 40
0.156827389
 40
0.30592696
 40
0.4456166462
 40
0.5748435902
 40
0.6933699995
 40
0.8020368366
 40
0.8533718446
 40
0.9031558103
 40
0.9518566974
 40
1.0
 40
1.0
 40
1.0
 40
1.0
 10
53.1442437398
 20
74.5861112061
 30
0.0
 10
52.7332685759
 20
74.5007561596
 30
0.0
 10
51.9386953385
 20
74.2966275709
 30
0.0
 10
50.8182028312
 20
73.8813720463
 30
0.0
 10
49.8186415155
 20
73.3723934637
 30
0.0
 10
48.9626783844
 20
72.7805142476
 30
0.0
 10
48.2700005977
 20
72.1180678625
 30
0.0
 10
47.8347470551
 20
71.5054530259
 30
0.0
 10
47.5920241386
 20
70.997847041
 30
0.0
 10
47.4634286249
 20
70.6169188311
 30
0.0
 10
47.3858188479
 20
70.2311559075
 30
0.0
 10
47.3685443087
 20
69.9716276135
 30
0.0
 10
47.368544573
 20
69.8427730659
 30
0.0
  0
SPLINE
  5
249
100
AcDbEntity
  8
0
100
AcDbSpline
 62
7
  6
BYLAYER
 70
0
 71
3
 72
11
 73
7
 74
0
 42
0.0000001
 43
0.0000001
 44
0.0000000001
 40
0.0
 40
0.0
 40
0.0
 40
0.0
 40
0.2397055773
 40
0.4837694167
 40
0.7361171902
 40
1.0
 40
1.0
 40
1.0
 40
1.0
 10
52.9165486387
 20
67.8029773972
 30
0.0
 10
52.9165475791
 20
67.9499149614
 30
0.0
 10
52.8915881337
 20
68.2470260655
 30
0.0
 10
52.7802738146
 20
68.6862354312
 30
0.0
 10
52.59637735
 20
69.1163338885
 30
0.0
 10
52.4310683024
 20
69.3875069658
 30
0.0
 10
52.3383077797
 20
69.520025415
 30
0.0
  0
SPLINE
  5
24A
100
AcDbEntity
  8
0
100
AcDbSpline
 62
7
  6
BYLAYER
 70
0
 71
3
 72
23
 73
19
 74
0
 42
0.0000001
 43
0.0000001
 44
0.0000000001
 40
0.0
 40
0.0
 40
0.0
 40
0.0
 40
0.0428111766
 40
0.0873920809
 40
0.135174943
 40
0.1870830278
 40
0.2435298131
 40
0.3044882371
 40
0.3695864286
 40
0.4381946489
 40
0.5094933278
 40
0.5825299806
 40
0.6562730147
 40
0.729662672
 40
0.8016523498
 40
0.8712491874
 40
0.9376170926
 40
1.0
 40
1.0
 40
1.0
 40
1.0
 10
61.6561686851
 20
52.9926769619
 30
0.0
 10
61.6561649219
 20
52.8345148632
 30
0.0
 10
61.6138870598
 20
52.5102749721
 30
0.0
 10
61.4278930234
 20
52.0421137526
 30
0.0
 10
61.1261701894
 20
51.5982708549
 30
0.0
 10
60.7171942028
 20
51.1875607812
 30
0.0
 10
60.2104150142
 20
50.8172373853
 30
0.0
 10
59.6166077726
 20
50.4942879282
 30
0.0
 10
58.9482371891
 20
50.2250195554
 30
0.0
 10
58.2193365319
 20
50.0149303432
 30
0.0
 10
57.445304101
 20
49.8684348495
 30
0.0
 10
56.6425925144
 20
49.7886216392
 30
0.0
 10
55.8283080151
 20
49.7771516723
 30
0.0
 10
55.0198079962
 20
49.8342862747
 30
0.0
 10
54.2343816355
 20
49.9588519693
 30
0.0
 10
53.4885768311
 20
50.1481362776
 30
0.0
 10
52.7985021226
 20
50.3982395054
 30
0.0
 10
52.3706602529
 20
50.6091382531
 30
0.0
 10
52.1710678737
 20
50.72437036
 30
0.0
  0
SPLINE
  5
24B
100
AcDbEntity
  8
0
100
AcDbSpline
 62
7
  6
BYLAYER
 70
0
 71
3
 72
15
 73
11
 74
0
 42
0.0000001
 43
0.0000001
 44
0.0000000001
 40
0.0
 40
0.0
 40
0.0
 40
0.0
 40
0.0991511611
 40
0.2054130114
 40
0.3194735946
 40
0.441606375
 40
0.5715242684
 40
0.7085724606
 40
0.8518620735
 40
1.0
 40
1.0
 40
1.0
 40
1.0
 10
49.8240469373
 20
59.0812816944
 30
0.0
 10
49.7468224862
 20
58.931798328
 30
0.0
 10
49.5569673057
 20
58.6369735863
 30
0.0
 10
49.1926431856
 20
58.2329667641
 30
0.0
 10
48.7456652384
 20
57.858960734
 30
0.0
 10
48.223234234
 20
57.5203245548
 30
0.0
 10
47.6331956268
 20
57.2215326947
 30
0.0
 10
46.9841687965
 20
56.9670609599
 30
0.0
 10
46.2861278522
 20
56.7607679603
 30
0.0
 10
45.8016709864
 20
56.6586082114
 30
0.0
 10
45.5539377667
 20
56.6159477314
 30
0.0
  0
SPLINE
  5
24C
100
AcDbEntity
  8
0
100
AcDbSpline
 62
7
  6
BYLAYER
 70
0
 71
3
 72
14
 73
10
 74
0
 42
0.0000001
 43
0.0000001
 44
0.0000000001
 40
0.0
 40
0.0
 40
0.0
 40
0.0
 40
0.2892746637
 40
0.4225586926
 40
0.5485035106
 40
0.667893243
 40
0.7818736012
 40
0.891955511
 40
1.0
 40
1.0
 40
1.0
 40
1.0
 10
52.1710678737
 20
50.72437036
 30
0.0
 10
51.9271771927
 20
50.8651775249
 30
0.0
 10
51.5855990959
 20
51.1003469504
 30
0.0
 10
51.1991744193
 20
51.4701997732
 30
0.0
 10
50.9639580972
 20
51.7552703345
 30
0.0
 10
50.7781012967
 20
52.0529178223
 30
0.0
 10
50.6434482876
 20
52.3604085692
 30
0.0
 10
50.5619714212
 20
52.6747162264
 30
0.0
 10
50.5436671766
 20
52.8874918088
 30
0.0
 10
50.5436694244
 20
52.992676937
 30
0.0
  0
SPLINE
  5
24D
100
AcDbEntity
  8
0
100
AcDbSpline
 62
7
  6
BYLAYER
 70
0
 71
3
 72
19
 73
15
 74
0
 42
0.0000001
 43
0.0000001
 44
0.0000000001
 40
0.0
 40
0.0
 40
0.0
 40
0.0
 40
0.0450641828
 40
0.090978475
 40
0.1385141735
 40
0.1883126831
 40
0.2408474311
 40
0.296430548
 40
0.3552138087
 40
0.417215234
 40
0.5502662029
 40
0.6938320585
 40
0.8449454606
 40
1.0
 40
1.0
 40
1.0
 40
1.0
 10
26.6650351506
 20
42.6230045119
 30
0.0
 10
26.6650348149
 20
42.4577124662
 30
0.0
 10
26.636377726
 20
42.1233327401
 30
0.0
 10
26.5081884378
 20
41.6294723514
 30
0.0
 10
26.2967619645
 20
41.1462071933
 30
0.0
 10
26.0045466181
 20
40.6785323639
 30
0.0
 10
25.6350124364
 20
40.2305648145
 30
0.0
 10
25.1918449568
 20
39.8064203789
 30
0.0
 10
24.679462353
 20
39.4097606233
 30
0.0
 10
23.8920513736
 20
38.9108120754
 30
0.0
 10
22.7610229328
 20
38.3842496054
 30
0.0
 10
21.2558753015
 20
37.9267264417
 30
0.0
 10
19.6266545136
 20
37.6451539604
 30
0.0
 10
18.502589838
 20
37.582088397
 30
0.0
 10
17.9338614067
 20
37.5820870299
 30
0.0
  0
SPLINE
  5
24E
100
AcDbEntity
  8
0
100
AcDbSpline
 62
7
  6
BYLAYER
 70
0
 71
3
 72
13
 73
9
 74
0
 42
0.0000001
 43
0.0000001
 44
0.0000000001
 40
0.0
 40
0.0
 40
0.0
 40
0.0
 40
0.1045521373
 40
0.215811553
 40
0.333574392
 40
0.4575063626
 40
0.7210661345
 40
1.0
 40
1.0
 40
1.0
 40
1.0
 10
62.9740067352
 20
44.2203794034
 30
0.0
 10
62.8238056908
 20
44.0701790621
 30
0.0
 10
62.4932202109
 20
43.7802585118
 30
0.0
 10
61.936248165
 20
43.3921502362
 30
0.0
 10
61.3092927104
 20
43.0418491102
 30
0.0
 10
60.3712197366
 20
42.6222743241
 30
0.0
 10
59.0717227939
 20
42.223105145
 30
0.0
 10
57.9800518357
 20
42.0472209656
 30
0.0
 10
57.4160003672
 20
41.9924682033
 30
0.0
  0
SPLINE
  5
24F
100
AcDbEntity
  8
0
100
AcDbSpline
 62
7
  6
BYLAYER
 70
0
 71
3
 72
11
 73
7
 74
0
 42
0.0000001
 43
0.0000001
 44
0.0000000001
 40
0.0
 40
0.0
 40
0.0
 40
0.0
 40
0.238253095
 40
0.4814917212
 40
0.7341941391
 40
1.0
 40
1.0
 40
1.0
 40
1.0
 10
64.8309647642
 20
64.6579827171
 30
0.0
 10
64.8309644101
 20
64.483637703
 30
0.0
 10
64.7990082317
 20
64.1305129551
 30
0.0
 10
64.6562561591
 20
63.6099269228
 30
0.0
 10
64.4211570913
 20
63.1019758164
 30
0.0
 10
64.2107721352
 20
62.7844093066
 30
0.0
 10
64.0929620203
 20
62.6296391483
 30
0.0
  0
SPLINE
  5
250
100
AcDbEntity
  8
0
100
AcDbSpline
 62
7
  6
BYLAYER
 70
0
 71
3
 72
13
 73
9
 74
0
 42
0.0000001
 43
0.0000001
 44
0.0000000001
 40
0.0
 40
0.0
 40
0.0
 40
0.0
 40
0.1142466348
 40
0.2296746899
 40
0.3474063503
 40
0.4684499405
 40
0.7234601448
 40
1.0
 40
1.0
 40
1.0
 40
1.0
 10
64.8309647643
 20
69.8427730469
 30
0.0
 10
64.8309645146
 20
69.9644600819
 30
0.0
 10
64.8155771615
 20
70.2093677569
 30
0.0
 10
64.7464200143
 20
70.5737795113
 30
0.0
 10
64.6317180374
 20
70.9341358117
 30
0.0
 10
64.4154225569
 20
71.4146495497
 30
0.0
 10
64.0272202562
 20
71.9973764224
 30
0.0
 10
63.6298885788
 20
72.4048882776
 30
0.0
 10
63.4091746104
 20
72.59993926
 30
0.0
  0
SPLINE
  5
251
100
AcDbEntity
  8
0
100
AcDbSpline
 62
7
  6
BYLAYER
 70
0
 71
3
 72
18
 73
14
 74
0
 42
0.0000001
 43
0.0000001
 44
0.0000000001
 40
0.0
 40
0.0
 40
0.0
 40
0.0
 40
0.155074918
 40
0.3062042013
 40
0.4497897731
 40
0.5828607393
 40
0.7035272499
 40
0.7591184311
 40
0.8116619766
 40
0.8614632161
 40
0.9090069401
 40
0.9549438774
 40
1.0
 40
1.0
 40
1.0
 40
1.0
 10
21.9880265404
 20
43.8780000187
 30
0.0
 10
21.4709994647
 20
43.8779987759
 30
0.0
 10
20.449110389
 20
43.9353339699
 30
0.0
 10
18.9681041366
 20
44.1912626438
 30
0.0
 10
17.5994572069
 20
44.607338335
 30
0.0
 10
16.3942282933
 20
45.1684132702
 30
0.0
 10
15.5391465662
 20
45.7572430764
 30
0.0
 10
14.9869498701
 20
46.2856664222
 30
0.0
 10
14.6509848043
 20
46.6929115032
 30
0.0
 10
14.385355425
 20
47.1180717137
 30
0.0
 10
14.193033551
 20
47.5574186498
 30
0.0
 10
14.0766693082
 20
48.0064396745
 30
0.0
 10
14.0504945768
 20
48.3104139536
 30
0.0
 10
14.0504934935
 20
48.460633187
 30
0.0
  0
SPLINE
  5
252
100
AcDbEntity
  8
0
100
AcDbSpline
 62
7
  6
BYLAYER
 70
0
 71
3
 72
18
 73
14
 74
0
 42
0.0000001
 43
0.0000001
 44
0.0000000001
 40
0.0
 40
0.0
 40
0.0
 40
0.0
 40
0.1455315689
 40
0.2943954381
 40
0.4407537957
 40
0.579034369
 40
0.6437532726
 40
0.7049144237
 40
0.8156016045
 40
0.8655158414
 40
0.9123095547
 40
0.9568008675
 40
1.0
 40
1.0
 40
1.0
 40
1.0
 10
19.6153731256
 20
53.2199382311
 30
0.0
 10
19.3022884558
 20
53.2929855975
 30
0.0
 10
18.6565270422
 20
53.3908971289
 30
0.0
 10
17.6799295101
 20
53.4005020315
 30
0.0
 10
16.7271705295
 20
53.2761374038
 30
0.0
 10
15.981844454
 20
53.0619269084
 30
0.0
 10
15.4468195928
 20
52.8265793422
 30
0.0
 10
14.991185783
 20
52.569935179
 30
0.0
 10
14.6027878997
 20
52.2608434134
 30
0.0
 10
14.3157833029
 20
51.9014973594
 30
0.0
 10
14.1639262353
 20
51.6270507915
 30
0.0
 10
14.0714563098
 20
51.3427503031
 30
0.0
 10
14.0504928053
 20
51.1484594136
 30
0.0
 10
14.0504934935
 20
51.0530283614
 30
0.0
  0
SPLINE
  5
253
100
AcDbEntity
  8
0
100
AcDbSpline
 62
7
  6
BYLAYER
 70
0
 71
3
 72
9
 73
5
 74
0
 42
0.0000001
 43
0.0000001
 44
0.0000000001
 40
0.0
 40
0.0
 40
0.0
 40
0.0
 40
0.506144167
 40
1.0
 40
1.0
 40
1.0
 40
1.0
 10
22.5894348629
 20
52.8861097856
 30
0.0
 10
22.0836964019
 20
52.88610857
 30
0.0
 10
21.0837322844
 20
52.9409779896
 30
0.0
 10
20.0959267303
 20
53.1078178411
 30
0.0
 10
19.6153731256
 20
53.2199382311
 30
0.0
  0
SPLINE
  5
254
100
AcDbEntity
  8
0
100
AcDbSpline
 62
7
  6
BYLAYER
 70
0
 71
3
 72
17
 73
13
 74
0
 42
0.0000001
 43
0.0000001
 44
0.0000000001
 40
0.0
 40
0.0
 40
0.0
 40
0.0
 40
0.1568845115
 40
0.306123182
 40
0.4459693838
 40
0.5753148479
 40
0.6938759578
 40
0.8024669538
 40
0.8537232022
 40
0.9034047092
 40
0.9519857897
 40
1.0
 40
1.0
 40
1.0
 40
1.0
 10
15.0768428499
 20
52.5712124582
 30
0.0
 10
14.6599428961
 20
52.4878683489
 30
0.0
 10
13.8534311572
 20
52.2868799228
 30
0.0
 10
12.7151176242
 20
51.8740077732
 30
0.0
 10
11.6985973816
 20
51.3649733353
 30
0.0
 10
10.8273638863
 20
50.7708233725
 30
0.0
 10
10.1218107186
 20
50.1041782317
 30
0.0
 10
9.6780369059
 20
49.4864170168
 30
0.0
 10
9.4305038516
 20
48.9740696344
 30
0.0
 10
9.2993812357
 20
48.5895342139
 30
0.0
 10
9.2202332645
 20
48.2000158066
 30
0.0
 10
9.2026146925
 20
47.9379109645
 30
0.0
 10
9.2026149594
 20
47.8077948607
 30
0.0
  0
SPLINE
  5
255
100
AcDbEntity
  8
0
100
AcDbSpline
 62
7
  6
BYLAYER
 70
0
 71
3
 72
19
 73
15
 74
0
 42
0.0000001
 43
0.0000001
 44
0.0000000001
 40
0.0
 40
0.0
 40
0.0
 40
0.0
 40
0.1550517047
 40
0.3061630692
 40
0.4497286519
 40
0.582780566
 40
0.6447828768
 40
0.7035670029
 40
0.7591510119
 40
0.8116864869
 40
0.8614855395
 40
0.9090215434
 40
0.954935931
 40
1.0
 40
1.0
 40
1.0
 40
1.0
 10
17.9338614067
 20
37.5820870299
 30
0.0
 10
17.3651396324
 20
37.5820856629
 30
0.0
 10
16.2410851014
 20
37.645143855
 30
0.0
 10
14.6118706418
 20
37.9267047457
 30
0.0
 10
13.1067137169
 20
38.3842157949
 30
0.0
 10
11.9756687518
 20
38.9107753797
 30
0.0
 10
11.1882384175
 20
39.4097234533
 30
0.0
 10
10.6758424996
 20
39.8063888817
 30
0.0
 10
10.232661709
 20
40.2305384141
 30
0.0
 10
9.8631174719
 20
40.6785130646
 30
0.0
 10
9.5708953045
 20
41.1461946954
 30
0.0
 10
9.3594637303
 20
41.6294653339
 30
0.0
 10
9.2312735808
 20
42.1233299839
 30
0.0
 10
9.2026146238
 20
42.4577117777
 30
0.0
 10
9.2026149595
 20
42.6230044929
 30
0.0
  0
SPLINE
  5
256
100
AcDbEntity
  8
0
100
AcDbSpline
 62
7
  6
BYLAYER
 70
0
 71
3
 72
18
 73
14
 74
0
 42
0.0000001
 43
0.0000001
 44
0.0000000001
 40
0.0
 40
0.0
 40
0.0
 40
0.0
 40
0.045056121
 40
0.0909930542
 40
0.1385367746
 40
0.1883380122
 40
0.2408815551
 40
0.2964727344
 40
0.417139242
 40
0.5502102078
 40
0.6937957824
 40
0.8449250725
 40
1.0
 40
1.0
 40
1.0
 40
1.0
 10
64.0290461345
 20
70.742644287
 30
0.0
 10
64.0290450512
 20
70.8928635152
 30
0.0
 10
64.0028703321
 20
71.1968377765
 30
0.0
 10
63.8865060916
 20
71.6458587697
 30
0.0
 10
63.6941842479
 20
72.0852056831
 30
0.0
 10
63.4285548882
 20
72.5103658741
 30
0.0
 10
63.0925898596
 20
72.917610958
 30
0.0
 10
62.5403931841
 20
73.4460342907
 30
0.0
 10
61.6853114944
 20
74.0348641165
 30
0.0
 10
60.4800825919
 20
74.5959390747
 30
0.0
 10
59.1114356395
 20
75.0120147982
 30
0.0
 10
57.6304293255
 20
75.2679434964
 30
0.0
 10
56.6085401949
 20
75.3252786981
 30
0.0
 10
56.0915130876
 20
75.3252774553
 30
0.0
  0
SPLINE
  5
257
100
AcDbEntity
  8
0
100
AcDbSpline
 62
7
  6
BYLAYER
 70
0
 71
3
 72
17
 73
13
 74
0
 42
0.0000001
 43
0.0000001
 44
0.0000000001
 40
0.0
 40
0.0
 40
0.0
 40
0.0
 40
0.1550920831
 40
0.3062737452
 40
0.4498765097
 40
0.58297558
 40
0.7036629886
 40
0.8116287622
 40
0.8614443446
 40
0.9089964665
 40
0.954926408
 40
1.0
 40
1.0
 40
1.0
 40
1.0
 10
56.0915130876
 20
75.3252774553
 30
0.0
 10
55.8278516806
 20
75.3252768215
 30
0.0
 10
55.3066787751
 20
75.29601626
 30
0.0
 10
54.5513421183
 20
75.1655155394
 30
0.0
 10
53.8533820522
 20
74.9533179767
 30
0.0
 10
53.2385352426
 20
74.6670040453
 30
0.0
 10
52.7292685421
 20
74.3164642215
 30
0.0
 10
52.3997103197
 20
73.9697414598
 30
0.0
 10
52.2141652105
 20
73.6728179992
 30
0.0
 10
52.1161482944
 20
73.4487360911
 30
0.0
 10
52.0567438967
 20
73.2197706887
 30
0.0
 10
52.0434059949
 20
73.0647513768
 30
0.0
 10
52.0434079376
 20
72.9881248564
 30
0.0
  0
SPLINE
  5
258
100
AcDbEntity
  8
0
100
AcDbSpline
 62
7
  6
BYLAYER
 70
0
 71
3
 72
13
 73
9
 74
0
 42
0.0000001
 43
0.0000001
 44
0.0000000001
 40
0.0
 40
0.0
 40
0.0
 40
0.0
 40
0.308019535
 40
0.445183857
 40
0.5716899519
 40
0.7968568353
 40
0.8999598378
 40
1.0
 40
1.0
 40
1.0
 40
1.0
 10
69.222212622
 20
54.5130799289
 30
0.0
 10
69.1979626604
 20
54.6433926533
 30
0.0
 10
69.1508177667
 20
54.8302473279
 30
0.0
 10
69.0565090065
 20
55.0579818917
 30
0.0
 10
68.9550119857
 20
55.2424242389
 30
0.0
 10
68.8278993859
 20
55.3960292007
 30
0.0
 10
68.6761518061
 20
55.5022712337
 30
0.0
 10
68.5957537514
 20
55.5382348384
 30
0.0
 10
68.5549128111
 20
55.5518487796
 30
0.0
  0
SPLINE
  5
259
100
AcDbEntity
  8
0
100
AcDbSpline
 62
7
  6
BYLAYER
 70
0
 71
3
 72
13
 73
9
 74
0
 42
0.0000001
 43
0.0000001
 44
0.0000000001
 40
0.0
 40
0.0
 40
0.0
 40
0.0
 40
0.3123909921
 40
0.5773693127
 40
0.6937658207
 40
0.8013112795
 40
0.902384781
 40
1.0
 40
1.0
 40
1.0
 40
1.0
 10
63.8975806274
 20
56.1613370814
 30
0.0
 10
64.0026311906
 20
56.2663871528
 30
0.0
 10
64.2094117749
 20
56.4486870949
 30
0.0
 10
64.4953730951
 20
56.6195198067
 30
0.0
 10
64.7159128383
 20
56.6956810603
 30
0.0
 10
64.8689255796
 20
56.7224668863
 30
0.0
 10
65.0154261437
 20
56.7209442397
 30
0.0
 10
65.1085407954
 20
56.7006154554
 30
0.0
 10
65.1525807762
 20
56.6859335922
 30
0.0
  0
SPLINE
  5
25A
100
AcDbEntity
  8
0
100
AcDbSpline
 62
7
  6
BYLAYER
 70
0
 71
3
 72
15
 73
11
 74
0
 42
0.0000001
 43
0.0000001
 44
0.0000000001
 40
0.0
 40
0.0
 40
0.0
 40
0.0
 40
0.169881059
 40
0.3269007872
 40
0.4699446827
 40
0.5988359076
 40
0.7141366332
 40
0.8173684631
 40
0.9112614174
 40
1.0
 40
1.0
 40
1.0
 40
1.0
 10
71.6370388585
 20
52.4577167075
 30
0.0
 10
71.6370388585
 20
52.5499804314
 30
0.0
 10
71.6312301723
 20
52.7276057856
 30
0.0
 10
71.6031743211
 20
52.9815841889
 30
0.0
 10
71.5561884558
 20
53.2101725099
 30
0.0
 10
71.4908788071
 20
53.410659474
 30
0.0
 10
71.4076469261
 20
53.5808356542
 30
0.0
 10
71.3070359368
 20
53.7188417738
 30
0.0
 10
71.1893791742
 20
53.8223095987
 30
0.0
 10
71.0992707553
 20
53.8670642127
 30
0.0
 10
71.0535498711
 20
53.8823063116
 30
0.0
  0
SPLINE
  5
25B
100
AcDbEntity
  8
0
100
AcDbSpline
 62
7
  6
BYLAYER
 70
0
 71
3
 72
11
 73
7
 74
0
 42
0.0000001
 43
0.0000001
 44
0.0000000001
 40
0.0
 40
0.0
 40
0.0
 40
0.0
 40
0.2658735596
 40
0.5185900664
 40
0.7617998973
 40
1.0
 40
1.0
 40
1.0
 40
1.0
 10
64.0893289439
 20
67.8096636706
 30
0.0
 10
64.207699083
 20
67.9647351438
 30
0.0
 10
64.4190952479
 20
68.2829526923
 30
0.0
 10
64.6553716914
 20
68.7920904422
 30
0.0
 10
64.7988430484
 20
69.3139630026
 30
0.0
 10
64.8309651228
 20
69.6679923393
 30
0.0
 10
64.8309647643
 20
69.8427730469
 30
0.0
  0
SPLINE
  5
25C
100
AcDbEntity
  8
0
100
AcDbSpline
 62
7
  6
BYLAYER
 70
0
 71
3
 72
19
 73
15
 74
0
 42
0.0000001
 43
0.0000001
 44
0.0000000001
 40
0.0
 40
0.0
 40
0.0
 40
0.0
 40
0.0450641254
 40
0.0909783677
 40
0.1385140304
 40
0.1883125222
 40
0.2408472713
 40
0.2964304078
 40
0.3552137031
 40
0.4172151745
 40
0.5502662469
 40
0.6938321812
 40
0.844945585
 40
1.0
 40
1.0
 40
1.0
 40
1.0
 10
9.2026149594
 20
47.8077948607
 30
0.0
 10
9.2026152985
 20
47.6425019351
 30
0.0
 10
9.2312726916
 20
47.3081203896
 30
0.0
 10
9.3594633631
 20
46.814257404
 30
0.0
 10
9.5708920728
 20
46.3309898222
 30
0.0
 10
9.8631104807
 20
45.8633128289
 30
0.0
 10
10.2326484497
 20
45.4153434129
 30
0.0
 10
10.6758203958
 20
44.9911974887
 30
0.0
 10
11.1882080333
 20
44.5945366443
 30
0.0
 10
11.9756265649
 20
44.0955872533
 30
0.0
 10
13.1066651866
 20
43.5690251266
 30
0.0
 10
14.6118251768
 20
43.1115045558
 30
0.0
 10
16.2410577287
 20
42.8299369249
 30
0.0
 10
17.3651296788
 20
42.7668760116
 30
0.0
 10
17.9338614067
 20
42.7668773787
 30
0.0
  0
SPLINE
  5
25D
100
AcDbEntity
  8
0
100
AcDbSpline
 62
7
  6
BYLAYER
 70
0
 71
3
 72
13
 73
9
 74
0
 42
0.0000001
 43
0.0000001
 44
0.0000000001
 40
0.0
 40
0.0
 40
0.0
 40
0.0
 40
0.0976154413
 40
0.1986884903
 40
0.3062339072
 40
0.4226311646
 40
0.6876127683
 40
1.0
 40
1.0
 40
1.0
 40
1.0
 10
68.5549128111
 20
55.5518487796
 30
0.0
 10
68.5108723013
 20
55.5665292671
 30
0.0
 10
68.4177578949
 20
55.5868562734
 30
0.0
 10
68.271257609
 20
55.5883840259
 30
0.0
 10
68.1182449485
 20
55.5615962505
 30
0.0
 10
67.8977035846
 20
55.4854350239
 30
0.0
 10
67.6117431344
 20
55.314600749
 30
0.0
 10
67.4049622506
 20
55.1323021135
 30
0.0
 10
67.2999130399
 20
55.0272533945
 30
0.0
  0
SPLINE
  5
25E
100
AcDbEntity
  8
0
100
AcDbSpline
 62
7
  6
BYLAYER
 70
0
 71
3
 72
18
 73
14
 74
0
 42
0.0000001
 43
0.0000001
 44
0.0000000001
 40
0.0
 40
0.0
 40
0.0
 40
0.0
 40
0.045056121
 40
0.0909930542
 40
0.1385367746
 40
0.1883380122
 40
0.2408815551
 40
0.2964727344
 40
0.417139242
 40
0.5502102078
 40
0.6937957824
 40
0.8449250725
 40
1.0
 40
1.0
 40
1.0
 40
1.0
 10
14.0504934935
 20
51.0530283614
 30
0.0
 10
14.0504945768
 20
50.9028091332
 30
0.0
 10
14.0766692959
 20
50.5988348719
 30
0.0
 10
14.1930335365
 20
50.1498138786
 30
0.0
 10
14.3853553802
 20
49.7104669653
 30
0.0
 10
14.6509847399
 20
49.2853067743
 30
0.0
 10
14.9869497684
 20
48.8780616904
 30
0.0
 10
15.5391464439
 20
48.3496383576
 30
0.0
 10
16.3942281336
 20
47.7608085319
 30
0.0
 10
17.5994570362
 20
47.1997335737
 30
0.0
 10
18.9681039885
 20
46.7836578502
 30
0.0
 10
20.4491103026
 20
46.527729152
 30
0.0
 10
21.4709994331
 20
46.4703939503
 30
0.0
 10
21.9880265404
 20
46.4703951931
 30
0.0
  0
SPLINE
  5
25F
100
AcDbEntity
  8
0
100
AcDbSpline
 62
7
  6
BYLAYER
 70
0
 71
3
 72
20
 73
16
 74
0
 42
0.0000001
 43
0.0000001
 44
0.0000000001
 40
0.0
 40
0.0
 40
0.0
 40
0.0
 40
0.0324166782
 40
0.0677889655
 40
0.1082400537
 40
0.1548837643
 40
0.208044853
 40
0.2675217524
 40
0.3327322541
 40
0.4028392393
 40
0.553442293
 40
0.709904429
 40
0.8619550182
 40
0.9333187889
 40
1.0
 40
1.0
 40
1.0
 40
1.0
 10
71.0535498711
 20
53.8823063116
 30
0.0
 10
70.9951058994
 20
53.9017899419
 30
0.0
 10
70.864650969
 20
53.9204210047
 30
0.0
 10
70.659694055
 20
53.883048264
 30
0.0
 10
70.4462576388
 20
53.7859125697
 30
0.0
 10
70.2270378824
 20
53.6323657194
 30
0.0
 10
70.0049888445
 20
53.4255301194
 30
0.0
 10
69.7839782596
 20
53.1690988384
 30
0.0
 10
69.5680373367
 20
52.8678891858
 30
0.0
 10
69.2857987797
 20
52.4030797602
 30
0.0
 10
68.977163722
 20
51.7538384748
 30
0.0
 10
68.6941685959
 20
50.9267767585
 30
0.0
 10
68.5385036625
 20
50.2197539529
 30
0.0
 10
68.4737558181
 20
49.671903557
 30
0.0
 10
68.4620617541
 20
49.4094783793
 30
0.0
 10
68.4620617541
 20
49.2827544651
 30
0.0
  0
SPLINE
  5
260
100
AcDbEntity
  8
0
100
AcDbSpline
 62
7
  6
BYLAYER
 70
0
 71
3
 72
15
 73
11
 74
0
 42
0.0000001
 43
0.0000001
 44
0.0000000001
 40
0.0
 40
0.0
 40
0.0
 40
0.0
 40
0.088738111
 40
0.1826314487
 40
0.2858638382
 40
0.4011644752
 40
0.5300570219
 40
0.6731027743
 40
0.8301224305
 40
1.0
 40
1.0
 40
1.0
 40
1.0
 10
66.2959140918
 20
48.7746905615
 30
0.0
 10
66.2501941302
 20
48.7899344837
 30
0.0
 10
66.1600843537
 20
48.8346852306
 30
0.0
 10
66.0424288436
 20
48.9381555821
 30
0.0
 10
65.9418169293
 20
49.0761608871
 30
0.0
 10
65.858583543
 20
49.2463374619
 30
0.0
 10
65.7932745363
 20
49.4468262112
 30
0.0
 10
65.7462884337
 20
49.6754159797
 30
0.0
 10
65.7182334387
 20
49.9293933229
 30
0.0
 10
65.7124244877
 20
50.1070165579
 30
0.0
 10
65.7124244877
 20
50.1992783054
 30
0.0
  0
SPLINE
  5
261
100
AcDbEntity
  8
0
100
AcDbSpline
 62
7
  6
BYLAYER
 70
0
 71
3
 72
11
 73
7
 74
0
 42
0.0000001
 43
0.0000001
 44
0.0000000001
 40
0.0
 40
0.0
 40
0.0
 40
0.0
 40
0.2614333819
 40
0.518160355
 40
0.7656422445
 40
1.0
 40
1.0
 40
1.0
 40
1.0
 10
17.9338614067
 20
42.7668773787
 30
0.0
 10
18.414387927
 20
42.7668785337
 30
0.0
 10
19.367422315
 20
42.8121501004
 30
0.0
 10
20.7623396723
 20
43.0145883225
 30
0.0
 10
22.0812557587
 20
43.3459642981
 30
0.0
 10
22.9131694678
 20
43.6570123975
 30
0.0
 10
23.3059016942
 20
43.8339751539
 30
0.0
  0
SPLINE
  5
262
100
AcDbEntity
  8
0
100
AcDbSpline
 62
7
  6
BYLAYER
 70
0
 71
3
 72
11
 73
7
 74
0
 42
0.0000001
 43
0.0000001
 44
0.0000000001
 40
0.0
 40
0.0
 40
0.0
 40
0.0
 40
0.2021309796
 40
0.4359530837
 40
0.7027166826
 40
1.0
 40
1.0
 40
1.0
 40
1.0
 10
61.2776979973
 20
52.0066785756
 30
0.0
 10
61.2523190696
 20
52.0444304661
 30
0.0
 10
61.2081797598
 20
52.1330443864
 30
0.0
 10
61.1638310496
 20
52.2854019284
 30
0.0
 10
61.1373118605
 20
52.4634340714
 30
0.0
 10
61.1319596039
 20
52.5904776995
 30
0.0
 10
61.1319596039
 20
52.6573812065
 30
0.0
  0
SPLINE
  5
263
100
AcDbEntity
  8
0
100
AcDbSpline
 62
7
  6
BYLAYER
 70
0
 71
3
 72
21
 73
17
 74
0
 42
0.0000001
 43
0.0000001
 44
0.0000000001
 40
0.0
 40
0.0
 40
0.0
 40
0.0
 40
0.0666764908
 40
0.1380336086
 40
0.2900696158
 40
0.4465175864
 40
0.523206326
 40
0.5971838241
 40
0.667287551
 40
0.7324946439
 40
0.7919684891
 40
0.8451263227
 40
0.8917667091
 40
0.932215283
 40
0.9675851558
 40
1.0
 40
1.0
 40
1.0
 40
1.0
 10
65.7124244877
 20
50.1992783054
 30
0.0
 10
65.7124244877
 20
50.3260024646
 30
0.0
 10
65.7241180252
 20
50.5884235104
 30
0.0
 10
65.7888641444
 20
51.1362754223
 30
0.0
 10
65.9445317987
 20
51.8431961946
 30
0.0
 10
66.1819314431
 20
52.5374180832
 30
0.0
 10
66.4183915421
 20
53.0714059328
 30
0.0
 10
66.6117244453
 20
53.4441361025
 30
0.0
 10
66.8183969329
 20
53.784390645
 30
0.0
 10
67.0343273899
 20
54.0856074533
 30
0.0
 10
67.255342744
 20
54.3420455492
 30
0.0
 10
67.4773932639
 20
54.5488848121
 30
0.0
 10
67.6966159628
 20
54.7024301543
 30
0.0
 10
67.9100511228
 20
54.7995733543
 30
0.0
 10
68.1150104726
 20
54.8369407718
 30
0.0
 10
68.2454678898
 20
54.8183146879
 30
0.0
 10
68.303911988
 20
54.7988282916
 30
0.0
  0
SPLINE
  5
264
100
AcDbEntity
  8
0
100
AcDbSpline
 62
7
  6
BYLAYER
 70
0
 71
3
 72
11
 73
7
 74
0
 42
0.0000001
 43
0.0000001
 44
0.0000000001
 40
0.0
 40
0.0
 40
0.0
 40
0.0
 40
0.2638828098
 40
0.5162305833
 40
0.7602944227
 40
1.0
 40
1.0
 40
1.0
 40
1.0
 10
52.3383077797
 20
72.1124205894
 30
0.0
 10
52.4310683024
 20
71.9799021402
 30
0.0
 10
52.59637735
 20
71.7087290629
 30
0.0
 10
52.7802738146
 20
71.2786306056
 30
0.0
 10
52.8915881337
 20
70.8394212399
 30
0.0
 10
52.9165475791
 20
70.5423101358
 30
0.0
 10
52.9165486387
 20
70.3953725716
 30
0.0
  0
SPLINE
  5
265
100
AcDbEntity
  8
0
100
AcDbSpline
 62
7
  6
BYLAYER
 70
0
 71
3
 72
13
 73
9
 74
0
 42
0.0000001
 43
0.0000001
 44
0.0000000001
 40
0.0
 40
0.0
 40
0.0
 40
0.0
 40
0.2789338655
 40
0.5424936374
 40
0.666425608
 40
0.784188447
 40
0.8954478627
 40
1.0
 40
1.0
 40
1.0
 40
1.0
 10
57.4160003672
 20
48.4734561393
 30
0.0
 10
57.9800518357
 20
48.5282089016
 30
0.0
 10
59.0717227939
 20
48.704093081
 30
0.0
 10
60.3712197366
 20
49.1032622601
 30
0.0
 10
61.3092927104
 20
49.5228370462
 30
0.0
 10
61.936248165
 20
49.8731381722
 30
0.0
 10
62.4932202109
 20
50.2612464478
 30
0.0
 10
62.8238056908
 20
50.551166998
 30
0.0
 10
62.9740067352
 20
50.7013673393
 30
0.0
  0
SPLINE
  5
266
100
AcDbEntity
  8
0
100
AcDbSpline
 62
7
  6
BYLAYER
 70
0
 71
3
 72
16
 73
12
 74
0
 42
0.0000001
 43
0.0000001
 44
0.0000000001
 40
0.0
 40
0.0
 40
0.0
 40
0.0
 40
0.0495404464
 40
0.0995482523
 40
0.2025525717
 40
0.3122066027
 40
0.430568692
 40
0.5586956185
 40
0.6967618896
 40
0.8442254421
 40
1.0
 40
1.0
 40
1.0
 40
1.0
 10
47.368544573
 20
69.8427730659
 30
0.0
 10
47.3685448114
 20
69.726606355
 30
0.0
 10
47.3825710537
 20
69.4929206552
 30
0.0
 10
47.4672608587
 20
69.024634523
 30
0.0
 10
47.6830727017
 20
68.4417740698
 30
0.0
 10
48.1009104537
 20
67.7820124425
 30
0.0
 10
48.6694864711
 20
67.1650689836
 30
0.0
 10
49.3770442184
 20
66.6012579232
 30
0.0
 10
50.2101693364
 20
66.0998196608
 30
0.0
 10
51.1533403779
 20
65.669498927
 30
0.0
 10
51.8278936705
 20
65.4405876356
 30
0.0
 10
52.1786963311
 20
65.3387922115
 30
0.0
  0
SPLINE
  5
267
100
AcDbEntity
  8
0
100
AcDbSpline
 62
7
  6
BYLAYER
 70
0
 71
3
 72
10
 73
6
 74
0
 42
0.0000001
 43
0.0000001
 44
0.0000000001
 40
0.0
 40
0.0
 40
0.0
 40
0.0
 40
0.2282860098
 40
0.4753711277
 40
1.0
 40
1.0
 40
1.0
 40
1.0
 10
61.1319596039
 20
52.6573812065
 30
0.0
 10
61.1319596039
 20
52.7473802291
 30
0.0
 10
61.1425017597
 20
52.9348706923
 30
0.0
 10
61.1993125859
 20
53.3252924988
 30
0.0
 10
61.2786751672
 20
53.6205675705
 30
0.0
 10
61.3459768542
 20
53.8161399885
 30
0.0
  0
SPLINE
  5
268
100
AcDbEntity
  8
0
100
AcDbSpline
 62
7
  6
BYLAYER
 70
0
 71
3
 72
17
 73
13
 74
0
 42
0.0000001
 43
0.0000001
 44
0.0000000001
 40
0.0
 40
0.0
 40
0.0
 40
0.0
 40
0.1697319124
 40
0.3335651671
 40
0.4866204489
 40
0.6246717938
 40
0.7446309681
 40
0.8451813607
 40
0.8886393501
 40
0.9282256632
 40
0.9648985584
 40
1.0
 40
1.0
 40
1.0
 40
1.0
 10
61.3459768542
 20
53.8161399885
 30
0.0
 10
61.3829840337
 20
53.9236793967
 30
0.0
 10
61.4639979947
 20
54.1322816294
 30
0.0
 10
61.6063853431
 20
54.4260253559
 30
0.0
 10
61.7635413265
 20
54.687757118
 30
0.0
 10
61.9298265902
 20
54.9081861201
 30
0.0
 10
62.0992476396
 20
55.079605103
 30
0.0
 10
62.2456856442
 20
55.1819305356
 30
0.0
 10
62.3595416744
 20
55.2297102264
 30
0.0
 10
62.4380935616
 20
55.2481042584
 30
0.0
 10
62.5132349584
 20
55.2502652355
 30
0.0
 10
62.5608722161
 20
55.240543842
 30
0.0
 10
62.5831868308
 20
55.2331117999
 30
0.0
  0
SPLINE
  5
269
100
AcDbEntity
  8
0
100
AcDbSpline
 62
7
  6
BYLAYER
 70
0
 71
3
 72
15
 73
11
 74
0
 42
0.0000001
 43
0.0000001
 44
0.0000000001
 40
0.0
 40
0.0
 40
0.0
 40
0.0
 40
0.169881059
 40
0.3269007872
 40
0.4699446827
 40
0.5988359076
 40
0.7141366332
 40
0.8173684631
 40
0.9112614174
 40
1.0
 40
1.0
 40
1.0
 40
1.0
 10
68.4620617541
 20
49.2827544651
 30
0.0
 10
68.4620617541
 20
49.1904907413
 30
0.0
 10
68.4678704403
 20
49.0128653871
 30
0.0
 10
68.4959262915
 20
48.7588869838
 30
0.0
 10
68.5429121568
 20
48.5302986628
 30
0.0
 10
68.6082218055
 20
48.3298116987
 30
0.0
 10
68.6914536865
 20
48.1596355184
 30
0.0
 10
68.7920646758
 20
48.0216293988
 30
0.0
 10
68.9097214384
 20
47.918161574
 30
0.0
 10
68.9998298573
 20
47.87340696
 30
0.0
 10
69.0455507415
 20
47.858164861
 30
0.0
  0
SPLINE
  5
26A
100
AcDbEntity
  8
0
100
AcDbSpline
 62
7
  6
BYLAYER
 70
0
 71
3
 72
23
 73
19
 74
0
 42
0.0000001
 43
0.0000001
 44
0.0000000001
 40
0.0
 40
0.0
 40
0.0
 40
0.0
 40
0.0428138433
 40
0.0873956266
 40
0.1351778971
 40
0.1870865443
 40
0.2435332632
 40
0.3044902986
 40
0.369587191
 40
0.438194643
 40
0.5094925739
 40
0.582528607
 40
0.6562709567
 40
0.7296596341
 40
0.8016502411
 40
0.8712486499
 40
0.937615953
 40
1.0
 40
1.0
 40
1.0
 40
1.0
 10
50.5436694244
 20
52.992676937
 30
0.0
 10
50.5436728046
 20
53.1508488201
 30
0.0
 10
50.5859739381
 20
53.4750979621
 30
0.0
 10
50.77194549
 20
53.9432781091
 30
0.0
 10
51.0736851695
 20
54.3871155998
 30
0.0
 10
51.4826584028
 20
54.7978268387
 30
0.0
 10
51.9894514853
 20
55.1681259866
 30
0.0
 10
52.5832440028
 20
55.4910774568
 30
0.0
 10
53.2516014089
 20
55.7603455037
 30
0.0
 10
53.980493329
 20
55.9704267346
 30
0.0
 10
54.754518641
 20
56.1169143054
 30
0.0
 10
55.557221528
 20
56.1967325565
 30
0.0
 10
56.371497356
 20
56.2082065243
 30
0.0
 10
57.1799943274
 20
56.1510717089
 30
0.0
 10
57.9654258371
 20
56.0265047717
 30
0.0
 10
58.711237401
 20
55.837220723
 30
0.0
 10
59.4013214914
 20
55.5871207872
 30
0.0
 10
59.8291633247
 20
55.3762176827
 30
0.0
 10
60.0287592648
 20
55.2609835199
 30
0.0
  0
ENDSEC
  0
SECTION
  2
OBJECTS
  0
DICTIONARY
  5
C
100
AcDbDictionary
280
0
281
1
  3
ACAD_GROUP
350
D
  3
ACAD_MLINESTYLE
350
17
  3
ACAD_LAYOUT
350
1A
  3
ACAD_PLOTSETTINGS
350
19
  3
ACAD_PLOTSTYLENAME
350
E
  0
DICTIONARY
  5
D
102
{ACAD_REACTORS
330
C
102
}
100
AcDbDictionary
280
0
281
1
  0
ACDBDICTIONARYWDFLT
  5
E
102
{ACAD_REACTORS
330
C
102
}
100
AcDbDictionary
281
1
  3
Normal
350
F
100
AcDbDictionaryWithDefault
340
F
  0
DICTIONARY
  5
17
102
{ACAD_REACTORS
330
C
102
}
100
AcDbDictionary
280
0
281
1
  3
Standard
350
18
  0
DICTIONARY
  5
19
102
{ACAD_REACTORS
330
C
102
}
100
AcDbDictionary
281
1
  0
DICTIONARY
  5
1A
102
{ACAD_REACTORS
330
C
102
}
100
AcDbDictionary
281
1
  3
Model
350
26B
  3
Layout1
350
26C
  0
ACDBPLACEHOLDER
  5
F
102
{ACAD_REACTORS
330
E
102
}
  0
MLINESTYLE
  5
18
102
{ACAD_REACTORS
330
17
102
}
100
AcDbMlineStyle
  2
STANDARD
 70
0
  3

 62
256
 51
90.0
 52
90.0
 71
2
 49
0.5
 62
256
  6
BYLAYER
 49
-0.5
 62
256
  6
BYLAYER
  0
LAYOUT
  5
26B
102
{ACAD_REACTORS
330
1A
102
}
100
AcDbPlotSettings
  1

  2
none_device
  4

  6

 40
0.0
 41
0.0
 42
0.0
 43
0.0
 44
210.0
 45
297.0
 46
0.0
 47
0.0
 48
0.0
 49
0.0
140
0.0
141
0.0
142
1.0
143
1.0
 70
1024
 72
1
 73
0
 74
0
  7

 75
0
147
1.0
148
0.0
149
0.0
100
AcDbLayout
  1
Model
 70
0
 71
0
 10
0.0
 20
0.0
 11
210.0
 21
297.0
 12
0.0
 22
0.0
 32
0.0
 14
0.0
 24
0.0
 34
0.0
 15
0.0
 25
0.0
 35
0.0
146
0.0
 13
0.0
 23
0.0
 33
0.0
 16
1.0
 26
0.0
 36
0.0
 17
0.0
 27
1.0
 37
0.0
 76
0
330
210
345
0
346
0
  0
LAYOUT
  5
26C
102
{ACAD_REACTORS
330
1A
102
}
100
AcDbPlotSettings
  1

  2
none_device
  4

  6

 40
0.0
 41
0.0
 42
0.0
 43
0.0
 44
210.0
 45
297.0
 46
0.0
 47
0.0
 48
0.0
 49
0.0
140
0.0
141
0.0
142
1.0
143
1.0
 70
0
 72
1
 73
0
 74
0
  7

 75
0
147
1.0
148
0.0
149
0.0
100
AcDbLayout
  1
Layout1
 70
0
 71
1
 10
0.0
 20
0.0
 11
210.0
 21
297.0
 12
0.0
 22
0.0
 32
0.0
 14
0.0
 24
0.0
 34
0.0
 15
0.0
 25
0.0
 35
0.0
146
0.0
 13
0.0
 23
0.0
 33
0.0
 16
1.0
 26
0.0
 36
0.0
 17
0.0
 27
1.0
 37
0.0
 76
0
330
211
345
0
346
0
  0
ENDSEC
  0
EOF
