999
DXF file: C:\Users\sesa63760\Dev\_Creo\CAD\MCADID0003008_3D-CAD\drw0001_1.dxf
999
Pro/ENGINEER 2019471 by Parametric Technology Corporation
  0
SECTION
  2
HEADER
  9
$ACADVER
  1
AC1024
  9
$DWGCODEPAGE
  3
ANSI_1252
  9
$EXTMAX
 10
80.6987541122
 20
114.1310951015
 30
0.0
  9
$EXTMIN
 10
0.0
 20
0.0
 30
0.0
  9
$LIMMIN
 10
0.0
 20
0.0
  9
$LIMMAX
 10
80.6987541122
 20
114.1310951015
  9
$VIEWCTR
 10
40.3493770561
 20
57.0655475507
  9
$VIEWSIZE
 40
114.1310951015
  9
$CLAYER
  8
0
  9
$LTSCALE
 40
7.4396565696
  9
$CELTYPE
  6
BYLAYER
  9
$DIMSCALE
 40
1.0
  9
$DIMASZ
 40
0.9606994537
  9
$DIMEXO
 40
1.0
  9
$DIMDLI
 40
5.1401263572
  9
$DIMEXE
 40
1.0
  9
$DIMCEN
 40
1.2173983477
  9
$DIMLFAC
 40
1.0
  9
$DIMBLK
  1
_FILLED
  9
$DIMALT
 70
0
  9
$DIMALTF
 40
0.0393700787
  9
$DIMTXT
 40
1.3449792352
  9
$DIMTOL
 70
1
  9
$DIMLIM
 70
0
  9
$DIMTFAC
 40
1.0
  9
$DIMTP
 40
0.01
  9
$DIMTM
 40
0.01
  9
$DIMGAP
 40
0.625
  9
$DIMDSEP
 70
46
  9
$AUNITS
 70
0
  9
$PDMODE
 70
3
  9
$PDSIZE
 40
0.3125
  9
$HANDSEED
  5
273
  9
$TILEMODE
 70
1
  9
$MEASUREMENT
 70
1
  9
$INSUNITS
 70
4
  0
ENDSEC
  0
SECTION
  2
CLASSES
  0
CLASS
  1
ACDBDICTIONARYWDFLT
  2
AcDbDictionaryWithDefault
  3
AutoCAD 2000
 90
0
 91
1
280
0
281
0
  0
CLASS
  1
ACDBPLACEHOLDER
  2
AcDbPlaceHolder
  3
AutoCAD 2000
 90
0
 91
1
280
0
281
0
  0
CLASS
  1
LAYOUT
  2
AcDbLayout
  3
AutoCAD 2000
 90
0
 91
0
280
0
281
0
  0
ENDSEC
  0
SECTION
  2
TABLES
  0
TABLE
  2
VPORT
  5
8
100
AcDbSymbolTable
 70
2
  0
VPORT
  5
1F4
100
AcDbSymbolTableRecord
100
AcDbViewportTableRecord
  2
*ACTIVE
 70
0
 10
0.0
 20
0.0
 11
1.0
 21
1.0
 12
40.3493770561
 22
57.0655475507
 13
0.0
 23
0.0
 14
1.0
 24
1.0
 15
0.0
 25
0.0
 16
0.0
 26
0.0
 36
1.0
 17
0.0
 27
0.0
 37
0.0
 40
114.1310951015
 41
0.7070707071
 42
50.0
 43
0.0
 44
0.0
 50
0.0
 51
0.0
 71
0
 72
100
 73
1
 74
1
 75
0
 76
0
 77
0
 78
0
  0
ENDTAB
  0
TABLE
  2
LTYPE
  5
5
100
AcDbSymbolTable
 70
6
  0
LTYPE
  5
14
100
AcDbSymbolTableRecord
100
AcDbLinetypeTableRecord
  2
BYBLOCK
 70
0
  3

 72
65
 73
0
 40
0.0
  0
LTYPE
  5
15
100
AcDbSymbolTableRecord
100
AcDbLinetypeTableRecord
  2
BYLAYER
 70
0
  3

 72
65
 73
0
 40
0.0
  0
LTYPE
  5
16
100
AcDbSymbolTableRecord
100
AcDbLinetypeTableRecord
  2
CONTINUOUS
 70
64
  3
Solid line
 72
65
 73
0
 40
0.0
  0
LTYPE
  5
1F5
100
AcDbSymbolTableRecord
100
AcDbLinetypeTableRecord
  2
CENTER
 70
64
  3
____ _ ____ _ ____ _ ____ _ ____ _ ____ _ ____
 72
65
 73
4
 40
0.6
 49
0.375
 74
0
 49
-0.075
 74
0
 49
0.075
 74
0
 49
-0.075
 74
0
  0
LTYPE
  5
1F6
100
AcDbSymbolTableRecord
100
AcDbLinetypeTableRecord
  2
HIDDEN
 70
64
  3
- - - - - - - - - - - - - - - - - - - -
 72
65
 73
2
 40
0.2
 49
0.1
 74
0
 49
-0.1
 74
0
  0
LTYPE
  5
1F7
100
AcDbSymbolTableRecord
100
AcDbLinetypeTableRecord
  2
PHANTOM
 70
64
  3
_____ _ _ _____ _ _ _____ _ _ _____
 72
65
 73
6
 40
0.8
 49
0.45
 74
0
 49
-0.05
 74
0
 49
0.1
 74
0
 49
-0.05
 74
0
 49
0.1
 74
0
 49
-0.05
 74
0
  0
LTYPE
  5
1F8
100
AcDbSymbolTableRecord
100
AcDbLinetypeTableRecord
  2
DOT
 70
64
  3
. . . . . . . . . . . . . . . . . . . .
 72
65
 73
2
 40
0.2
 49
0.1
 74
0
 49
-0.1
 74
0
  0
LTYPE
  5
1F9
100
AcDbSymbolTableRecord
100
AcDbLinetypeTableRecord
  2
DASHED
 70
64
  3
- - - - - - - - - - - - - - - - - - - -
 72
65
 73
2
 40
0.2
 49
0.1
 74
0
 49
-0.1
 74
0
  0
ENDTAB
  0
TABLE
  2
LAYER
  5
2
100
AcDbSymbolTable
 70
36
  0
LAYER
  5
10
100
AcDbSymbolTableRecord
100
AcDbLayerTableRecord
  2
0
 70
0
 62
7
  6
CONTINUOUS
370
-3
390
F
  0
LAYER
  5
1FA
100
AcDbSymbolTableRecord
100
AcDbLayerTableRecord
  2
DEFAULT_1
 70
0
 62
7
  6
CENTER
370
-3
390
F
  0
LAYER
  5
1FB
100
AcDbSymbolTableRecord
100
AcDbLayerTableRecord
  2
DEFAULT_2
 70
0
 62
7
  6
HIDDEN
370
-3
390
F
  0
LAYER
  5
1FC
100
AcDbSymbolTableRecord
100
AcDbLayerTableRecord
  2
DEFAULT_3
 70
0
 62
7
  6
PHANTOM
370
-3
390
F
  0
LAYER
  5
1FD
100
AcDbSymbolTableRecord
100
AcDbLayerTableRecord
  2
00_COMPONENTS
 70
0
 62
7
  6
CONTINUOUS
370
-3
390
F
  0
LAYER
  5
1FE
100
AcDbSymbolTableRecord
100
AcDbLayerTableRecord
  2
01_1_DEFAULT_DATUMS
 70
0
 62
7
  6
CONTINUOUS
370
-3
390
F
  0
LAYER
  5
1FF
100
AcDbSymbolTableRecord
100
AcDbLayerTableRecord
  2
01_PLANES
 70
0
 62
7
  6
CONTINUOUS
370
-3
390
F
  0
LAYER
  5
200
100
AcDbSymbolTableRecord
100
AcDbLayerTableRecord
  2
02_COORD_SYS
 70
0
 62
7
  6
CONTINUOUS
370
-3
390
F
  0
LAYER
  5
201
100
AcDbSymbolTableRecord
100
AcDbLayerTableRecord
  2
03_AXES
 70
0
 62
7
  6
CONTINUOUS
370
-3
390
F
  0
LAYER
  5
202
100
AcDbSymbolTableRecord
100
AcDbLayerTableRecord
  2
04_POINTS
 70
0
 62
7
  6
CONTINUOUS
370
-3
390
F
  0
LAYER
  5
203
100
AcDbSymbolTableRecord
100
AcDbLayerTableRecord
  2
05_CURVES
 70
0
 62
7
  6
CONTINUOUS
370
-3
390
F
  0
LAYER
  5
204
100
AcDbSymbolTableRecord
100
AcDbLayerTableRecord
  2
06_SURFS
 70
0
 62
7
  6
CONTINUOUS
370
-3
390
F
  0
LAYER
  5
205
100
AcDbSymbolTableRecord
100
AcDbLayerTableRecord
  2
07_COSMETICS
 70
0
 62
7
  6
CONTINUOUS
370
-3
390
F
  0
LAYER
  5
206
100
AcDbSymbolTableRecord
100
AcDbLayerTableRecord
  2
10_NOTES
 70
0
 62
7
  6
CONTINUOUS
370
-3
390
F
  0
LAYER
  5
207
100
AcDbSymbolTableRecord
100
AcDbLayerTableRecord
  2
11_NOTES_PUB
 70
0
 62
7
  6
CONTINUOUS
370
-3
390
F
  0
LAYER
  5
208
100
AcDbSymbolTableRecord
100
AcDbLayerTableRecord
  2
13_REF_GTOL
 70
0
 62
7
  6
CONTINUOUS
370
-3
390
F
  0
LAYER
  5
209
100
AcDbSymbolTableRecord
100
AcDbLayerTableRecord
  2
16_MISC
 70
0
 62
7
  6
CONTINUOUS
370
-3
390
F
  0
LAYER
  5
20A
100
AcDbSymbolTableRecord
100
AcDbLayerTableRecord
  2
17_NO_PRINT
 70
0
 62
7
  6
CONTINUOUS
370
-3
390
F
  0
LAYER
  5
20B
100
AcDbSymbolTableRecord
100
AcDbLayerTableRecord
  2
18_DATUM_CAMS_JOINTS
 70
0
 62
7
  6
CONTINUOUS
370
-3
390
F
  0
LAYER
  5
20C
100
AcDbSymbolTableRecord
100
AcDbLayerTableRecord
  2
19_DATUM_FUNCTIONAL
 70
0
 62
7
  6
CONTINUOUS
370
-3
390
F
  0
LAYER
  5
20D
100
AcDbSymbolTableRecord
100
AcDbLayerTableRecord
  2
20_DATUM_KINEMATIC_SCHEME
 70
0
 62
7
  6
CONTINUOUS
370
-3
390
F
  0
ENDTAB
  0
TABLE
  2
STYLE
  5
3
100
AcDbSymbolTable
 70
1
  0
STYLE
  5
11
100
AcDbSymbolTableRecord
100
AcDbTextStyleTableRecord
  2
STANDARD
 70
0
 40
0.0
 41
1.0
 50
0.0
 71
0
 42
0.2
  3
ARIAL.TTF
  4

  0
STYLE
  5
20E
100
AcDbSymbolTableRecord
100
AcDbTextStyleTableRecord
  2
TEXTSTYLE_1
 70
0
 40
0.0
 41
0.8
 50
0.0
 71
0
 42
0.2
  3
gdt
  4

  0
ENDTAB
  0
TABLE
  2
VIEW
  5
6
100
AcDbSymbolTable
 70
0
  0
ENDTAB
  0
TABLE
  2
UCS
  5
7
100
AcDbSymbolTable
 70
0
  0
ENDTAB
  0
TABLE
  2
APPID
  5
9
100
AcDbSymbolTable
 70
1
  0
APPID
  5
20F
100
AcDbSymbolTableRecord
100
AcDbRegAppTableRecord
  2
ACAD
 70
0
  0
ENDTAB
  0
TABLE
  2
BLOCK_RECORD
  5
1
100
AcDbSymbolTable
 70
0
  0
BLOCK_RECORD
  5
210
100
AcDbSymbolTableRecord
100
AcDbBlockTableRecord
  2
*Model_Space
  0
BLOCK_RECORD
  5
211
100
AcDbSymbolTableRecord
100
AcDbBlockTableRecord
  2
*Paper_Space
  0
BLOCK_RECORD
  5
212
100
AcDbSymbolTableRecord
100
AcDbBlockTableRecord
  2
_FILLED
  0
ENDTAB
  0
TABLE
  2
DIMSTYLE
  5
A
100
AcDbSymbolTable
 70
1
100
AcDbDimStyleTable
 71
0
  0
DIMSTYLE
105
213
100
AcDbSymbolTableRecord
100
AcDbDimStyleTableRecord
  2
STANDARD
 70
0
  3

  4

 40
1.0
 41
0.9606994537
 42
1.0
 43
0.38
 44
1.0
 45
0.0
 46
0.0
 47
0.01
 48
0.01
140
1.3449792352
141
0.09
142
0.0
143
25.4
144
1.0
145
0.0
146
1.0
147
0.625
 71
1
 72
0
 73
0
 74
0
 75
0
 76
0
 77
1
 78
8
 79
2
170
0
171
1
172
0
173
0
174
0
175
0
176
0
177
0
178
0
270
2
179
2
271
2
272
2
273
2
274
2
275
0
280
0
281
0
282
0
283
1
284
8
285
0
286
0
287
3
288
0
340
11
278
46
341
212
342
212
343
212
344
212
  0
ENDTAB
  0
ENDSEC
  0
SECTION
  2
BLOCKS
  0
BLOCK
  5
20
100
AcDbEntity
  8
0
100
AcDbBlockBegin
  2
*Model_Space
 70
0
 10
0.0
 20
0.0
 30
0.0
  3
*Model_Space
  1

  0
ENDBLK
  5
21
100
AcDbEntity
  8
0
100
AcDbBlockEnd
  0
BLOCK
  5
1C
100
AcDbEntity
  8
0
100
AcDbBlockBegin
  2
*Paper_Space
 70
0
 10
0.0
 20
0.0
 30
0.0
  3
*Paper_Space
  1

  0
ENDBLK
  5
1D
100
AcDbEntity
  8
0
100
AcDbBlockEnd
  0
BLOCK
  5
214
100
AcDbEntity
  8
0
100
AcDbBlockBegin
  2
_FILLED
 70
64
 10
0.0
 20
0.0
  3
_FILLED
  1

  0
SOLID
  5
215
100
AcDbEntity
  8
0
  6
BYBLOCK
 62
0
100
AcDbTrace
 10
0.0
 20
0.0
 11
-1.0
 21
0.25
 12
-1.0
 22
-0.25
 13
-1.0
 23
-0.25
  0
ENDBLK
  5
216
100
AcDbEntity
  8
0
  6
BYBLOCK
 62
0
100
AcDbBlockEnd
  0
ENDSEC
  0
SECTION
  2
ENTITIES
  0
LINE
  5
217
100
AcDbEntity
  8
0
100
AcDbLine
 62
7
  6
BYLAYER
 10
9.3619790135
 20
50.2657079983
 11
9.3619790135
 21
55.450498347
  0
LINE
  5
218
100
AcDbEntity
  8
0
100
AcDbLine
 62
7
  6
BYLAYER
 10
14.1244790135
 20
55.450498347
 11
14.1244790135
 21
56.7466959342
  0
LINE
  5
219
100
AcDbEntity
  8
0
100
AcDbLine
 62
7
  6
BYLAYER
 10
22.9411804989
 20
42.4473204042
 11
22.9411804989
 21
45.0397155786
  0
LINE
  5
21A
100
AcDbEntity
  8
0
100
AcDbLine
 62
7
  6
BYLAYER
 10
23.6494790135
 20
55.450498347
 11
23.6494790135
 21
56.7466959342
  0
LINE
  5
21B
100
AcDbEntity
  8
0
100
AcDbLine
 62
7
  6
BYLAYER
 10
57.0508077903
 20
40.4983573274
 11
45.3685073839
 21
40.5002774802
  0
LINE
  5
21C
100
AcDbEntity
  8
0
100
AcDbLine
 62
7
  6
BYLAYER
 10
38.8032412666
 20
42.4456529561
 11
22.9411804989
 21
42.4473204042
  0
LINE
  5
21D
100
AcDbEntity
  8
0
100
AcDbLine
 62
7
  6
BYLAYER
 10
45.3685073839
 20
40.5002774802
 11
38.8032412666
 21
42.4456529561
  0
LINE
  5
21E
100
AcDbEntity
  8
0
100
AcDbLine
 62
7
  6
BYLAYER
 10
28.4119790135
 20
50.2657079983
 11
28.4119790135
 21
55.450498347
  0
LINE
  5
21F
100
AcDbEntity
  8
0
100
AcDbLine
 62
7
  6
BYLAYER
 10
22.9411804989
 20
45.0397155786
 11
38.8032412666
 21
45.0380481305
  0
LINE
  5
220
100
AcDbEntity
  8
0
100
AcDbLine
 62
7
  6
BYLAYER
 10
45.3685073839
 20
46.9812654162
 11
57.0508077903
 21
46.9793452634
  0
LINE
  5
221
100
AcDbEntity
  8
0
100
AcDbLine
 62
7
  6
BYLAYER
 10
37.7419898209
 20
52.3901388465
 11
28.4119790135
 21
51.4844699631
  0
LINE
  5
222
100
AcDbEntity
  8
0
100
AcDbLine
 62
7
  6
BYLAYER
 10
46.5070917251
 20
55.1852681169
 11
44.2163821155
 21
54.9629077727
  0
LINE
  5
223
100
AcDbEntity
  8
0
100
AcDbLine
 62
7
  6
BYLAYER
 10
38.8032412666
 20
45.0380481305
 11
37.7419898209
 21
52.3901388465
  0
LINE
  5
224
100
AcDbEntity
  8
0
100
AcDbLine
 62
7
  6
BYLAYER
 10
69.9987027139
 20
46.4274792985
 11
67.2490654475
 21
47.3440031387
  0
LINE
  5
225
100
AcDbEntity
  8
0
100
AcDbLine
 62
7
  6
BYLAYER
 10
51.1623267411
 20
58.9731268343
 11
64.9871440611
 21
58.3080229712
  0
LINE
  5
226
100
AcDbEntity
  8
0
100
AcDbLine
 62
7
  6
BYLAYER
 10
44.2163821155
 20
54.9629077727
 11
37.7419898209
 21
52.3901388465
  0
LINE
  5
227
100
AcDbEntity
  8
0
100
AcDbLine
 62
7
  6
BYLAYER
 10
52.2508347718
 20
60.7667743828
 11
64.9852203192
 21
60.1541305536
  0
LINE
  5
228
100
AcDbEntity
  8
0
100
AcDbLine
 62
7
  6
BYLAYER
 10
63.53634802
 20
53.8024539569
 11
63.8259834456
 21
53.7059111235
  0
LINE
  5
229
100
AcDbEntity
  8
0
100
AcDbLine
 62
7
  6
BYLAYER
 10
45.3685073839
 20
46.9812654162
 11
44.2163821155
 21
54.9629077727
  0
LINE
  5
22A
100
AcDbEntity
  8
0
100
AcDbLine
 62
7
  6
BYLAYER
 10
47.5279086271
 20
68.4120934419
 11
47.5279086271
 21
63.2273030931
  0
LINE
  5
22B
100
AcDbEntity
  8
0
100
AcDbLine
 62
7
  6
BYLAYER
 10
68.2530669983
 20
53.59657378
 11
64.8507345858
 21
54.7306574669
  0
LINE
  5
22C
100
AcDbEntity
  8
0
100
AcDbLine
 62
7
  6
BYLAYER
 10
72.0067058156
 20
52.4516326451
 11
69.2570685492
 21
53.3681564854
  0
LINE
  5
22D
100
AcDbEntity
  8
0
100
AcDbLine
 62
7
  6
BYLAYER
 10
66.1057365244
 20
55.2552593405
 11
69.5080689369
 21
54.1211756537
  0
LINE
  5
22E
100
AcDbEntity
  8
0
100
AcDbLine
 62
7
  6
BYLAYER
 10
51.1623267411
 20
58.9731268343
 11
50.7772008957
 21
57.6506020799
  0
LINE
  5
22F
100
AcDbEntity
  8
0
100
AcDbLine
 62
7
  6
BYLAYER
 10
53.8697216253
 20
66.3260427718
 11
52.2508347718
 21
60.7667743828
  0
LINE
  5
230
100
AcDbEntity
  8
0
100
AcDbLine
 62
7
  6
BYLAYER
 10
52.2508347718
 20
60.7667743828
 11
51.1623267411
 21
58.9731268343
  0
LINE
  5
231
100
AcDbEntity
  8
0
100
AcDbLine
 62
7
  6
BYLAYER
 10
52.9965589
 20
68.9650500201
 11
52.9965589
 21
71.5574451944
  0
LINE
  5
232
100
AcDbEntity
  8
0
100
AcDbLine
 62
7
  6
BYLAYER
 10
38.8032412666
 20
45.0380481305
 11
45.3685073839
 21
46.9812654162
  0
LINE
  5
233
100
AcDbEntity
  8
0
100
AcDbLine
 62
7
  6
BYLAYER
 10
53.2914617381
 20
68.0893458005
 11
53.2914617381
 21
70.6817409749
  0
LINE
  5
234
100
AcDbEntity
  8
0
100
AcDbLine
 62
7
  6
BYLAYER
 10
53.8697025971
 20
68.9646929571
 11
53.8697216253
 21
66.3260427718
  0
LINE
  5
235
100
AcDbEntity
  8
0
100
AcDbLine
 62
7
  6
BYLAYER
 10
57.0508077903
 20
46.9793452634
 11
57.0508077903
 21
40.4983573274
  0
LINE
  5
236
100
AcDbEntity
  8
0
100
AcDbLine
 62
7
  6
BYLAYER
 10
61.2692184759
 20
53.6513042927
 11
64.9876202935
 21
57.3696887046
  0
LINE
  5
237
100
AcDbEntity
  8
0
100
AcDbLine
 62
7
  6
BYLAYER
 10
53.2914617381
 20
68.0893458005
 11
52.9966810802
 21
68.9650500685
  0
LINE
  5
238
100
AcDbEntity
  8
0
100
AcDbLine
 62
7
  6
BYLAYER
 10
52.9966812241
 20
71.5574452429
 11
53.2914617381
 21
70.6817409749
  0
LINE
  5
239
100
AcDbEntity
  8
0
100
AcDbLine
 62
7
  6
BYLAYER
 10
64.8507345858
 20
54.7306574669
 11
62.4484282622
 21
52.3283623883
  0
LINE
  5
23A
100
AcDbEntity
  8
0
100
AcDbLine
 62
7
  6
BYLAYER
 10
61.2692184759
 20
49.5599682098
 11
61.2692184759
 21
53.6513042927
  0
LINE
  5
23B
100
AcDbEntity
  8
0
100
AcDbLine
 62
7
  6
BYLAYER
 10
62.4484282622
 20
52.3283623883
 11
62.4484282622
 21
50.9142143578
  0
LINE
  5
23C
100
AcDbEntity
  8
0
100
AcDbLine
 62
7
  6
BYLAYER
 10
62.4484282622
 20
52.3283623883
 11
62.6092501245
 21
51.5619973468
  0
LINE
  5
23D
100
AcDbEntity
  8
0
100
AcDbLine
 62
7
  6
BYLAYER
 10
63.9271606936
 20
42.7896997889
 11
63.9271606936
 21
49.2706877248
  0
LINE
  5
23E
100
AcDbEntity
  8
0
100
AcDbLine
 62
7
  6
BYLAYER
 10
64.982223553
 20
66.058744879
 11
64.982200093
 21
69.3119646725
  0
LINE
  5
23F
100
AcDbEntity
  8
0
100
AcDbLine
 62
7
  6
BYLAYER
 10
64.9876202935
 20
54.8164996755
 11
64.982223553
 21
66.058744879
  0
LINE
  5
240
100
AcDbEntity
  8
0
100
AcDbLine
 62
7
  6
BYLAYER
 10
63.9271606936
 20
49.2706877248
 11
68.2530669983
 21
53.59657378
  0
LINE
  5
241
100
AcDbEntity
  8
0
100
AcDbLine
 62
7
  6
BYLAYER
 10
66.5779086271
 20
68.4120934419
 11
66.5779086271
 21
63.2273030931
  0
LINE
  5
242
100
AcDbEntity
  8
0
100
AcDbLine
 62
7
  6
BYLAYER
 10
68.1733848272
 20
47.0359040459
 11
63.9271606936
 21
42.7896997889
  0
ARC
  5
243
100
AcDbEntity
  8
0
100
AcDbCircle
 62
7
  6
BYLAYER
 10
22.941226759
 20
58.7531826762
 40
13.7134670977
100
AcDbArc
 50
266.8672701115
 51
269.9998067218
  0
ARC
  5
244
100
AcDbEntity
  8
0
100
AcDbCircle
 62
7
  6
BYLAYER
 10
57.0539930445
 20
60.6450247418
 40
13.6656798496
100
AcDbArc
 50
269.9866452586
 51
275.5225935947
  0
ARC
  5
245
100
AcDbEntity
  8
0
100
AcDbCircle
 62
7
  6
BYLAYER
 10
57.0570267503
 20
54.100984684
 40
13.6026287782
100
AcDbArc
 50
269.9738050505
 51
275.5354338027
  0
ARC
  5
246
100
AcDbEntity
  8
0
100
AcDbCircle
 62
7
  6
BYLAYER
 10
60.7736451163
 20
65.0329158453
 40
6.4232944648
100
AcDbArc
 50
311.1992553621
 51
311.7020039479
  0
ARC
  5
247
100
AcDbEntity
  8
0
100
AcDbCircle
 62
7
  6
BYLAYER
 10
58.488052157
 20
49.5074343926
 40
4.9906456338
100
AcDbArc
 50
56.1323863845
 51
60.0193760925
  0
SPLINE
  5
248
100
AcDbEntity
  8
0
100
AcDbSpline
 62
7
  6
BYLAYER
 70
0
 71
3
 72
15
 73
11
 74
0
 42
0.0000001
 43
0.0000001
 44
0.0000000001
 40
0.0
 40
0.0
 40
0.0
 40
0.0
 40
0.1518508769
 40
0.2954276045
 40
0.4304378776
 40
0.5570139508
 40
0.6757874478
 40
0.7879445955
 40
0.8952577248
 40
1.0
 40
1.0
 40
1.0
 40
1.0
 10
51.1265522223
 20
58.9221835201
 30
0.0
 10
50.8543348258
 20
59.0470820538
 30
0.0
 10
50.3346891114
 20
59.3127955124
 30
0.0
 10
49.6184056785
 20
59.7711824041
 30
0.0
 10
48.9947013901
 20
60.2736443005
 30
0.0
 10
48.4715098107
 20
60.8143254215
 30
0.0
 10
48.0556392474
 20
61.3870252899
 30
0.0
 10
47.7532268696
 20
61.9853044068
 30
0.0
 10
47.569296272
 20
62.6013824351
 30
0.0
 10
47.5279211861
 20
63.0207148271
 30
0.0
 10
47.5279202235
 20
63.2273030941
 30
0.0
  0
SPLINE
  5
249
100
AcDbEntity
  8
0
100
AcDbSpline
 62
7
  6
BYLAYER
 70
0
 71
3
 72
20
 73
16
 74
0
 42
0.0000001
 43
0.0000001
 44
0.0000000001
 40
0.0
 40
0.0
 40
0.0
 40
0.0
 40
0.0324165468
 40
0.0677887309
 40
0.1082397444
 40
0.1548835033
 40
0.2080446991
 40
0.2675217398
 40
0.3327323134
 40
0.4028392638
 40
0.5534419659
 40
0.7099039041
 40
0.861954558
 40
0.9333186114
 40
1.0
 40
1.0
 40
1.0
 40
1.0
 10
69.9987046959
 20
46.4274852342
 30
0.0
 10
70.0571484399
 20
46.4080017089
 30
0.0
 10
70.1876028552
 20
46.3893703338
 30
0.0
 10
70.3925591941
 20
46.4267430413
 30
0.0
 10
70.6059956437
 20
46.5238779968
 30
0.0
 10
70.8252155311
 20
46.6774250047
 30
0.0
 10
71.0472651572
 20
46.8842607776
 30
0.0
 10
71.2682761417
 20
47.1406925416
 30
0.0
 10
71.4842173072
 20
47.4419024367
 30
0.0
 10
71.7664555062
 20
47.9067113869
 30
0.0
 10
72.075090221
 20
48.5559516053
 30
0.0
 10
72.3580851138
 20
49.3830124084
 30
0.0
 10
72.5137507429
 20
50.0900353816
 30
0.0
 10
72.5784984534
 20
50.6378867993
 30
0.0
 10
72.5901928169
 20
50.9003128406
 30
0.0
 10
72.5901928169
 20
51.027037093
 30
0.0
  0
SPLINE
  5
24A
100
AcDbEntity
  8
0
100
AcDbSpline
 62
7
  6
BYLAYER
 70
0
 71
3
 72
18
 73
14
 74
0
 42
0.0000001
 43
0.0000001
 44
0.0000000001
 40
0.0
 40
0.0
 40
0.0
 40
0.0
 40
0.1550739855
 40
0.3062035147
 40
0.4497886769
 40
0.582859099
 40
0.7035274122
 40
0.7591185412
 40
0.8116617899
 40
0.8614665183
 40
0.9090098417
 40
0.9549296163
 40
1.0
 40
1.0
 40
1.0
 40
1.0
 10
57.0528689707
 20
73.9112761392
 30
0.0
 10
56.4324432583
 20
73.9112746478
 30
0.0
 10
55.2061854834
 20
73.8424686743
 30
0.0
 10
53.4289919418
 20
73.5353507789
 30
0.0
 10
51.7866279247
 20
73.0360594725
 30
0.0
 10
50.3403575423
 20
72.3627687573
 30
0.0
 10
49.3142704536
 20
71.6561593687
 30
0.0
 10
48.6516324653
 20
71.0220528139
 30
0.0
 10
48.2484628599
 20
70.5333545004
 30
0.0
 10
47.9297397946
 20
70.0231297469
 30
0.0
 10
47.6989980514
 20
69.4959653953
 30
0.0
 10
47.5592766061
 20
68.9571765046
 30
0.0
 10
47.5279210703
 20
68.5924126918
 30
0.0
 10
47.5279202237
 20
68.412093441
 30
0.0
  0
SPLINE
  5
24B
100
AcDbEntity
  8
0
100
AcDbSpline
 62
7
  6
BYLAYER
 70
0
 71
3
 72
11
 73
7
 74
0
 42
0.0000001
 43
0.0000001
 44
0.0000000001
 40
0.0
 40
0.0
 40
0.0
 40
0.0
 40
0.2397055773
 40
0.4837694167
 40
0.7361171902
 40
1.0
 40
1.0
 40
1.0
 40
1.0
 10
53.8697025971
 20
66.3722977827
 30
0.0
 10
53.8697015375
 20
66.5192353469
 30
0.0
 10
53.8447420921
 20
66.816346451
 30
0.0
 10
53.733427773
 20
67.2555558167
 30
0.0
 10
53.5495313084
 20
67.685654274
 30
0.0
 10
53.3842222609
 20
67.9568273513
 30
0.0
 10
53.2914617381
 20
68.0893458005
 30
0.0
  0
SPLINE
  5
24C
100
AcDbEntity
  8
0
100
AcDbSpline
 62
7
  6
BYLAYER
 70
0
 71
3
 72
23
 73
19
 74
0
 42
0.0000001
 43
0.0000001
 44
0.0000000001
 40
0.0
 40
0.0
 40
0.0
 40
0.0
 40
0.0428112066
 40
0.0873921142
 40
0.1351749845
 40
0.18708305
 40
0.2435297626
 40
0.3044881112
 40
0.3695862416
 40
0.4381944132
 40
0.5094930556
 40
0.5825296673
 40
0.6562727017
 40
0.7296624167
 40
0.8016521427
 40
0.8712490283
 40
0.9376170341
 40
1.0
 40
1.0
 40
1.0
 40
1.0
 10
62.6093226475
 20
51.5619973462
 30
0.0
 10
62.6093189138
 20
51.4038351371
 30
0.0
 10
62.5670409413
 20
51.079595119
 30
0.0
 10
62.3810467175
 20
50.6114338224
 30
0.0
 10
62.0793238726
 20
50.1675909765
 30
0.0
 10
61.6703481263
 20
49.7568811023
 30
0.0
 10
61.1635694166
 20
49.3865581123
 30
0.0
 10
60.5697629461
 20
49.0636088781
 30
0.0
 10
59.9013930611
 20
48.7943406043
 30
0.0
 10
59.1724929783
 20
48.5842513743
 30
0.0
 10
58.3984610698
 20
48.4377556647
 30
0.0
 10
57.5957497967
 20
48.3579421731
 30
0.0
 10
56.7814652403
 20
48.3464720646
 30
0.0
 10
55.9729648123
 20
48.4036063687
 30
0.0
 10
55.1875378449
 20
48.5281718642
 30
0.0
 10
54.4417322822
 20
48.7174561621
 30
0.0
 10
53.751656859
 20
48.9675596516
 30
0.0
 10
53.3238143978
 20
49.1784585309
 30
0.0
 10
53.1242218322
 20
49.2936907455
 30
0.0
  0
SPLINE
  5
24D
100
AcDbEntity
  8
0
100
AcDbSpline
 62
7
  6
BYLAYER
 70
0
 71
3
 72
14
 73
10
 74
0
 42
0.0000001
 43
0.0000001
 44
0.0000000001
 40
0.0
 40
0.0
 40
0.0
 40
0.0
 40
0.1080436419
 40
0.2181279939
 40
0.3321072662
 40
0.4514897122
 40
0.5774356182
 40
0.7107370093
 40
1.0
 40
1.0
 40
1.0
 40
1.0
 10
23.6494600718
 20
56.7466959336
 30
0.0
 10
23.6494510859
 20
56.8368537331
 30
0.0
 10
23.6338090108
 20
57.0192379868
 30
0.0
 10
23.5639179512
 20
57.2886332437
 30
0.0
 10
23.4485352046
 20
57.5522018384
 30
0.0
 10
23.2892315246
 20
57.8073241609
 30
0.0
 10
23.0876153417
 20
58.0516795486
 30
0.0
 10
22.7563767377
 20
58.3686853244
 30
0.0
 10
22.4636013529
 20
58.5702719654
 30
0.0
 10
22.2545610382
 20
58.690958717
 30
0.0
  0
SPLINE
  5
24E
100
AcDbEntity
  8
0
100
AcDbSpline
 62
7
  6
BYLAYER
 70
0
 71
3
 72
15
 73
11
 74
0
 42
0.0000001
 43
0.0000001
 44
0.0000000001
 40
0.0
 40
0.0
 40
0.0
 40
0.0
 40
0.0991511611
 40
0.2054130114
 40
0.3194735946
 40
0.441606375
 40
0.5715242684
 40
0.7085724606
 40
0.8518620735
 40
1.0
 40
1.0
 40
1.0
 40
1.0
 10
50.7772008957
 20
57.6506020799
 30
0.0
 10
50.6999764446
 20
57.5011187135
 30
0.0
 10
50.5101212641
 20
57.2062939718
 30
0.0
 10
50.145797144
 20
56.8022871496
 30
0.0
 10
49.6988191968
 20
56.4282811195
 30
0.0
 10
49.1763881925
 20
56.0896449403
 30
0.0
 10
48.5863495852
 20
55.7908530802
 30
0.0
 10
47.9373227549
 20
55.5363813454
 30
0.0
 10
47.2392818106
 20
55.3300883458
 30
0.0
 10
46.7548249448
 20
55.2279285969
 30
0.0
 10
46.5070917251
 20
55.1852681169
 30
0.0
  0
SPLINE
  5
24F
100
AcDbEntity
  8
0
100
AcDbSpline
 62
7
  6
BYLAYER
 70
0
 71
3
 72
14
 73
10
 74
0
 42
0.0000001
 43
0.0000001
 44
0.0000000001
 40
0.0
 40
0.0
 40
0.0
 40
0.0
 40
0.2892750092
 40
0.4225591532
 40
0.5485039124
 40
0.6678935906
 40
0.7818739114
 40
0.8919557049
 40
1.0
 40
1.0
 40
1.0
 40
1.0
 10
53.1242218322
 20
49.2936907455
 30
0.0
 10
52.880330862
 20
49.4344980773
 30
0.0
 10
52.5387525044
 20
49.6696679061
 30
0.0
 10
52.1523275164
 20
50.0395209657
 30
0.0
 10
51.9171113645
 20
50.3245916775
 30
0.0
 10
51.7312548633
 20
50.6222391722
 30
0.0
 10
51.5966020489
 20
50.9297297671
 30
0.0
 10
51.5151252609
 20
51.244037101
 30
0.0
 10
51.496821189
 20
51.4568123841
 30
0.0
 10
51.4968233937
 20
51.5619973227
 30
0.0
  0
SPLINE
  5
250
100
AcDbEntity
  8
0
100
AcDbSpline
 62
7
  6
BYLAYER
 70
0
 71
3
 72
18
 73
14
 74
0
 42
0.0000001
 43
0.0000001
 44
0.0000000001
 40
0.0
 40
0.0
 40
0.0
 40
0.0
 40
0.0450703823
 40
0.0909900009
 40
0.1385330163
 40
0.1883372317
 40
0.2408798565
 40
0.2964702367
 40
0.4171371348
 40
0.5502067987
 40
0.6937923302
 40
0.8449235183
 40
1.0
 40
1.0
 40
1.0
 40
1.0
 10
28.4119674168
 20
55.450498348
 30
0.0
 10
28.4119682634
 20
55.6308187871
 30
0.0
 10
28.3806093367
 20
55.9955842497
 30
0.0
 10
28.2408898443
 20
56.5343753546
 30
0.0
 10
28.010144911
 20
57.0615383178
 30
0.0
 10
27.6914243681
 20
57.571762349
 30
0.0
 10
27.2882553108
 20
58.0604568681
 30
0.0
 10
26.6256221636
 20
58.6945609034
 30
0.0
 10
25.5995380891
 20
59.4011686569
 30
0.0
 10
24.1532656114
 20
60.0744625119
 30
0.0
 10
22.5108858595
 20
60.5737591885
 30
0.0
 10
20.7336620571
 20
60.8808793095
 30
0.0
 10
19.5073791635
 20
60.9496825356
 30
0.0
 10
18.8869393571
 20
60.9496810443
 30
0.0
  0
SPLINE
  5
251
100
AcDbEntity
  8
0
100
AcDbSpline
 62
7
  6
BYLAYER
 70
0
 71
3
 72
13
 73
9
 74
0
 42
0.0000001
 43
0.0000001
 44
0.0000000001
 40
0.0
 40
0.0
 40
0.0
 40
0.0
 40
0.1045521373
 40
0.215811553
 40
0.333574392
 40
0.4575063626
 40
0.7210661345
 40
1.0
 40
1.0
 40
1.0
 40
1.0
 10
63.9271606936
 20
42.7896997889
 30
0.0
 10
63.7769596492
 20
42.6394994476
 30
0.0
 10
63.4463741694
 20
42.3495788973
 30
0.0
 10
62.8894021234
 20
41.9614706217
 30
0.0
 10
62.2624466688
 20
41.6111694957
 30
0.0
 10
61.324373695
 20
41.1915947096
 30
0.0
 10
60.0248767523
 20
40.7924255305
 30
0.0
 10
58.9332057941
 20
40.6165413511
 30
0.0
 10
58.3691543256
 20
40.5617885888
 30
0.0
  0
SPLINE
  5
252
100
AcDbEntity
  8
0
100
AcDbSpline
 62
7
  6
BYLAYER
 70
0
 71
3
 72
18
 73
14
 74
0
 42
0.0000001
 43
0.0000001
 44
0.0000000001
 40
0.0
 40
0.0
 40
0.0
 40
0.0
 40
0.0450704399
 40
0.0909901083
 40
0.1385331593
 40
0.1883373927
 40
0.2408800161
 40
0.296470377
 40
0.4171371947
 40
0.5502067549
 40
0.6937922077
 40
0.8449233939
 40
1.0
 40
1.0
 40
1.0
 40
1.0
 10
28.411967417
 20
50.2657079973
 30
0.0
 10
28.4119682572
 20
50.0853885178
 30
0.0
 10
28.3806096829
 20
49.7206250384
 30
0.0
 10
28.2408916786
 20
49.1818367713
 30
0.0
 10
28.0101492054
 20
48.6546764431
 30
0.0
 10
27.6914319828
 20
48.1444547851
 30
0.0
 10
27.2882670739
 20
47.6557622884
 30
0.0
 10
26.625640661
 20
47.021660564
 30
0.0
 10
25.5995665539
 20
46.3150543161
 30
0.0
 10
24.1533070715
 20
45.6417600077
 30
0.0
 10
22.5109408074
 20
45.1424605042
 30
0.0
 10
20.7337298375
 20
44.835335091
 30
0.0
 10
19.5074548802
 20
44.7665267923
 30
0.0
 10
18.8870186698
 20
44.766525301
 30
0.0
  0
SPLINE
  5
253
100
AcDbEntity
  8
0
100
AcDbSpline
 62
7
  6
BYLAYER
 70
0
 71
3
 72
15
 73
11
 74
0
 42
0.0000001
 43
0.0000001
 44
0.0000000001
 40
0.0
 40
0.0
 40
0.0
 40
0.0
 40
0.1419717174
 40
0.282123913
 40
0.4186063364
 40
0.549837758
 40
0.6744097959
 40
0.7912690487
 40
0.899806425
 40
1.0
 40
1.0
 40
1.0
 40
1.0
 10
22.9411804989
 20
42.4473204042
 30
0.0
 10
22.5704468696
 20
42.4473195131
 30
0.0
 10
21.8333764926
 20
42.4770796673
 30
0.0
 10
20.7471967244
 20
42.6102714874
 30
0.0
 10
19.7035332607
 20
42.8295113872
 30
0.0
 10
18.7227414067
 20
43.1304106414
 30
0.0
 10
17.8236510386
 20
43.5073464887
 30
0.0
 10
17.0234595809
 20
43.9533622412
 30
0.0
 10
16.3376829781
 20
44.4601075891
 30
0.0
 10
15.950538605
 20
44.8479253746
 30
0.0
 10
15.7834189993
 20
45.0492341619
 30
0.0
  0
SPLINE
  5
254
100
AcDbEntity
  8
0
100
AcDbSpline
 62
7
  6
BYLAYER
 70
0
 71
3
 72
13
 73
9
 74
0
 42
0.0000001
 43
0.0000001
 44
0.0000000001
 40
0.0
 40
0.0
 40
0.0
 40
0.0
 40
0.1143602798
 40
0.2298871971
 40
0.3476900981
 40
0.468771323
 40
0.7237166779
 40
1.0
 40
1.0
 40
1.0
 40
1.0
 10
66.5778970306
 20
63.2273030922
 30
0.0
 10
66.5778976451
 20
63.0954364076
 30
0.0
 10
66.5612589624
 20
62.8300692388
 30
0.0
 10
66.4868928936
 20
62.4351532049
 30
0.0
 10
66.3634114622
 20
62.0445752797
 30
0.0
 10
66.1305587258
 20
61.5237555262
 30
0.0
 10
65.7126874547
 20
60.8917853255
 30
0.0
 10
65.2846355161
 20
60.4491263375
 30
0.0
 10
65.0467833067
 20
60.237188394
 30
0.0
  0
SPLINE
  5
255
100
AcDbEntity
  8
0
100
AcDbSpline
 62
7
  6
BYLAYER
 70
0
 71
3
 72
18
 73
14
 74
0
 42
0.0000001
 43
0.0000001
 44
0.0000000001
 40
0.0
 40
0.0
 40
0.0
 40
0.0
 40
0.0450703823
 40
0.0909900009
 40
0.1385330163
 40
0.1883372317
 40
0.2408798565
 40
0.2964702367
 40
0.4171371348
 40
0.5502067987
 40
0.6937923302
 40
0.8449235183
 40
1.0
 40
1.0
 40
1.0
 40
1.0
 10
66.5778970304
 20
68.4120934428
 30
0.0
 10
66.577897877
 20
68.592413882
 30
0.0
 10
66.5465389504
 20
68.9571793445
 30
0.0
 10
66.4068194579
 20
69.4959704494
 30
0.0
 10
66.1760745246
 20
70.0231334127
 30
0.0
 10
65.8573539817
 20
70.5333574438
 30
0.0
 10
65.4541849245
 20
71.022051963
 30
0.0
 10
64.7915517773
 20
71.6561559982
 30
0.0
 10
63.7654677027
 20
72.3627637517
 30
0.0
 10
62.3191952251
 20
73.0360576068
 30
0.0
 10
60.6768154732
 20
73.5353542834
 30
0.0
 10
58.8995916707
 20
73.8424744044
 30
0.0
 10
57.6733087771
 20
73.9112776305
 30
0.0
 10
57.0528689707
 20
73.9112761392
 30
0.0
  0
SPLINE
  5
256
100
AcDbEntity
  8
0
100
AcDbSpline
 62
7
  6
BYLAYER
 70
0
 71
3
 72
18
 73
14
 74
0
 42
0.0000001
 43
0.0000001
 44
0.0000000001
 40
0.0
 40
0.0
 40
0.0
 40
0.0
 40
0.1550738611
 40
0.3062033922
 40
0.4497886332
 40
0.582859159
 40
0.7035275525
 40
0.7591187009
 40
0.811661951
 40
0.8614666613
 40
0.909009949
 40
0.9549296739
 40
1.0
 40
1.0
 40
1.0
 40
1.0
 10
18.8870186698
 20
44.766525301
 30
0.0
 10
18.2665893615
 20
44.7665238097
 30
0.0
 10
17.0403236503
 20
44.8353247109
 30
0.0
 10
15.2631172762
 20
45.142437314
 30
0.0
 10
13.6207397712
 20
45.6417257935
 30
0.0
 10
12.1744563934
 20
46.3150160554
 30
0.0
 10
11.148359337
 20
47.0216269497
 30
0.0
 10
10.4857146144
 20
47.6557358156
 30
0.0
 10
10.0825408607
 20
48.1444361514
 30
0.0
 10
9.7638144755
 20
48.6546632781
 30
0.0
 10
9.5330702717
 20
49.1818302645
 30
0.0
 10
9.3933473388
 20
49.7206219929
 30
0.0
 10
9.3619914501
 20
50.0853877888
 30
0.0
 10
9.3619906099
 20
50.2657079992
 30
0.0
  0
SPLINE
  5
257
100
AcDbEntity
  8
0
100
AcDbSpline
 62
7
  6
BYLAYER
 70
0
 71
3
 72
18
 73
14
 74
0
 42
0.0000001
 43
0.0000001
 44
0.0000000001
 40
0.0
 40
0.0
 40
0.0
 40
0.0
 40
0.1550739855
 40
0.3062035147
 40
0.4497886769
 40
0.582859099
 40
0.7035274122
 40
0.7591185412
 40
0.8116617899
 40
0.8614665183
 40
0.9090098417
 40
0.9549296163
 40
1.0
 40
1.0
 40
1.0
 40
1.0
 10
18.8869393571
 20
60.9496810443
 30
0.0
 10
18.2665136447
 20
60.949679553
 30
0.0
 10
17.0402558698
 20
60.8808735794
 30
0.0
 10
15.2630623282
 20
60.573755684
 30
0.0
 10
13.6206983111
 20
60.0744643777
 30
0.0
 10
12.1744279287
 20
59.4011736625
 30
0.0
 10
11.14834084
 20
58.6945642738
 30
0.0
 10
10.4857028516
 20
58.060457719
 30
0.0
 10
10.0825332463
 20
57.5717594055
 30
0.0
 10
9.763810181
 20
57.061534652
 30
0.0
 10
9.5330684378
 20
56.5343703004
 30
0.0
 10
9.3933469925
 20
55.9955814098
 30
0.0
 10
9.3619914567
 20
55.630817597
 30
0.0
 10
9.3619906101
 20
55.4504983461
 30
0.0
  0
SPLINE
  5
258
100
AcDbEntity
  8
0
100
AcDbSpline
 62
7
  6
BYLAYER
 70
0
 71
3
 72
22
 73
18
 74
0
 42
0.0000001
 43
0.0000001
 44
0.0000000001
 40
0.0
 40
0.0
 40
0.0
 40
0.0
 40
0.0623873674
 40
0.128768371
 40
0.1983739981
 40
0.2703731787
 40
0.4173900633
 40
0.490437238
 40
0.5617454072
 40
0.6303631665
 40
0.6954709028
 40
0.7564359029
 40
0.8128888795
 40
0.8648051278
 40
0.9125941005
 40
0.9571810449
 40
1.0
 40
1.0
 40
1.0
 40
1.0
 10
22.2545610382
 20
58.690958717
 30
0.0
 10
22.0834927268
 20
58.7897228183
 30
0.0
 10
21.7167633668
 20
58.9704845432
 30
0.0
 10
21.125291403
 20
59.184868797
 30
0.0
 10
20.4859699412
 20
59.347142006
 30
0.0
 10
19.5825006257
 20
59.4903327067
 30
0.0
 10
18.6527098296
 20
59.5159333012
 30
0.0
 10
17.7338533012
 20
59.4246418641
 30
0.0
 10
17.0703402366
 20
59.2990331819
 30
0.0
 10
16.4455776094
 20
59.1189757528
 30
0.0
 10
15.8726760073
 20
58.8881963053
 30
0.0
 10
15.363719493
 20
58.6113594257
 30
0.0
 10
14.9293468389
 20
58.2939389026
 30
0.0
 10
14.5787779381
 20
57.9419277117
 30
0.0
 10
14.3201249874
 20
57.5614997656
 30
0.0
 10
14.1607790132
 20
57.160188869
 30
0.0
 10
14.1244844427
 20
56.8822697706
 30
0.0
 10
14.1244979552
 20
56.7466959349
 30
0.0
  0
SPLINE
  5
259
100
AcDbEntity
  8
0
100
AcDbSpline
 62
7
  6
BYLAYER
 70
0
 71
3
 72
13
 73
9
 74
0
 42
0.0000001
 43
0.0000001
 44
0.0000000001
 40
0.0
 40
0.0
 40
0.0
 40
0.0
 40
0.3080158181
 40
0.4451790761
 40
0.5716848062
 40
0.7968531471
 40
0.8999578227
 40
1.0
 40
1.0
 40
1.0
 40
1.0
 10
70.175346901
 20
53.0825058726
 30
0.0
 10
70.1510945913
 20
53.2128053485
 30
0.0
 10
70.1039474861
 20
53.3996408568
 30
0.0
 10
70.0096391696
 20
53.6273510501
 30
0.0
 10
69.9081442558
 20
53.8117746686
 30
0.0
 10
69.7810367143
 20
53.9653635586
 30
0.0
 10
69.6292981418
 20
54.0715953341
 30
0.0
 10
69.5489051472
 20
54.107556088
 30
0.0
 10
69.5080667687
 20
54.1211691632
 30
0.0
  0
SPLINE
  5
25A
100
AcDbEntity
  8
0
100
AcDbSpline
 62
7
  6
BYLAYER
 70
0
 71
3
 72
13
 73
9
 74
0
 42
0.0000001
 43
0.0000001
 44
0.0000000001
 40
0.0
 40
0.0
 40
0.0
 40
0.0
 40
0.3123910177
 40
0.5773691643
 40
0.6937656346
 40
0.8013111343
 40
0.9023847291
 40
1.0
 40
1.0
 40
1.0
 40
1.0
 10
64.8507345858
 20
54.7306574669
 30
0.0
 10
64.9557851586
 20
54.8357075479
 30
0.0
 10
65.1625656875
 20
55.0180074515
 30
0.0
 10
65.4485268996
 20
55.1888401567
 30
0.0
 10
65.6690665585
 20
55.2650014398
 30
0.0
 10
65.8220793579
 20
55.2917871822
 30
0.0
 10
65.9685800075
 20
55.2902646624
 30
0.0
 10
66.0616947401
 20
55.2699358799
 30
0.0
 10
66.1057347419
 20
55.2552540005
 30
0.0
  0
SPLINE
  5
25B
100
AcDbEntity
  8
0
100
AcDbSpline
 62
7
  6
BYLAYER
 70
0
 71
3
 72
18
 73
14
 74
0
 42
0.0000001
 43
0.0000001
 44
0.0000000001
 40
0.0
 40
0.0
 40
0.0
 40
0.0
 40
0.045056121
 40
0.0909930542
 40
0.1385367746
 40
0.1883380122
 40
0.2408815551
 40
0.2964727344
 40
0.417139242
 40
0.5502102078
 40
0.6937957824
 40
0.8449250725
 40
1.0
 40
1.0
 40
1.0
 40
1.0
 10
64.982200093
 20
69.3119646725
 30
0.0
 10
64.9821990097
 20
69.4621839007
 30
0.0
 10
64.9560242905
 20
69.766158162
 30
0.0
 10
64.83966005
 20
70.2151791552
 30
0.0
 10
64.6473382063
 20
70.6545260686
 30
0.0
 10
64.3817088466
 20
71.0796862596
 30
0.0
 10
64.045743818
 20
71.4869313435
 30
0.0
 10
63.4935471426
 20
72.0153546762
 30
0.0
 10
62.6384654528
 20
72.604184502
 30
0.0
 10
61.4332365503
 20
73.1652594601
 30
0.0
 10
60.0645895979
 20
73.5813351837
 30
0.0
 10
58.5835832839
 20
73.8372638819
 30
0.0
 10
57.5616941533
 20
73.8945990836
 30
0.0
 10
57.0446670461
 20
73.8945978408
 30
0.0
  0
SPLINE
  5
25C
100
AcDbEntity
  8
0
100
AcDbSpline
 62
7
  6
BYLAYER
 70
0
 71
3
 72
17
 73
13
 74
0
 42
0.0000001
 43
0.0000001
 44
0.0000000001
 40
0.0
 40
0.0
 40
0.0
 40
0.0
 40
0.1550920831
 40
0.3062737452
 40
0.4498765097
 40
0.58297558
 40
0.7036629886
 40
0.8116287622
 40
0.8614443446
 40
0.9089964665
 40
0.954926408
 40
1.0
 40
1.0
 40
1.0
 40
1.0
 10
57.0446670461
 20
73.8945978408
 30
0.0
 10
56.7810056391
 20
73.894597207
 30
0.0
 10
56.2598327335
 20
73.8653366455
 30
0.0
 10
55.5044960768
 20
73.7348359249
 30
0.0
 10
54.8065360106
 20
73.5226383622
 30
0.0
 10
54.1916892011
 20
73.2363244308
 30
0.0
 10
53.6824225005
 20
72.885784607
 30
0.0
 10
53.3528642781
 20
72.5390618453
 30
0.0
 10
53.167319169
 20
72.2421383847
 30
0.0
 10
53.0693022528
 20
72.0180564766
 30
0.0
 10
53.0098978551
 20
71.7890910742
 30
0.0
 10
52.9965599533
 20
71.6340717623
 30
0.0
 10
52.996561896
 20
71.5574452419
 30
0.0
  0
SPLINE
  5
25D
100
AcDbEntity
  8
0
100
AcDbSpline
 62
7
  6
BYLAYER
 70
0
 71
3
 72
15
 73
11
 74
0
 42
0.0000001
 43
0.0000001
 44
0.0000000001
 40
0.0
 40
0.0
 40
0.0
 40
0.0
 40
0.169881353
 40
0.3269017981
 40
0.4699460078
 40
0.5988369928
 40
0.7141374635
 40
0.8173690893
 40
0.9112617699
 40
1.0
 40
1.0
 40
1.0
 40
1.0
 10
72.5901928169
 20
51.027037093
 30
0.0
 10
72.5901928169
 20
51.1193009757
 30
0.0
 10
72.584383922
 20
51.2969268735
 30
0.0
 10
72.5563279728
 20
51.5509059783
 30
0.0
 10
72.5093420568
 20
51.7794947393
 30
0.0
 10
72.4440320775
 20
51.9799814947
 30
0.0
 10
72.3608000969
 20
52.1501572085
 30
0.0
 10
72.2601890952
 20
52.2881627907
 30
0.0
 10
72.1425327456
 20
52.3916304045
 30
0.0
 10
72.0524245424
 20
52.4363846916
 30
0.0
 10
72.0067038335
 20
52.4516267094
 30
0.0
  0
SPLINE
  5
25E
100
AcDbEntity
  8
0
100
AcDbSpline
 62
7
  6
BYLAYER
 70
0
 71
3
 72
22
 73
18
 74
0
 42
0.0000001
 43
0.0000001
 44
0.0000000001
 40
0.0
 40
0.0
 40
0.0
 40
0.0
 40
0.0428187262
 40
0.0874057594
 40
0.1351949871
 40
0.1871115614
 40
0.243564568
 40
0.3045291081
 40
0.3696359583
 40
0.438252483
 40
0.5095592861
 40
0.5826055218
 40
0.7296229181
 40
0.8016230211
 40
0.8712297867
 40
0.9376123023
 40
1.0
 40
1.0
 40
1.0
 40
1.0
 10
23.6494625763
 20
55.450498346
 30
0.0
 10
23.6494763239
 20
55.3149252326
 30
0.0
 10
23.6131793939
 20
55.0370067283
 30
0.0
 10
23.4538328773
 20
54.6356961431
 30
0.0
 10
23.1951812384
 20
54.2552645685
 30
0.0
 10
22.844609073
 20
53.9032535478
 30
0.0
 10
22.4102360694
 20
53.5858343452
 30
0.0
 10
21.9012836079
 20
53.308998806
 30
0.0
 10
21.3283899524
 20
53.0782214752
 30
0.0
 10
20.7036379921
 20
52.8981668245
 30
0.0
 10
20.0401363333
 20
52.7725589866
 30
0.0
 10
19.121286132
 20
52.6812602074
 30
0.0
 10
18.1914937959
 20
52.7068618971
 30
0.0
 10
17.2880152019
 20
52.8500456053
 30
0.0
 10
16.6486822768
 20
53.0123204762
 30
0.0
 10
16.0572015068
 20
53.2267079905
 30
0.0
 10
15.6904662087
 20
53.4074709384
 30
0.0
 10
15.5193969887
 20
53.5062355642
 30
0.0
  0
SPLINE
  5
25F
100
AcDbEntity
  8
0
100
AcDbSpline
 62
7
  6
BYLAYER
 70
0
 71
3
 72
13
 73
9
 74
0
 42
0.0000001
 43
0.0000001
 44
0.0000000001
 40
0.0
 40
0.0
 40
0.0
 40
0.0
 40
0.276307278
 40
0.5312590188
 40
0.6523370069
 40
0.7701332538
 40
0.885650673
 40
1.0
 40
1.0
 40
1.0
 40
1.0
 10
65.0450184603
 20
65.4204071092
 30
0.0
 10
65.2831321029
 20
65.6324195558
 30
0.0
 10
65.7116588059
 20
66.0752538028
 30
0.0
 10
66.1300291465
 20
66.7075562467
 30
0.0
 10
66.3631561772
 20
67.2286758832
 30
0.0
 10
66.4867868507
 20
67.6194769308
 30
0.0
 10
66.5612384741
 20
68.0146249662
 30
0.0
 10
66.577896411
 20
68.28014952
 30
0.0
 10
66.5778970304
 20
68.4120934428
 30
0.0
  0
SPLINE
  5
260
100
AcDbEntity
  8
0
100
AcDbSpline
 62
7
  6
BYLAYER
 70
0
 71
3
 72
14
 73
10
 74
0
 42
0.0000001
 43
0.0000001
 44
0.0000000001
 40
0.0
 40
0.0
 40
0.0
 40
0.0
 40
0.1080436419
 40
0.2181279939
 40
0.3321072662
 40
0.4514897122
 40
0.5774356182
 40
0.7107370093
 40
1.0
 40
1.0
 40
1.0
 40
1.0
 10
14.1244979552
 20
56.7466959349
 30
0.0
 10
14.1245069411
 20
56.6565381354
 30
0.0
 10
14.1401490161
 20
56.4741538816
 30
0.0
 10
14.2100400758
 20
56.2047586247
 30
0.0
 10
14.3254228223
 20
55.94119003
 30
0.0
 10
14.4847265023
 20
55.6860677075
 30
0.0
 10
14.6863426852
 20
55.4417123198
 30
0.0
 10
15.0175812892
 20
55.124706544
 30
0.0
 10
15.3103566741
 20
54.9231199031
 30
0.0
 10
15.5193969887
 20
54.8024331514
 30
0.0
  0
SPLINE
  5
261
100
AcDbEntity
  8
0
100
AcDbSpline
 62
7
  6
BYLAYER
 70
0
 71
3
 72
13
 73
9
 74
0
 42
0.0000001
 43
0.0000001
 44
0.0000000001
 40
0.0
 40
0.0
 40
0.0
 40
0.0
 40
0.0976155743
 40
0.1986887725
 40
0.3062342807
 40
0.4226315563
 40
0.6876129305
 40
1.0
 40
1.0
 40
1.0
 40
1.0
 10
69.5080667687
 20
54.1211691632
 30
0.0
 10
69.464026195
 20
54.135849659
 30
0.0
 10
69.370911639
 20
54.1561766299
 30
0.0
 10
69.2244111822
 20
54.1577043083
 30
0.0
 10
69.0713983894
 20
54.130916563
 30
0.0
 10
68.8508571268
 20
54.0547552022
 30
0.0
 10
68.5648968553
 20
53.8839210118
 30
0.0
 10
68.3581161544
 20
53.7016224443
 30
0.0
 10
68.2530669983
 20
53.59657378
 30
0.0
  0
SPLINE
  5
262
100
AcDbEntity
  8
0
100
AcDbSpline
 62
7
  6
BYLAYER
 70
0
 71
3
 72
20
 73
16
 74
0
 42
0.0000001
 43
0.0000001
 44
0.0000000001
 40
0.0
 40
0.0
 40
0.0
 40
0.0
 40
0.0324165468
 40
0.0677887309
 40
0.1082397444
 40
0.1548835033
 40
0.2080446991
 40
0.2675217398
 40
0.3327323134
 40
0.4028392638
 40
0.5534419659
 40
0.7099039041
 40
0.861954558
 40
0.9333186114
 40
1.0
 40
1.0
 40
1.0
 40
1.0
 10
72.0067038335
 20
52.4516267094
 30
0.0
 10
71.9482600896
 20
52.4711102347
 30
0.0
 10
71.8178056743
 20
52.4897416098
 30
0.0
 10
71.6128493353
 20
52.4523689023
 30
0.0
 10
71.3994128858
 20
52.3552339468
 30
0.0
 10
71.1801929984
 20
52.2016869389
 30
0.0
 10
70.9581433723
 20
51.994851166
 30
0.0
 10
70.7371323878
 20
51.7384194021
 30
0.0
 10
70.5211912223
 20
51.4372095069
 30
0.0
 10
70.2389530233
 20
50.9724005567
 30
0.0
 10
69.9303183084
 20
50.3231603383
 30
0.0
 10
69.6473234156
 20
49.4960995352
 30
0.0
 10
69.4916577865
 20
48.789076562
 30
0.0
 10
69.426910076
 20
48.2412251443
 30
0.0
 10
69.4152157125
 20
47.978799103
 30
0.0
 10
69.4152157125
 20
47.8520748506
 30
0.0
  0
SPLINE
  5
263
100
AcDbEntity
  8
0
100
AcDbSpline
 62
7
  6
BYLAYER
 70
0
 71
3
 72
15
 73
11
 74
0
 42
0.0000001
 43
0.0000001
 44
0.0000000001
 40
0.0
 40
0.0
 40
0.0
 40
0.0
 40
0.0887378341
 40
0.1826309837
 40
0.2858632426
 40
0.4011636767
 40
0.5300560316
 40
0.6731020598
 40
0.8301222835
 40
1.0
 40
1.0
 40
1.0
 40
1.0
 10
67.249068062
 20
47.3440109823
 30
0.0
 10
67.2033482514
 20
47.3592548776
 30
0.0
 10
67.1132385886
 20
47.404005274
 30
0.0
 10
66.9955834496
 20
47.5074755769
 30
0.0
 10
66.8949714875
 20
47.6454804477
 30
0.0
 10
66.8117380044
 20
47.8156566631
 30
0.0
 10
66.7464287417
 20
48.0161452576
 30
0.0
 10
66.6994426324
 20
48.2447353907
 30
0.0
 10
66.6713875757
 20
48.4987132517
 30
0.0
 10
66.6655784462
 20
48.6763368662
 30
0.0
 10
66.6655784462
 20
48.7685986909
 30
0.0
  0
SPLINE
  5
264
100
AcDbEntity
  8
0
100
AcDbSpline
 62
7
  6
BYLAYER
 70
0
 71
3
 72
18
 73
14
 74
0
 42
0.0000001
 43
0.0000001
 44
0.0000000001
 40
0.0
 40
0.0
 40
0.0
 40
0.0
 40
0.0450703823
 40
0.0909900009
 40
0.1385330163
 40
0.1883372317
 40
0.2408798565
 40
0.2964702367
 40
0.4171371348
 40
0.5502067987
 40
0.6937923302
 40
0.8449235183
 40
1.0
 40
1.0
 40
1.0
 40
1.0
 10
9.3619906101
 20
55.4504983461
 30
0.0
 10
9.3619897636
 20
55.2701779069
 30
0.0
 10
9.3933486902
 20
54.9054124444
 30
0.0
 10
9.5330681826
 20
54.3666213395
 30
0.0
 10
9.7638131159
 20
53.8394583763
 30
0.0
 10
10.0825336589
 20
53.3292343451
 30
0.0
 10
10.4857027161
 20
52.8405398259
 30
0.0
 10
11.1483358633
 20
52.2064357907
 30
0.0
 10
12.1744199378
 20
51.4998280372
 30
0.0
 10
13.6206924155
 20
50.8265341822
 30
0.0
 10
15.2630721674
 20
50.3272375055
 30
0.0
 10
17.0402959698
 20
50.0201173846
 30
0.0
 10
18.2665788635
 20
49.9513141584
 30
0.0
 10
18.8870186698
 20
49.9513156498
 30
0.0
  0
SPLINE
  5
265
100
AcDbEntity
  8
0
100
AcDbSpline
 62
7
  6
BYLAYER
 70
0
 71
3
 72
18
 73
14
 74
0
 42
0.0000001
 43
0.0000001
 44
0.0000000001
 40
0.0
 40
0.0
 40
0.0
 40
0.0
 40
0.1550739855
 40
0.3062035147
 40
0.4497886769
 40
0.582859099
 40
0.7035274122
 40
0.7591185412
 40
0.8116617899
 40
0.8614665183
 40
0.9090098417
 40
0.9549296163
 40
1.0
 40
1.0
 40
1.0
 40
1.0
 10
18.8870186698
 20
49.9513156498
 30
0.0
 10
19.5074443822
 20
49.9513171411
 30
0.0
 10
20.7337021572
 20
50.0201231147
 30
0.0
 10
22.5108956987
 20
50.3272410101
 30
0.0
 10
24.1532597158
 20
50.8265323164
 30
0.0
 10
25.5995300982
 20
51.4998230316
 30
0.0
 10
26.6256171869
 20
52.2064324203
 30
0.0
 10
27.2882551753
 20
52.8405389751
 30
0.0
 10
27.6914247807
 20
53.3292372885
 30
0.0
 10
28.0101478459
 20
53.839462042
 30
0.0
 10
28.2408895891
 20
54.3666263936
 30
0.0
 10
28.3806110344
 20
54.9054152843
 30
0.0
 10
28.4119665703
 20
55.2701790971
 30
0.0
 10
28.4119674168
 20
55.450498348
 30
0.0
  0
SPLINE
  5
266
100
AcDbEntity
  8
0
100
AcDbSpline
 62
7
  6
BYLAYER
 70
0
 71
3
 72
14
 73
10
 74
0
 42
0.0000001
 43
0.0000001
 44
0.0000000001
 40
0.0
 40
0.0
 40
0.0
 40
0.0
 40
0.2892640241
 40
0.4225636595
 40
0.5485089014
 40
0.6678915715
 40
0.7818711254
 40
0.8919555083
 40
1.0
 40
1.0
 40
1.0
 40
1.0
 10
15.5193969887
 20
53.5062355642
 30
0.0
 10
15.3103558437
 20
53.6269227952
 30
0.0
 10
15.0175799598
 20
53.8285081814
 30
0.0
 10
14.6863432446
 20
54.1455143816
 30
0.0
 10
14.4847269985
 20
54.3898676423
 30
0.0
 10
14.3254246168
 20
54.6449904317
 30
0.0
 10
14.2100362959
 20
54.9085575293
 30
0.0
 10
14.1401508885
 20
55.1779553194
 30
0.0
 10
14.124504593
 20
55.3603398034
 30
0.0
 10
14.1244954506
 20
55.4504983481
 30
0.0
  0
SPLINE
  5
267
100
AcDbEntity
  8
0
100
AcDbSpline
 62
7
  6
BYLAYER
 70
0
 71
3
 72
22
 73
18
 74
0
 42
0.0000001
 43
0.0000001
 44
0.0000000001
 40
0.0
 40
0.0
 40
0.0
 40
0.0
 40
0.0623873674
 40
0.128768371
 40
0.1983739981
 40
0.2703731787
 40
0.4173900633
 40
0.490437238
 40
0.5617454072
 40
0.6303631665
 40
0.6954709028
 40
0.7564359029
 40
0.8128888795
 40
0.8648051278
 40
0.9125941005
 40
0.9571810449
 40
1.0
 40
1.0
 40
1.0
 40
1.0
 10
15.5193969887
 20
54.8024331514
 30
0.0
 10
15.6904653001
 20
54.7036690501
 30
0.0
 10
16.0571946601
 20
54.5229073252
 30
0.0
 10
16.6486666239
 20
54.3085230714
 30
0.0
 10
17.2879880858
 20
54.1462498624
 30
0.0
 10
18.1914574012
 20
54.0030591617
 30
0.0
 10
19.1212481974
 20
53.9774585672
 30
0.0
 10
20.0401047258
 20
54.0687500044
 30
0.0
 10
20.7036177903
 20
54.1943586866
 30
0.0
 10
21.3283804175
 20
54.3744161157
 30
0.0
 10
21.9012820197
 20
54.6051955632
 30
0.0
 10
22.4102385339
 20
54.8820324428
 30
0.0
 10
22.8446111881
 20
55.1994529658
 30
0.0
 10
23.1951800889
 20
55.5514641567
 30
0.0
 10
23.4538330395
 20
55.9318921028
 30
0.0
 10
23.6131790137
 20
56.3332029994
 30
0.0
 10
23.6494735842
 20
56.6111220978
 30
0.0
 10
23.6494600718
 20
56.7466959336
 30
0.0
  0
SPLINE
  5
268
100
AcDbEntity
  8
0
100
AcDbSpline
 62
7
  6
BYLAYER
 70
0
 71
3
 72
11
 73
7
 74
0
 42
0.0000001
 43
0.0000001
 44
0.0000000001
 40
0.0
 40
0.0
 40
0.0
 40
0.0
 40
0.2021275489
 40
0.4359481594
 40
0.7027128982
 40
1.0
 40
1.0
 40
1.0
 40
1.0
 10
62.2308698409
 20
50.5759723581
 30
0.0
 10
62.2054878107
 20
50.6137238222
 30
0.0
 10
62.161342907
 20
50.7023391869
 30
0.0
 10
62.1169888444
 20
50.8547022002
 30
0.0
 10
62.0904664219
 20
51.0327433162
 30
0.0
 10
62.0851135623
 20
51.1597940722
 30
0.0
 10
62.0851135623
 20
51.226701592
 30
0.0
  0
SPLINE
  5
269
100
AcDbEntity
  8
0
100
AcDbSpline
 62
7
  6
BYLAYER
 70
0
 71
3
 72
20
 73
16
 74
0
 42
0.0000001
 43
0.0000001
 44
0.0000000001
 40
0.0
 40
0.0
 40
0.0
 40
0.0
 40
0.0666815664
 40
0.138044196
 40
0.2900912668
 40
0.4465502578
 40
0.5971541442
 40
0.6672629502
 40
0.7324748812
 40
0.7919532485
 40
0.845115103
 40
0.8917589702
 40
0.9322104774
 40
0.9675828705
 40
1.0
 40
1.0
 40
1.0
 40
1.0
 10
66.6655784462
 20
48.7685986909
 30
0.0
 10
66.6655784462
 20
48.8953232661
 30
0.0
 10
66.6772721592
 20
49.1577469367
 30
0.0
 10
66.7420191897
 20
49.7055891275
 30
0.0
 10
66.8976787479
 20
50.4125976147
 30
0.0
 10
67.1806654781
 20
51.2396505039
 30
0.0
 10
67.4892987512
 20
51.888891302
 30
0.0
 10
67.7715365991
 20
52.3537102707
 30
0.0
 10
67.9874836627
 20
52.6549265131
 30
0.0
 10
68.2084955212
 20
52.9113656339
 30
0.0
 10
68.4305475952
 20
53.1182052896
 30
0.0
 10
68.6497704259
 20
53.2717509261
 30
0.0
 10
68.8632057533
 20
53.3688939168
 30
0.0
 10
69.0681648371
 20
53.4062611981
 30
0.0
 10
69.198621982
 20
53.3876350193
 30
0.0
 10
69.2570659346
 20
53.3681486418
 30
0.0
  0
SPLINE
  5
26A
100
AcDbEntity
  8
0
100
AcDbSpline
 62
7
  6
BYLAYER
 70
0
 71
3
 72
13
 73
9
 74
0
 42
0.0000001
 43
0.0000001
 44
0.0000000001
 40
0.0
 40
0.0
 40
0.0
 40
0.0
 40
0.2789338655
 40
0.5424936374
 40
0.666425608
 40
0.784188447
 40
0.8954478627
 40
1.0
 40
1.0
 40
1.0
 40
1.0
 10
58.3691543256
 20
47.0427765248
 30
0.0
 10
58.9332057941
 20
47.0975292871
 30
0.0
 10
60.0248767523
 20
47.2734134665
 30
0.0
 10
61.324373695
 20
47.6725826456
 30
0.0
 10
62.2624466688
 20
48.0921574317
 30
0.0
 10
62.8894021234
 20
48.4424585577
 30
0.0
 10
63.4463741694
 20
48.8305668333
 30
0.0
 10
63.7769596492
 20
49.1204873835
 30
0.0
 10
63.9271606936
 20
49.2706877248
 30
0.0
  0
SPLINE
  5
26B
100
AcDbEntity
  8
0
100
AcDbSpline
 62
7
  6
BYLAYER
 70
0
 71
3
 72
10
 73
6
 74
0
 42
0.0000001
 43
0.0000001
 44
0.0000000001
 40
0.0
 40
0.0
 40
0.0
 40
0.0
 40
0.2282860098
 40
0.4753711277
 40
1.0
 40
1.0
 40
1.0
 40
1.0
 10
62.0851135623
 20
51.226701592
 30
0.0
 10
62.0851135623
 20
51.3167006146
 30
0.0
 10
62.0956557181
 20
51.5041910778
 30
0.0
 10
62.1524665443
 20
51.8946128843
 30
0.0
 10
62.2318291256
 20
52.189887956
 30
0.0
 10
62.2991308126
 20
52.385460374
 30
0.0
  0
SPLINE
  5
26C
100
AcDbEntity
  8
0
100
AcDbSpline
 62
7
  6
BYLAYER
 70
0
 71
3
 72
17
 73
13
 74
0
 42
0.0000001
 43
0.0000001
 44
0.0000000001
 40
0.0
 40
0.0
 40
0.0
 40
0.0
 40
0.1697319124
 40
0.3335651671
 40
0.4866204489
 40
0.6246717938
 40
0.7446309681
 40
0.8451813607
 40
0.8886393501
 40
0.9282256632
 40
0.9648985584
 40
1.0
 40
1.0
 40
1.0
 40
1.0
 10
62.2991308126
 20
52.385460374
 30
0.0
 10
62.3361379921
 20
52.4929997822
 30
0.0
 10
62.4171519531
 20
52.7016020149
 30
0.0
 10
62.5595393016
 20
52.9953457414
 30
0.0
 10
62.716695285
 20
53.2570775035
 30
0.0
 10
62.8829805486
 20
53.4775065056
 30
0.0
 10
63.052401598
 20
53.6489254885
 30
0.0
 10
63.1988396026
 20
53.7512509211
 30
0.0
 10
63.3126956328
 20
53.7990306119
 30
0.0
 10
63.39124752
 20
53.8174246439
 30
0.0
 10
63.4663889168
 20
53.819585621
 30
0.0
 10
63.5140261745
 20
53.8098642275
 30
0.0
 10
63.5363407893
 20
53.8024321854
 30
0.0
  0
SPLINE
  5
26D
100
AcDbEntity
  8
0
100
AcDbSpline
 62
7
  6
BYLAYER
 70
0
 71
3
 72
15
 73
11
 74
0
 42
0.0000001
 43
0.0000001
 44
0.0000000001
 40
0.0
 40
0.0
 40
0.0
 40
0.0
 40
0.169881353
 40
0.3269017981
 40
0.4699460078
 40
0.5988369928
 40
0.7141374635
 40
0.8173690893
 40
0.9112617699
 40
1.0
 40
1.0
 40
1.0
 40
1.0
 10
69.4152157125
 20
47.8520748506
 30
0.0
 10
69.4152157125
 20
47.7598109679
 30
0.0
 10
69.4210246074
 20
47.5821850701
 30
0.0
 10
69.4490805566
 20
47.3282059654
 30
0.0
 10
69.4960664727
 20
47.0996172043
 30
0.0
 10
69.5613764519
 20
46.8991304489
 30
0.0
 10
69.6446084325
 20
46.7289547351
 30
0.0
 10
69.7452194342
 20
46.590949153
 30
0.0
 10
69.8628757839
 20
46.4874815391
 30
0.0
 10
69.952983987
 20
46.442727252
 30
0.0
 10
69.9987046959
 20
46.4274852342
 30
0.0
  0
SPLINE
  5
26E
100
AcDbEntity
  8
0
100
AcDbSpline
 62
7
  6
BYLAYER
 70
0
 71
3
 72
16
 73
12
 74
0
 42
0.0000001
 43
0.0000001
 44
0.0000000001
 40
0.0
 40
0.0
 40
0.0
 40
0.0
 40
0.049227135
 40
0.0989404457
 40
0.2014721302
 40
0.3108846385
 40
0.4292597639
 40
0.5576169738
 40
0.6960515343
 40
0.8439142551
 40
1.0
 40
1.0
 40
1.0
 40
1.0
 10
47.5279202237
 20
68.412093441
 30
0.0
 10
47.5279196148
 20
68.2823783623
 30
0.0
 10
47.5440340359
 20
68.0213738843
 30
0.0
 10
47.640807694
 20
67.4982889564
 30
0.0
 10
47.8878557648
 20
66.8475892438
 30
0.0
 10
48.3651143002
 20
66.1131849764
 30
0.0
 10
49.0136744621
 20
65.4287760153
 30
0.0
 10
49.8195689792
 20
64.8062627073
 30
0.0
 10
50.7668773699
 20
64.2563188362
 30
0.0
 10
51.8371178608
 20
63.7889401679
 30
0.0
 10
52.6011637831
 20
63.5439213553
 30
0.0
 10
52.9980742224
 20
63.4361143939
 30
0.0
  0
SPLINE
  5
26F
100
AcDbEntity
  8
0
100
AcDbSpline
 62
7
  6
BYLAYER
 70
0
 71
3
 72
23
 73
19
 74
0
 42
0.0000001
 43
0.0000001
 44
0.0000000001
 40
0.0
 40
0.0
 40
0.0
 40
0.0
 40
0.0428137532
 40
0.0873954792
 40
0.1351777257
 40
0.1870863597
 40
0.2435330835
 40
0.3044901364
 40
0.3695870428
 40
0.4381944994
 40
0.5094924222
 40
0.5825283852
 40
0.6562706552
 40
0.7296593316
 40
0.8016500037
 40
0.8712484587
 40
0.9376158725
 40
1.0
 40
1.0
 40
1.0
 40
1.0
 10
51.4968233937
 20
51.5619973227
 30
0.0
 10
51.4968267091
 20
51.720168873
 30
0.0
 10
51.5391276001
 20
52.0444174905
 30
0.0
 10
51.7250987402
 20
52.5125971129
 30
0.0
 10
52.0268379243
 20
52.9564345065
 30
0.0
 10
52.4358108102
 20
53.3671459288
 30
0.0
 10
52.9426037391
 20
53.7374453574
 30
0.0
 10
53.5363962954
 20
54.060397048
 30
0.0
 10
54.2047537545
 20
54.329665319
 30
0.0
 10
54.9336456652
 20
54.5397467335
 30
0.0
 10
55.7076706839
 20
54.6862343848
 30
0.0
 10
56.5103729663
 20
54.7660528299
 30
0.0
 10
57.3246482342
 20
54.7775268986
 30
0.0
 10
58.1331451683
 20
54.720392405
 30
0.0
 10
58.9185771236
 20
54.5958256868
 30
0.0
 10
59.6643895805
 20
54.4065417687
 30
0.0
 10
60.3544744553
 20
54.156441427
 30
0.0
 10
60.7823170256
 20
53.9455382169
 30
0.0
 10
60.9819132232
 20
53.8303039054
 30
0.0
  0
SPLINE
  5
270
100
AcDbEntity
  8
0
100
AcDbSpline
 62
7
  6
BYLAYER
 70
0
 71
3
 72
11
 73
7
 74
0
 42
0.0000001
 43
0.0000001
 44
0.0000000001
 40
0.0
 40
0.0
 40
0.0
 40
0.0
 40
0.2638828098
 40
0.5162305833
 40
0.7602944227
 40
1.0
 40
1.0
 40
1.0
 40
1.0
 10
53.2914617381
 20
70.6817409749
 30
0.0
 10
53.3842222609
 20
70.5492225257
 30
0.0
 10
53.5495313084
 20
70.2780494484
 30
0.0
 10
53.733427773
 20
69.8479509911
 30
0.0
 10
53.8447420921
 20
69.4087416254
 30
0.0
 10
53.8697015375
 20
69.1116305213
 30
0.0
 10
53.8697025971
 20
68.9646929571
 30
0.0
  0
ENDSEC
  0
SECTION
  2
OBJECTS
  0
DICTIONARY
  5
C
100
AcDbDictionary
280
0
281
1
  3
ACAD_GROUP
350
D
  3
ACAD_MLINESTYLE
350
17
  3
ACAD_LAYOUT
350
1A
  3
ACAD_PLOTSETTINGS
350
19
  3
ACAD_PLOTSTYLENAME
350
E
  0
DICTIONARY
  5
D
102
{ACAD_REACTORS
330
C
102
}
100
AcDbDictionary
280
0
281
1
  0
ACDBDICTIONARYWDFLT
  5
E
102
{ACAD_REACTORS
330
C
102
}
100
AcDbDictionary
281
1
  3
Normal
350
F
100
AcDbDictionaryWithDefault
340
F
  0
DICTIONARY
  5
17
102
{ACAD_REACTORS
330
C
102
}
100
AcDbDictionary
280
0
281
1
  3
Standard
350
18
  0
DICTIONARY
  5
19
102
{ACAD_REACTORS
330
C
102
}
100
AcDbDictionary
281
1
  0
DICTIONARY
  5
1A
102
{ACAD_REACTORS
330
C
102
}
100
AcDbDictionary
281
1
  3
Model
350
271
  3
Layout1
350
272
  0
ACDBPLACEHOLDER
  5
F
102
{ACAD_REACTORS
330
E
102
}
  0
MLINESTYLE
  5
18
102
{ACAD_REACTORS
330
17
102
}
100
AcDbMlineStyle
  2
STANDARD
 70
0
  3

 62
256
 51
90.0
 52
90.0
 71
2
 49
0.5
 62
256
  6
BYLAYER
 49
-0.5
 62
256
  6
BYLAYER
  0
LAYOUT
  5
271
102
{ACAD_REACTORS
330
1A
102
}
100
AcDbPlotSettings
  1

  2
none_device
  4

  6

 40
0.0
 41
0.0
 42
0.0
 43
0.0
 44
210.0
 45
297.0
 46
0.0
 47
0.0
 48
0.0
 49
0.0
140
0.0
141
0.0
142
1.0
143
1.0
 70
1024
 72
1
 73
0
 74
0
  7

 75
0
147
1.0
148
0.0
149
0.0
100
AcDbLayout
  1
Model
 70
0
 71
0
 10
0.0
 20
0.0
 11
210.0
 21
297.0
 12
0.0
 22
0.0
 32
0.0
 14
0.0
 24
0.0
 34
0.0
 15
0.0
 25
0.0
 35
0.0
146
0.0
 13
0.0
 23
0.0
 33
0.0
 16
1.0
 26
0.0
 36
0.0
 17
0.0
 27
1.0
 37
0.0
 76
0
330
210
345
0
346
0
  0
LAYOUT
  5
272
102
{ACAD_REACTORS
330
1A
102
}
100
AcDbPlotSettings
  1

  2
none_device
  4

  6

 40
0.0
 41
0.0
 42
0.0
 43
0.0
 44
210.0
 45
297.0
 46
0.0
 47
0.0
 48
0.0
 49
0.0
140
0.0
141
0.0
142
1.0
143
1.0
 70
0
 72
1
 73
0
 74
0
  7

 75
0
147
1.0
148
0.0
149
0.0
100
AcDbLayout
  1
Layout1
 70
0
 71
1
 10
0.0
 20
0.0
 11
210.0
 21
297.0
 12
0.0
 22
0.0
 32
0.0
 14
0.0
 24
0.0
 34
0.0
 15
0.0
 25
0.0
 35
0.0
146
0.0
 13
0.0
 23
0.0
 33
0.0
 16
1.0
 26
0.0
 36
0.0
 17
0.0
 27
1.0
 37
0.0
 76
0
330
211
345
0
346
0
  0
ENDSEC
  0
EOF
