999
DXF file: C:\Users\sesa63760\Dev\_Creo\CAD\MCADID0002995_3D-CAD\drw0001_1.dxf
999
Pro/ENGINEER 2019471 by Parametric Technology Corporation
  0
SECTION
  2
HEADER
  9
$ACADVER
  1
AC1024
  9
$DWGCODEPAGE
  3
ANSI_1252
  9
$EXTMAX
 10
67.0775267375
 20
94.8667878145
 30
0.0
  9
$EXTMIN
 10
0.0
 20
0.0
 30
0.0
  9
$LIMMIN
 10
0.0
 20
0.0
  9
$LIMMAX
 10
67.0775267375
 20
94.8667878145
  9
$VIEWCTR
 10
33.5387633688
 20
47.4333939073
  9
$VIEWSIZE
 40
94.8667878145
  9
$CLAYER
  8
0
  9
$LTSCALE
 40
6.1839091316
  9
$CELTYPE
  6
BYLAYER
  9
$DIMSCALE
 40
1.0
  9
$DIMASZ
 40
0.798541985
  9
$DIMEXO
 40
1.0
  9
$DIMDLI
 40
4.2725190364
  9
$DIMEXE
 40
1.0
  9
$DIMCEN
 40
1.0119124034
  9
$DIMLFAC
 40
1.0
  9
$DIMBLK
  1
_FILLED
  9
$DIMALT
 70
0
  9
$DIMALTF
 40
0.0393700787
  9
$DIMTXT
 40
1.117958779
  9
$DIMTOL
 70
1
  9
$DIMLIM
 70
0
  9
$DIMTFAC
 40
1.0
  9
$DIMTP
 40
0.01
  9
$DIMTM
 40
0.01
  9
$DIMGAP
 40
0.625
  9
$DIMDSEP
 70
46
  9
$AUNITS
 70
0
  9
$PDMODE
 70
3
  9
$PDSIZE
 40
0.3125
  9
$HANDSEED
  5
259
  9
$TILEMODE
 70
1
  9
$MEASUREMENT
 70
1
  9
$INSUNITS
 70
4
  0
ENDSEC
  0
SECTION
  2
CLASSES
  0
CLASS
  1
ACDBDICTIONARYWDFLT
  2
AcDbDictionaryWithDefault
  3
AutoCAD 2000
 90
0
 91
1
280
0
281
0
  0
CLASS
  1
ACDBPLACEHOLDER
  2
AcDbPlaceHolder
  3
AutoCAD 2000
 90
0
 91
1
280
0
281
0
  0
CLASS
  1
LAYOUT
  2
AcDbLayout
  3
AutoCAD 2000
 90
0
 91
0
280
0
281
0
  0
ENDSEC
  0
SECTION
  2
TABLES
  0
TABLE
  2
VPORT
  5
8
100
AcDbSymbolTable
 70
2
  0
VPORT
  5
1F4
100
AcDbSymbolTableRecord
100
AcDbViewportTableRecord
  2
*ACTIVE
 70
0
 10
0.0
 20
0.0
 11
1.0
 21
1.0
 12
33.5387633688
 22
47.4333939073
 13
0.0
 23
0.0
 14
1.0
 24
1.0
 15
0.0
 25
0.0
 16
0.0
 26
0.0
 36
1.0
 17
0.0
 27
0.0
 37
0.0
 40
94.8667878145
 41
0.7070707071
 42
50.0
 43
0.0
 44
0.0
 50
0.0
 51
0.0
 71
0
 72
100
 73
1
 74
1
 75
0
 76
0
 77
0
 78
0
  0
ENDTAB
  0
TABLE
  2
LTYPE
  5
5
100
AcDbSymbolTable
 70
6
  0
LTYPE
  5
14
100
AcDbSymbolTableRecord
100
AcDbLinetypeTableRecord
  2
BYBLOCK
 70
0
  3

 72
65
 73
0
 40
0.0
  0
LTYPE
  5
15
100
AcDbSymbolTableRecord
100
AcDbLinetypeTableRecord
  2
BYLAYER
 70
0
  3

 72
65
 73
0
 40
0.0
  0
LTYPE
  5
16
100
AcDbSymbolTableRecord
100
AcDbLinetypeTableRecord
  2
CONTINUOUS
 70
64
  3
Solid line
 72
65
 73
0
 40
0.0
  0
LTYPE
  5
1F5
100
AcDbSymbolTableRecord
100
AcDbLinetypeTableRecord
  2
CENTER
 70
64
  3
____ _ ____ _ ____ _ ____ _ ____ _ ____ _ ____
 72
65
 73
4
 40
0.6
 49
0.375
 74
0
 49
-0.075
 74
0
 49
0.075
 74
0
 49
-0.075
 74
0
  0
LTYPE
  5
1F6
100
AcDbSymbolTableRecord
100
AcDbLinetypeTableRecord
  2
HIDDEN
 70
64
  3
- - - - - - - - - - - - - - - - - - - -
 72
65
 73
2
 40
0.2
 49
0.1
 74
0
 49
-0.1
 74
0
  0
LTYPE
  5
1F7
100
AcDbSymbolTableRecord
100
AcDbLinetypeTableRecord
  2
PHANTOM
 70
64
  3
_____ _ _ _____ _ _ _____ _ _ _____
 72
65
 73
6
 40
0.8
 49
0.45
 74
0
 49
-0.05
 74
0
 49
0.1
 74
0
 49
-0.05
 74
0
 49
0.1
 74
0
 49
-0.05
 74
0
  0
LTYPE
  5
1F8
100
AcDbSymbolTableRecord
100
AcDbLinetypeTableRecord
  2
DOT
 70
64
  3
. . . . . . . . . . . . . . . . . . . .
 72
65
 73
2
 40
0.2
 49
0.1
 74
0
 49
-0.1
 74
0
  0
LTYPE
  5
1F9
100
AcDbSymbolTableRecord
100
AcDbLinetypeTableRecord
  2
DASHED
 70
64
  3
- - - - - - - - - - - - - - - - - - - -
 72
65
 73
2
 40
0.2
 49
0.1
 74
0
 49
-0.1
 74
0
  0
ENDTAB
  0
TABLE
  2
LAYER
  5
2
100
AcDbSymbolTable
 70
36
  0
LAYER
  5
10
100
AcDbSymbolTableRecord
100
AcDbLayerTableRecord
  2
0
 70
0
 62
7
  6
CONTINUOUS
370
-3
390
F
  0
LAYER
  5
1FA
100
AcDbSymbolTableRecord
100
AcDbLayerTableRecord
  2
DEFAULT_1
 70
0
 62
7
  6
CENTER
370
-3
390
F
  0
LAYER
  5
1FB
100
AcDbSymbolTableRecord
100
AcDbLayerTableRecord
  2
DEFAULT_2
 70
0
 62
7
  6
HIDDEN
370
-3
390
F
  0
LAYER
  5
1FC
100
AcDbSymbolTableRecord
100
AcDbLayerTableRecord
  2
DEFAULT_3
 70
0
 62
7
  6
PHANTOM
370
-3
390
F
  0
LAYER
  5
1FD
100
AcDbSymbolTableRecord
100
AcDbLayerTableRecord
  2
00_COMPONENTS
 70
0
 62
7
  6
CONTINUOUS
370
-3
390
F
  0
LAYER
  5
1FE
100
AcDbSymbolTableRecord
100
AcDbLayerTableRecord
  2
01_1_DEFAULT_DATUMS
 70
0
 62
7
  6
CONTINUOUS
370
-3
390
F
  0
LAYER
  5
1FF
100
AcDbSymbolTableRecord
100
AcDbLayerTableRecord
  2
01_PLANES
 70
0
 62
7
  6
CONTINUOUS
370
-3
390
F
  0
LAYER
  5
200
100
AcDbSymbolTableRecord
100
AcDbLayerTableRecord
  2
02_COORD_SYS
 70
0
 62
7
  6
CONTINUOUS
370
-3
390
F
  0
LAYER
  5
201
100
AcDbSymbolTableRecord
100
AcDbLayerTableRecord
  2
03_AXES
 70
0
 62
7
  6
CONTINUOUS
370
-3
390
F
  0
LAYER
  5
202
100
AcDbSymbolTableRecord
100
AcDbLayerTableRecord
  2
04_POINTS
 70
0
 62
7
  6
CONTINUOUS
370
-3
390
F
  0
LAYER
  5
203
100
AcDbSymbolTableRecord
100
AcDbLayerTableRecord
  2
05_CURVES
 70
0
 62
7
  6
CONTINUOUS
370
-3
390
F
  0
LAYER
  5
204
100
AcDbSymbolTableRecord
100
AcDbLayerTableRecord
  2
06_SURFS
 70
0
 62
7
  6
CONTINUOUS
370
-3
390
F
  0
LAYER
  5
205
100
AcDbSymbolTableRecord
100
AcDbLayerTableRecord
  2
07_COSMETICS
 70
0
 62
7
  6
CONTINUOUS
370
-3
390
F
  0
LAYER
  5
206
100
AcDbSymbolTableRecord
100
AcDbLayerTableRecord
  2
10_NOTES
 70
0
 62
7
  6
CONTINUOUS
370
-3
390
F
  0
LAYER
  5
207
100
AcDbSymbolTableRecord
100
AcDbLayerTableRecord
  2
11_NOTES_PUB
 70
0
 62
7
  6
CONTINUOUS
370
-3
390
F
  0
LAYER
  5
208
100
AcDbSymbolTableRecord
100
AcDbLayerTableRecord
  2
13_REF_GTOL
 70
0
 62
7
  6
CONTINUOUS
370
-3
390
F
  0
LAYER
  5
209
100
AcDbSymbolTableRecord
100
AcDbLayerTableRecord
  2
16_MISC
 70
0
 62
7
  6
CONTINUOUS
370
-3
390
F
  0
LAYER
  5
20A
100
AcDbSymbolTableRecord
100
AcDbLayerTableRecord
  2
17_NO_PRINT
 70
0
 62
7
  6
CONTINUOUS
370
-3
390
F
  0
LAYER
  5
20B
100
AcDbSymbolTableRecord
100
AcDbLayerTableRecord
  2
18_DATUM_CAMS_JOINTS
 70
0
 62
7
  6
CONTINUOUS
370
-3
390
F
  0
LAYER
  5
20C
100
AcDbSymbolTableRecord
100
AcDbLayerTableRecord
  2
19_DATUM_FUNCTIONAL
 70
0
 62
7
  6
CONTINUOUS
370
-3
390
F
  0
LAYER
  5
20D
100
AcDbSymbolTableRecord
100
AcDbLayerTableRecord
  2
20_DATUM_KINEMATIC_SCHEME
 70
0
 62
7
  6
CONTINUOUS
370
-3
390
F
  0
ENDTAB
  0
TABLE
  2
STYLE
  5
3
100
AcDbSymbolTable
 70
1
  0
STYLE
  5
11
100
AcDbSymbolTableRecord
100
AcDbTextStyleTableRecord
  2
STANDARD
 70
0
 40
0.0
 41
1.0
 50
0.0
 71
0
 42
0.2
  3
ARIAL.TTF
  4

  0
STYLE
  5
20E
100
AcDbSymbolTableRecord
100
AcDbTextStyleTableRecord
  2
TEXTSTYLE_1
 70
0
 40
0.0
 41
0.8
 50
0.0
 71
0
 42
0.2
  3
gdt
  4

  0
ENDTAB
  0
TABLE
  2
VIEW
  5
6
100
AcDbSymbolTable
 70
0
  0
ENDTAB
  0
TABLE
  2
UCS
  5
7
100
AcDbSymbolTable
 70
0
  0
ENDTAB
  0
TABLE
  2
APPID
  5
9
100
AcDbSymbolTable
 70
1
  0
APPID
  5
20F
100
AcDbSymbolTableRecord
100
AcDbRegAppTableRecord
  2
ACAD
 70
0
  0
ENDTAB
  0
TABLE
  2
BLOCK_RECORD
  5
1
100
AcDbSymbolTable
 70
0
  0
BLOCK_RECORD
  5
210
100
AcDbSymbolTableRecord
100
AcDbBlockTableRecord
  2
*Model_Space
  0
BLOCK_RECORD
  5
211
100
AcDbSymbolTableRecord
100
AcDbBlockTableRecord
  2
*Paper_Space
  0
BLOCK_RECORD
  5
212
100
AcDbSymbolTableRecord
100
AcDbBlockTableRecord
  2
_FILLED
  0
ENDTAB
  0
TABLE
  2
DIMSTYLE
  5
A
100
AcDbSymbolTable
 70
1
100
AcDbDimStyleTable
 71
0
  0
DIMSTYLE
105
213
100
AcDbSymbolTableRecord
100
AcDbDimStyleTableRecord
  2
STANDARD
 70
0
  3

  4

 40
1.0
 41
0.798541985
 42
1.0
 43
0.38
 44
1.0
 45
0.0
 46
0.0
 47
0.01
 48
0.01
140
1.117958779
141
0.09
142
0.0
143
25.4
144
1.0
145
0.0
146
1.0
147
0.625
 71
1
 72
0
 73
0
 74
0
 75
0
 76
0
 77
1
 78
8
 79
2
170
0
171
1
172
0
173
0
174
0
175
0
176
0
177
0
178
0
270
2
179
2
271
2
272
2
273
2
274
2
275
0
280
0
281
0
282
0
283
1
284
8
285
0
286
0
287
3
288
0
340
11
278
46
341
212
342
212
343
212
344
212
  0
ENDTAB
  0
ENDSEC
  0
SECTION
  2
BLOCKS
  0
BLOCK
  5
20
100
AcDbEntity
  8
0
100
AcDbBlockBegin
  2
*Model_Space
 70
0
 10
0.0
 20
0.0
 30
0.0
  3
*Model_Space
  1

  0
ENDBLK
  5
21
100
AcDbEntity
  8
0
100
AcDbBlockEnd
  0
BLOCK
  5
1C
100
AcDbEntity
  8
0
100
AcDbBlockBegin
  2
*Paper_Space
 70
0
 10
0.0
 20
0.0
 30
0.0
  3
*Paper_Space
  1

  0
ENDBLK
  5
1D
100
AcDbEntity
  8
0
100
AcDbBlockEnd
  0
BLOCK
  5
214
100
AcDbEntity
  8
0
100
AcDbBlockBegin
  2
_FILLED
 70
64
 10
0.0
 20
0.0
  3
_FILLED
  1

  0
SOLID
  5
215
100
AcDbEntity
  8
0
  6
BYBLOCK
 62
0
100
AcDbTrace
 10
0.0
 20
0.0
 11
-1.0
 21
0.25
 12
-1.0
 22
-0.25
 13
-1.0
 23
-0.25
  0
ENDBLK
  5
216
100
AcDbEntity
  8
0
  6
BYBLOCK
 62
0
100
AcDbBlockEnd
  0
ENDSEC
  0
SECTION
  2
ENTITIES
  0
LINE
  5
217
100
AcDbEntity
  8
0
100
AcDbLine
 62
7
  6
BYLAYER
 10
7.7491075659
 20
32.369716401
 11
7.7491075659
 21
27.1849260522
  0
LINE
  5
218
100
AcDbEntity
  8
0
100
AcDbLine
 62
7
  6
BYLAYER
 10
11.7178575659
 20
32.369716401
 11
11.7178575659
 21
36.2583091625
  0
LINE
  5
219
100
AcDbEntity
  8
0
100
AcDbLine
 62
7
  6
BYLAYER
 10
19.6309099562
 20
30.6318038527
 11
19.6309099562
 21
33.8722978207
  0
LINE
  5
21A
100
AcDbEntity
  8
0
100
AcDbLine
 62
7
  6
BYLAYER
 10
21.2428575659
 20
35.9342597657
 11
21.2428575659
 21
36.2583091625
  0
LINE
  5
21B
100
AcDbEntity
  8
0
100
AcDbLine
 62
7
  6
BYLAYER
 10
42.3769032462
 20
67.7332809611
 11
37.5705300953
 21
64.5875707329
  0
LINE
  5
21C
100
AcDbEntity
  8
0
100
AcDbLine
 62
7
  6
BYLAYER
 10
36.2552408861
 20
62.1064836542
 11
29.3970420529
 21
57.6178795574
  0
LINE
  5
21D
100
AcDbEntity
  8
0
100
AcDbLine
 62
7
  6
BYLAYER
 10
25.2116075659
 20
32.369716401
 11
25.2116075659
 21
27.1849260522
  0
LINE
  5
21E
100
AcDbEntity
  8
0
100
AcDbLine
 62
7
  6
BYLAYER
 10
29.3970420529
 20
57.6178795574
 11
22.0314224814
 21
43.7237919168
  0
LINE
  5
21F
100
AcDbEntity
  8
0
100
AcDbLine
 62
7
  6
BYLAYER
 10
29.9723696763
 20
39.1391876337
 11
22.0314224814
 21
43.7237919168
  0
LINE
  5
220
100
AcDbEntity
  8
0
100
AcDbLine
 62
7
  6
BYLAYER
 10
37.5705300953
 20
64.5875707329
 11
36.2552408861
 21
62.1064836542
  0
LINE
  5
221
100
AcDbEntity
  8
0
100
AcDbLine
 62
7
  6
BYLAYER
 10
22.0314224814
 20
43.7237919168
 11
14.3397874961
 21
38.6897144357
  0
LINE
  5
222
100
AcDbEntity
  8
0
100
AcDbLine
 62
7
  6
BYLAYER
 10
47.5877064199
 20
58.8042821209
 11
57.6521531468
 21
63.930089635
  0
LINE
  5
223
100
AcDbEntity
  8
0
100
AcDbLine
 62
7
  6
BYLAYER
 10
38.3221328868
 20
52.4650925336
 11
46.0966772752
 21
56.4246562459
  0
LINE
  5
224
100
AcDbEntity
  8
0
100
AcDbLine
 62
7
  6
BYLAYER
 10
29.9723696763
 20
39.1391876337
 11
38.3221328868
 21
52.4650925336
  0
LINE
  5
225
100
AcDbEntity
  8
0
100
AcDbLine
 62
7
  6
BYLAYER
 10
46.0966772752
 20
53.1841622779
 11
38.9397373805
 21
49.5391436012
  0
LINE
  5
226
100
AcDbEntity
  8
0
100
AcDbLine
 62
7
  6
BYLAYER
 10
57.6521531468
 20
57.449101699
 11
47.5877064199
 21
52.3232941849
  0
LINE
  5
227
100
AcDbEntity
  8
0
100
AcDbLine
 62
7
  6
BYLAYER
 10
11.7685681779
 20
36.524269394
 11
10.3064057782
 21
35.9341684889
  0
LINE
  5
228
100
AcDbEntity
  8
0
100
AcDbLine
 62
7
  6
BYLAYER
 10
38.9074728591
 20
65.4625828043
 11
38.9074494496
 21
68.7087996413
  0
LINE
  5
229
100
AcDbEntity
  8
0
100
AcDbLine
 62
7
  6
BYLAYER
 10
38.9397373805
 20
49.5391436012
 11
30.58997417
 21
36.2132387014
  0
LINE
  5
22A
100
AcDbEntity
  8
0
100
AcDbLine
 62
7
  6
BYLAYER
 10
46.0966772752
 20
56.4246562459
 11
47.5877064199
 21
58.8042821209
  0
LINE
  5
22B
100
AcDbEntity
  8
0
100
AcDbLine
 62
7
  6
BYLAYER
 10
19.6309099562
 20
33.8722978207
 11
29.9723696763
 21
39.1391876337
  0
LINE
  5
22C
100
AcDbEntity
  8
0
100
AcDbLine
 62
7
  6
BYLAYER
 10
38.3221328868
 20
52.4650925336
 11
29.3970420529
 21
57.6178795574
  0
LINE
  5
22D
100
AcDbEntity
  8
0
100
AcDbLine
 62
7
  6
BYLAYER
 10
42.8761994495
 20
71.9493222292
 11
42.8762245652
 21
68.4665065209
  0
LINE
  5
22E
100
AcDbEntity
  8
0
100
AcDbLine
 62
7
  6
BYLAYER
 10
30.58997417
 20
36.2132387014
 11
19.6309099562
 21
30.6318038527
  0
LINE
  5
22F
100
AcDbEntity
  8
0
100
AcDbLine
 62
7
  6
BYLAYER
 10
46.8452137195
 20
67.3666927937
 11
46.8813848311
 21
67.7332917885
  0
LINE
  5
230
100
AcDbEntity
  8
0
100
AcDbLine
 62
7
  6
BYLAYER
 10
47.5877064199
 20
52.3232941849
 11
46.0966772752
 21
53.1841622779
  0
LINE
  5
231
100
AcDbEntity
  8
0
100
AcDbLine
 62
7
  6
BYLAYER
 10
46.8813848311
 20
67.2108390746
 11
46.8813848311
 21
67.7332917885
  0
LINE
  5
232
100
AcDbEntity
  8
0
100
AcDbLine
 62
7
  6
BYLAYER
 10
47.1817524594
 20
68.4665168701
 11
47.1817524594
 21
66.3562981044
  0
LINE
  5
233
100
AcDbEntity
  8
0
100
AcDbLine
 62
7
  6
BYLAYER
 10
46.0966772752
 20
56.4246562459
 11
36.2552408861
 21
62.1064836542
  0
LINE
  5
234
100
AcDbEntity
  8
0
100
AcDbLine
 62
7
  6
BYLAYER
 10
47.5877064199
 20
58.8042821209
 11
37.5705300953
 21
64.5875707329
  0
LINE
  5
235
100
AcDbEntity
  8
0
100
AcDbLine
 62
7
  6
BYLAYER
 10
46.8813848311
 20
67.7332917885
 11
42.3769032462
 21
67.7332809611
  0
LINE
  5
236
100
AcDbEntity
  8
0
100
AcDbLine
 62
7
  6
BYLAYER
 10
42.8762245652
 20
68.4665065209
 11
47.1817524594
 21
68.4665168701
  0
LINE
  5
237
100
AcDbEntity
  8
0
100
AcDbLine
 62
7
  6
BYLAYER
 10
57.6521531468
 20
63.930089635
 11
57.6521531468
 21
57.449101699
  0
LINE
  5
238
100
AcDbEntity
  8
0
100
AcDbLine
 62
7
  6
BYLAYER
 10
52.4011994494
 20
71.9493451245
 11
42.8761994495
 21
71.9493222292
  0
LINE
  5
239
100
AcDbEntity
  8
0
100
AcDbLine
 62
7
  6
BYLAYER
 10
60.3387324964
 20
60.8857049408
 11
60.3387324964
 21
67.3666928768
  0
SPLINE
  5
23A
100
AcDbEntity
  8
0
100
AcDbSpline
 62
7
  6
BYLAYER
 70
0
 71
3
 72
15
 73
11
 74
0
 42
0.0000001
 43
0.0000001
 44
0.0000000001
 40
0.0
 40
0.0
 40
0.0
 40
0.0
 40
0.1195174449
 40
0.2435484634
 40
0.3707128279
 40
0.4995006745
 40
0.6283560347
 40
0.7557115416
 40
0.8800578951
 40
1.0
 40
1.0
 40
1.0
 40
1.0
 10
19.4322947706
 20
22.4421405206
 30
0.0
 10
19.2086772232
 20
22.3635189955
 30
0.0
 10
18.7450047832
 20
22.2253518199
 30
0.0
 10
18.0240187574
 20
22.0772708667
 30
0.0
 10
17.2750942034
 20
21.9862839924
 30
0.0
 10
16.5118170799
 20
21.9541428606
 30
0.0
 10
15.7479733446
 20
21.9814237614
 30
0.0
 10
14.9973387613
 20
22.0676053125
 30
0.0
 10
14.2735458442
 20
22.2110933541
 30
0.0
 10
13.8074710118
 20
22.3462574197
 30
0.0
 10
13.5824486739
 20
22.4234006693
 30
0.0
  0
SPLINE
  5
23B
100
AcDbEntity
  8
0
100
AcDbSpline
 62
7
  6
BYLAYER
 70
0
 71
3
 72
23
 73
19
 74
0
 42
0.0000001
 43
0.0000001
 44
0.0000000001
 40
0.0
 40
0.0
 40
0.0
 40
0.0
 40
0.042777698
 40
0.0872332206
 40
0.1347409412
 40
0.1862127789
 40
0.2420788925
 40
0.3023576236
 40
0.3667427201
 40
0.4346733481
 40
0.5054026686
 40
0.578054081
 40
0.6516631826
 40
0.7252320224
 40
0.7977582357
 40
0.8682770395
 40
0.9359605322
 40
1.0
 40
1.0
 40
1.0
 40
1.0
 10
21.2428490351
 20
36.2583091371
 30
0.0
 10
21.2428386178
 20
36.3902568164
 30
0.0
 10
21.2085762872
 20
36.6604192428
 30
0.0
 10
21.0576764995
 20
37.0513864871
 30
0.0
 10
20.812447332
 20
37.4231886
 30
0.0
 10
20.4794334922
 20
37.7686979213
 30
0.0
 10
20.0660307673
 20
38.0820939809
 30
0.0
 10
19.5806399215
 20
38.3578159128
 30
0.0
 10
19.0328827627
 20
38.59068591
 30
0.0
 10
18.4336786129
 20
38.77621009
 30
0.0
 10
17.795045496
 20
38.9107721426
 30
0.0
 10
17.1298369302
 20
38.9916440384
 30
0.0
 10
16.4514838189
 20
39.0171829206
 30
0.0
 10
15.7737098484
 20
38.9868964048
 30
0.0
 10
15.1102507518
 20
38.9014144972
 30
0.0
 10
14.4743764213
 20
38.7624159443
 30
0.0
 10
13.8791668836
 20
38.5726518659
 30
0.0
 10
13.5058214451
 20
38.4099159277
 30
0.0
 10
13.3298051757
 20
38.3202711076
 30
0.0
  0
SPLINE
  5
23C
100
AcDbEntity
  8
0
100
AcDbSpline
 62
7
  6
BYLAYER
 70
0
 71
3
 72
9
 73
5
 74
0
 42
0.0000001
 43
0.0000001
 44
0.0000000001
 40
0.0
 40
0.0
 40
0.0
 40
0.0
 40
0.4845463348
 40
1.0
 40
1.0
 40
1.0
 40
1.0
 10
22.6543093536
 20
23.6204739643
 30
0.0
 10
22.3393724232
 20
23.4386461281
 30
0.0
 10
21.6642965064
 20
23.1060197839
 30
0.0
 10
20.9571301678
 20
22.8502940476
 30
0.0
 10
20.587389538
 20
22.7365066778
 30
0.0
  0
SPLINE
  5
23D
100
AcDbEntity
  8
0
100
AcDbSpline
 62
7
  6
BYLAYER
 70
0
 71
3
 72
24
 73
20
 74
0
 42
0.0000001
 43
0.0000001
 44
0.0000000001
 40
0.0
 40
0.0
 40
0.0
 40
0.0
 40
0.0697427486
 40
0.1416814151
 40
0.2150659379
 40
0.2891060067
 40
0.3629853802
 40
0.4358933398
 40
0.5070523648
 40
0.5757463033
 40
0.6413530205
 40
0.7033776212
 40
0.7614921646
 40
0.8155857923
 40
0.8658185623
 40
0.9126736093
 40
0.9569896095
 40
0.9785827382
 40
1.0
 40
1.0
 40
1.0
 40
1.0
 10
20.587389538
 20
22.7365066778
 30
0.0
 10
20.2503531063
 20
22.6327839976
 30
0.0
 10
19.556038372
 20
22.4523597276
 30
0.0
 10
18.483939654
 20
22.2642947974
 30
0.0
 10
17.3789260717
 20
22.1568510138
 30
0.0
 10
16.2592221733
 20
22.1317877749
 30
0.0
 10
15.1431246315
 20
22.1894818752
 30
0.0
 10
14.0489226089
 20
22.3289955455
 30
0.0
 10
12.9945198654
 20
22.5480761784
 30
0.0
 10
11.9971249325
 20
22.8431633017
 30
0.0
 10
11.0729452733
 20
23.2094821702
 30
0.0
 10
10.2369401487
 20
23.641224364
 30
0.0
 10
9.5026298084
 20
24.1317376077
 30
0.0
 10
8.8819291345
 20
24.6736104354
 30
0.0
 10
8.3852323163
 20
25.2590294438
 30
0.0
 10
8.0216573307
 20
25.8792894775
 30
0.0
 10
7.834770122
 20
26.422816107
 30
0.0
 10
7.7613119487
 20
26.8589553886
 30
0.0
 10
7.7491369661
 20
27.076635325
 30
0.0
 10
7.7491367793
 20
27.1849260318
 30
0.0
  0
SPLINE
  5
23E
100
AcDbEntity
  8
0
100
AcDbSpline
 62
7
  6
BYLAYER
 70
0
 71
3
 72
11
 73
7
 74
0
 42
0.0000001
 43
0.0000001
 44
0.0000000001
 40
0.0
 40
0.0
 40
0.0
 40
0.0
 40
0.2434714691
 40
0.4897592067
 40
0.7413253192
 40
1.0
 40
1.0
 40
1.0
 40
1.0
 10
38.9074791892
 20
68.7087996361
 30
0.0
 10
38.9074774691
 20
68.8755123249
 30
0.0
 10
38.9394456184
 20
69.2117040287
 30
0.0
 10
39.081757319
 20
69.7018547841
 30
0.0
 10
39.3145975436
 20
70.1675426261
 30
0.0
 10
39.523192255
 20
70.4501786229
 30
0.0
 10
39.6393695269
 20
70.583877286
 30
0.0
  0
SPLINE
  5
23F
100
AcDbEntity
  8
0
100
AcDbSpline
 62
7
  6
BYLAYER
 70
0
 71
3
 72
11
 73
7
 74
0
 42
0.0000001
 43
0.0000001
 44
0.0000000001
 40
0.0
 40
0.0
 40
0.0
 40
0.0
 40
0.2361828927
 40
0.4833886551
 40
0.7392924549
 40
1.0
 40
1.0
 40
1.0
 40
1.0
 10
39.6393695269
 20
70.583877286
 30
0.0
 10
39.8259270336
 20
70.7985706494
 30
0.0
 10
40.2654592488
 20
71.1902006003
 30
0.0
 10
41.0521044861
 20
71.6210082983
 30
0.0
 10
41.9383800663
 20
71.8889929916
 30
0.0
 10
42.5622416911
 20
71.9493214745
 30
0.0
 10
42.8761994495
 20
71.9493222292
 30
0.0
  0
SPLINE
  5
240
100
AcDbEntity
  8
0
100
AcDbSpline
 62
7
  6
BYLAYER
 70
0
 71
3
 72
15
 73
11
 74
0
 42
0.0000001
 43
0.0000001
 44
0.0000000001
 40
0.0
 40
0.0
 40
0.0
 40
0.0
 40
0.148555045
 40
0.2895092284
 40
0.4227328522
 40
0.5486409107
 40
0.6680020203
 40
0.7819400046
 40
0.8919876341
 40
1.0
 40
1.0
 40
1.0
 40
1.0
 10
10.3064057782
 20
35.9341684889
 30
0.0
 10
10.1095268516
 20
35.8205010661
 30
0.0
 10
9.734767846
 20
35.5829180514
 30
0.0
 10
9.2223468981
 20
35.1863833095
 30
0.0
 10
8.7791477895
 20
34.7621379867
 30
0.0
 10
8.4096151584
 20
34.3141906635
 30
0.0
 10
8.117431329
 20
33.8465066905
 30
0.0
 10
7.9059621224
 20
33.3632561692
 30
0.0
 10
7.7778040697
 20
32.869384595
 30
0.0
 10
7.7491368367
 20
32.5350091899
 30
0.0
 10
7.7491366892
 20
32.3697163556
 30
0.0
  0
SPLINE
  5
241
100
AcDbEntity
  8
0
100
AcDbSpline
 62
7
  6
BYLAYER
 70
0
 71
3
 72
15
 73
11
 74
0
 42
0.0000001
 43
0.0000001
 44
0.0000000001
 40
0.0
 40
0.0
 40
0.0
 40
0.0
 40
0.1080092368
 40
0.2180556474
 40
0.3319994565
 40
0.4513505555
 40
0.5772553795
 40
0.710498042
 40
0.8514743722
 40
1.0
 40
1.0
 40
1.0
 40
1.0
 10
57.9574758159
 20
67.3666928763
 30
0.0
 10
57.9574764168
 20
67.2615097685
 30
0.0
 10
57.9391751631
 20
67.0487379954
 30
0.0
 10
57.8576994647
 20
66.7344346134
 30
0.0
 10
57.7230516399
 20
66.4269497678
 30
0.0
 10
57.5371962386
 20
66.1292965705
 30
0.0
 10
57.3020024241
 20
65.8442577549
 30
0.0
 10
57.0199518617
 20
65.5742486934
 30
0.0
 10
56.6938355588
 20
65.3219290205
 30
0.0
 10
56.4553724557
 20
65.1707245418
 30
0.0
 10
56.3301109067
 20
65.0984051845
 30
0.0
  0
SPLINE
  5
242
100
AcDbEntity
  8
0
100
AcDbSpline
 62
7
  6
BYLAYER
 70
0
 71
3
 72
19
 73
15
 74
0
 42
0.0000001
 43
0.0000001
 44
0.0000000001
 40
0.0
 40
0.0
 40
0.0
 40
0.0
 40
0.0450645278
 40
0.0909783379
 40
0.138515077
 40
0.1883131885
 40
0.2408487114
 40
0.2964320917
 40
0.3552148928
 40
0.4172167098
 40
0.5502695893
 40
0.6938358559
 40
0.8449454287
 40
1.0
 40
1.0
 40
1.0
 40
1.0
 10
60.3387222928
 20
67.3666928713
 30
0.0
 10
60.3387127765
 20
67.5169605347
 30
0.0
 10
60.3126029875
 20
67.8209349561
 30
0.0
 10
60.1961449389
 20
68.2699245918
 30
0.0
 10
60.0038769562
 20
68.7092372912
 30
0.0
 10
59.7382533542
 20
69.1344180951
 30
0.0
 10
59.4022957714
 20
69.5416583124
 30
0.0
 10
58.9994048318
 20
69.9272376713
 30
0.0
 10
58.5336117834
 20
70.287858131
 30
0.0
 10
57.8177513617
 20
70.7414203397
 30
0.0
 10
56.7895351778
 20
71.220128684
 30
0.0
 10
55.421208444
 20
71.6360448974
 30
0.0
 10
53.9401010273
 20
71.892021794
 30
0.0
 10
52.9182289026
 20
71.9493463673
 30
0.0
 10
52.4011994494
 20
71.9493451245
 30
0.0
  0
SPLINE
  5
243
100
AcDbEntity
  8
0
100
AcDbSpline
 62
7
  6
BYLAYER
 70
0
 71
3
 72
15
 73
11
 74
0
 42
0.0000001
 43
0.0000001
 44
0.0000000001
 40
0.0
 40
0.0
 40
0.0
 40
0.0
 40
0.1098665229
 40
0.2214940844
 40
0.3365115992
 40
0.4562884676
 40
0.5819041609
 40
0.7141543495
 40
0.8535206479
 40
1.0
 40
1.0
 40
1.0
 40
1.0
 10
60.3387222983
 20
60.8857049357
 30
0.0
 10
60.3387310657
 20
60.747448069
 30
0.0
 10
60.316662512
 20
60.4682447224
 30
0.0
 10
60.2182536893
 20
60.0547791945
 30
0.0
 10
60.0553688024
 20
59.6487945324
 30
0.0
 10
59.8299663987
 20
59.2537379293
 30
0.0
 10
59.5440201968
 20
58.8727579324
 30
0.0
 10
59.2000945045
 20
58.5086662341
 30
0.0
 10
58.801103672
 20
58.1644942153
 30
0.0
 10
58.5079666455
 20
57.9551005822
 30
0.0
 10
58.3537327353
 20
57.8541564454
 30
0.0
  0
SPLINE
  5
244
100
AcDbEntity
  8
0
100
AcDbSpline
 62
7
  6
BYLAYER
 70
0
 71
3
 72
13
 73
9
 74
0
 42
0.0000001
 43
0.0000001
 44
0.0000000001
 40
0.0
 40
0.0
 40
0.0
 40
0.0
 40
0.1150760366
 40
0.2330278676
 40
0.3541021582
 40
0.47833385
 40
0.7349144884
 40
1.0
 40
1.0
 40
1.0
 40
1.0
 10
39.2163741671
 20
65.746102094
 30
0.0
 10
39.2828608838
 20
65.8755081998
 30
0.0
 10
39.4370855652
 20
66.1279350458
 30
0.0
 10
39.7224379708
 20
66.4745777861
 30
0.0
 10
40.0595873002
 20
66.7883773152
 30
0.0
 10
40.5759287918
 20
67.1596163634
 30
0.0
 10
41.3206877035
 20
67.5127101883
 30
0.0
 10
41.9695644055
 20
67.6594762164
 30
0.0
 10
42.3023385574
 20
67.6992184544
 30
0.0
  0
SPLINE
  5
245
100
AcDbEntity
  8
0
100
AcDbSpline
 62
7
  6
BYLAYER
 70
0
 71
3
 72
15
 73
11
 74
0
 42
0.0000001
 43
0.0000001
 44
0.0000000001
 40
0.0
 40
0.0
 40
0.0
 40
0.0
 40
0.1080109418
 40
0.2180575378
 40
0.3319950082
 40
0.4513555737
 40
0.5772634414
 40
0.7104881282
 40
0.8514445347
 40
1.0
 40
1.0
 40
1.0
 40
1.0
 10
25.2115783526
 20
27.1849260726
 30
0.0
 10
25.2115786378
 20
27.0196354372
 30
0.0
 10
25.1829100079
 20
26.6852640896
 30
0.0
 10
25.0547571539
 20
26.191395962
 30
0.0
 10
24.8432875927
 20
25.7081491662
 30
0.0
 10
24.5511099775
 20
25.2404638008
 30
0.0
 10
24.181576952
 20
24.7925160345
 30
0.0
 10
23.7383766125
 20
24.3682652709
 30
0.0
 10
23.2259501138
 20
23.9717284476
 30
0.0
 10
22.851188814
 20
23.7341416952
 30
0.0
 10
22.6543093536
 20
23.6204739643
 30
0.0
  0
SPLINE
  5
246
100
AcDbEntity
  8
0
100
AcDbSpline
 62
7
  6
BYLAYER
 70
0
 71
3
 72
9
 73
5
 74
0
 42
0.0000001
 43
0.0000001
 44
0.0000000001
 40
0.0
 40
0.0
 40
0.0
 40
0.0
 40
0.4952156467
 40
1.0
 40
1.0
 40
1.0
 40
1.0
 10
25.2115784426
 20
32.3697164463
 30
0.0
 10
25.2115785919
 20
32.5370653832
 30
0.0
 10
25.1822065269
 20
32.8756218877
 30
0.0
 10
25.0958342178
 20
33.2041069116
 30
0.0
 10
25.0396452118
 20
33.3651695895
 30
0.0
  0
SPLINE
  5
247
100
AcDbEntity
  8
0
100
AcDbSpline
 62
7
  6
BYLAYER
 70
0
 71
3
 72
9
 73
5
 74
0
 42
0.0000001
 43
0.0000001
 44
0.0000000001
 40
0.0
 40
0.0
 40
0.0
 40
0.0
 40
0.2441542994
 40
1.0
 40
1.0
 40
1.0
 40
1.0
 10
58.3537327353
 20
57.8541564454
 30
0.0
 10
58.2985513866
 20
57.818040953
 30
0.0
 10
58.0703935177
 20
57.6734156138
 30
0.0
 10
57.8340812138
 20
57.5417573887
 30
0.0
 10
57.6521531468
 20
57.449101699
 30
0.0
  0
SPLINE
  5
248
100
AcDbEntity
  8
0
100
AcDbSpline
 62
7
  6
BYLAYER
 70
0
 71
3
 72
14
 73
10
 74
0
 42
0.0000001
 43
0.0000001
 44
0.0000000001
 40
0.0
 40
0.0
 40
0.0
 40
0.0
 40
0.1504596222
 40
0.293026581
 40
0.5531398106
 40
0.6721956786
 40
0.7851855812
 40
0.8937558442
 40
1.0
 40
1.0
 40
1.0
 40
1.0
 10
13.3298051757
 20
38.3202711076
 30
0.0
 10
13.2069321989
 20
38.2576920862
 30
0.0
 10
12.9725320797
 20
38.1255723294
 30
0.0
 10
12.5562597519
 20
37.8357347241
 30
0.0
 10
12.2066802343
 20
37.5011403794
 30
0.0
 10
11.9523317973
 20
37.1269048312
 30
0.0
 10
11.8177867724
 20
36.8436642391
 30
0.0
 10
11.7362245366
 20
36.5530014521
 30
0.0
 10
11.7178584095
 20
36.3556781882
 30
0.0
 10
11.7178660968
 20
36.258309188
 30
0.0
  0
SPLINE
  5
249
100
AcDbEntity
  8
0
100
AcDbSpline
 62
7
  6
BYLAYER
 70
0
 71
3
 72
21
 73
17
 74
0
 42
0.0000001
 43
0.0000001
 44
0.0000000001
 40
0.0
 40
0.0
 40
0.0
 40
0.0
 40
0.0551407185
 40
0.1110293403
 40
0.168189927
 40
0.2270704989
 40
0.2878743153
 40
0.3506131091
 40
0.4807366567
 40
0.5476502257
 40
0.6150184611
 40
0.7485949294
 40
0.8140363406
 40
0.8779076253
 40
0.9399299976
 40
1.0
 40
1.0
 40
1.0
 40
1.0
 10
39.7014352964
 20
70.574229156
 30
0.0
 10
39.7035496921
 20
70.7115851059
 30
0.0
 10
39.735000778
 20
70.988466548
 30
0.0
 10
39.8618066328
 20
71.3903384698
 30
0.0
 10
40.0649581754
 20
71.7701144134
 30
0.0
 10
40.3386082113
 20
72.1180699062
 30
0.0
 10
40.6757725781
 20
72.4257723323
 30
0.0
 10
41.2039318969
 20
72.7763397239
 30
0.0
 10
41.8172924957
 20
73.0119983342
 30
0.0
 10
42.4678779841
 20
73.1236256782
 30
0.0
 10
43.1361363966
 20
73.1507609755
 30
0.0
 10
43.8011254696
 20
73.0487425121
 30
0.0
 10
44.4169161547
 20
72.8209833831
 30
0.0
 10
44.838064601
 20
72.5939832867
 30
0.0
 10
45.2102933321
 20
72.3153338183
 30
0.0
 10
45.4232237616
 20
72.0958686947
 30
0.0
 10
45.5178675111
 20
71.9799443666
 30
0.0
  0
SPLINE
  5
24A
100
AcDbEntity
  8
0
100
AcDbSpline
 62
7
  6
BYLAYER
 70
0
 71
3
 72
25
 73
21
 74
0
 42
0.0000001
 43
0.0000001
 44
0.0000000001
 40
0.0
 40
0.0
 40
0.0
 40
0.0
 40
0.0623746586
 40
0.1287262022
 40
0.1983115694
 40
0.2702881534
 40
0.3436640695
 40
0.4173942042
 40
0.4904173027
 40
0.5617030447
 40
0.630300046
 40
0.6953870278
 40
0.7563340451
 40
0.8127712659
 40
0.8646725172
 40
0.9124477691
 40
0.9350900634
 40
0.9570934283
 40
0.9786576432
 40
1.0
 40
1.0
 40
1.0
 40
1.0
 10
56.3301109067
 20
65.0984051845
 30
0.0
 10
56.1305129157
 20
64.9831679185
 30
0.0
 10
55.7026889356
 20
64.7722608806
 30
0.0
 10
55.0126219002
 20
64.5221727149
 30
0.0
 10
54.2668436555
 20
64.3328872989
 30
0.0
 10
53.4814297181
 20
64.2083129141
 30
0.0
 10
52.6729445941
 20
64.151162084
 30
0.0
 10
51.8586741679
 20
64.1626241095
 30
0.0
 10
51.0559761161
 20
64.2424409912
 30
0.0
 10
50.281951392
 20
64.3889190287
 30
0.0
 10
49.5530460147
 20
64.5989679861
 30
0.0
 10
48.8846755378
 20
64.8682287572
 30
0.0
 10
48.2908843053
 20
65.1911710322
 30
0.0
 10
47.7840719487
 20
65.5614997377
 30
0.0
 10
47.3750973627
 20
65.9720578816
 30
0.0
 10
47.1191058878
 20
66.3487530609
 30
0.0
 10
46.9764167725
 20
66.6597410323
 30
0.0
 10
46.9007790575
 20
66.8930369556
 30
0.0
 10
46.8551513524
 20
67.1291049742
 30
0.0
 10
46.8450203018
 20
67.2878323791
 30
0.0
 10
46.8450255219
 20
67.3666927978
 30
0.0
  0
SPLINE
  5
24B
100
AcDbEntity
  8
0
100
AcDbSpline
 62
7
  6
BYLAYER
 70
0
 71
3
 72
14
 73
10
 74
0
 42
0.0000001
 43
0.0000001
 44
0.0000000001
 40
0.0
 40
0.0
 40
0.0
 40
0.0
 40
0.1504596222
 40
0.293026581
 40
0.5531398106
 40
0.6721956786
 40
0.7851855812
 40
0.8937558442
 40
1.0
 40
1.0
 40
1.0
 40
1.0
 10
19.6309099562
 20
34.1963472175
 30
0.0
 10
19.7537829329
 20
34.2589262389
 30
0.0
 10
19.9881830522
 20
34.3910459957
 30
0.0
 10
20.4044553799
 20
34.680883601
 30
0.0
 10
20.7540348976
 20
35.0154779457
 30
0.0
 10
21.0083833346
 20
35.3897134939
 30
0.0
 10
21.1429283595
 20
35.672954086
 30
0.0
 10
21.2244905953
 20
35.963616873
 30
0.0
 10
21.2428567224
 20
36.1609401368
 30
0.0
 10
21.2428490351
 20
36.2583091371
 30
0.0
  0
SPLINE
  5
24C
100
AcDbEntity
  8
0
100
AcDbSpline
 62
7
  6
BYLAYER
 70
0
 71
3
 72
9
 73
5
 74
0
 42
0.0000001
 43
0.0000001
 44
0.0000000001
 40
0.0
 40
0.0
 40
0.0
 40
0.0
 40
0.4744192281
 40
1.0
 40
1.0
 40
1.0
 40
1.0
 10
20.7162188744
 20
31.1129032365
 30
0.0
 10
20.5735206924
 20
30.9526010005
 30
0.0
 10
20.2320260116
 20
30.6502702033
 30
0.0
 10
19.8427743201
 20
30.4156566564
 30
0.0
 10
19.6309099562
 20
30.3077544559
 30
0.0
  0
SPLINE
  5
24D
100
AcDbEntity
  8
0
100
AcDbSpline
 62
7
  6
BYLAYER
 70
0
 71
3
 72
25
 73
21
 74
0
 42
0.0000001
 43
0.0000001
 44
0.0000000001
 40
0.0
 40
0.0
 40
0.0
 40
0.0
 40
0.0213320397
 40
0.0428926083
 40
0.0648980028
 40
0.0875426634
 40
0.135317801
 40
0.1872189035
 40
0.2436566499
 40
0.3046043081
 40
0.3696915784
 40
0.43828839
 40
0.5095746653
 40
0.5825991598
 40
0.6563310552
 40
0.7297068537
 40
0.8016840749
 40
0.8712738047
 40
0.9376204567
 40
1.0
 40
1.0
 40
1.0
 40
1.0
 10
7.7491366892
 20
32.3697163556
 30
0.0
 10
7.7491365787
 20
32.2458527119
 30
0.0
 10
7.7650878405
 20
31.9965079314
 30
0.0
 10
7.8367634945
 20
31.625612246
 30
0.0
 10
7.9555890032
 20
31.2589892709
 30
0.0
 10
8.1797660782
 20
30.770242815
 30
0.0
 10
8.582043516
 20
30.1782779989
 30
0.0
 10
9.2246833412
 20
29.5330820299
 30
0.0
 10
10.0210936728
 20
28.9511096404
 30
0.0
 10
10.9542024264
 20
28.4436250175
 30
0.0
 10
12.0045009064
 20
28.0204957151
 30
0.0
 10
13.1499180467
 20
27.6903868324
 30
0.0
 10
14.366247716
 20
27.4601756323
 30
0.0
 10
15.6276517135
 20
27.3347345015
 30
0.0
 10
16.9072381286
 20
27.3167412382
 30
0.0
 10
18.177727249
 20
27.406547317
 30
0.0
 10
19.4119825058
 20
27.6022859573
 30
0.0
 10
20.5839165053
 20
27.8997483531
 30
0.0
 10
21.6683457072
 20
28.2927152639
 30
0.0
 10
22.3406307184
 20
28.6241629496
 30
0.0
 10
22.6543093536
 20
28.8052643131
 30
0.0
  0
SPLINE
  5
24E
100
AcDbEntity
  8
0
100
AcDbSpline
 62
7
  6
BYLAYER
 70
0
 71
3
 72
15
 73
11
 74
0
 42
0.0000001
 43
0.0000001
 44
0.0000000001
 40
0.0
 40
0.0
 40
0.0
 40
0.0
 40
0.148555045
 40
0.2895092284
 40
0.4227328522
 40
0.5486409107
 40
0.6680020203
 40
0.7819400046
 40
0.8919876341
 40
1.0
 40
1.0
 40
1.0
 40
1.0
 10
22.6543093536
 20
28.8052643131
 30
0.0
 10
22.8511882802
 20
28.9189317358
 30
0.0
 10
23.2259472858
 20
29.1565147506
 30
0.0
 10
23.7383682337
 20
29.5530494924
 30
0.0
 10
24.1815673424
 20
29.9772948152
 30
0.0
 10
24.5510999734
 20
30.4252421385
 30
0.0
 10
24.8432838028
 20
30.8929261114
 30
0.0
 10
25.0547530094
 20
31.3761766328
 30
0.0
 10
25.1829110621
 20
31.870048207
 30
0.0
 10
25.2115782951
 20
32.204423612
 30
0.0
 10
25.2115784426
 20
32.3697164463
 30
0.0
  0
SPLINE
  5
24F
100
AcDbEntity
  8
0
100
AcDbSpline
 62
7
  6
BYLAYER
 70
0
 71
3
 72
15
 73
11
 74
0
 42
0.0000001
 43
0.0000001
 44
0.0000000001
 40
0.0
 40
0.0
 40
0.0
 40
0.0
 40
0.1363479047
 40
0.2711652729
 40
0.4030188539
 40
0.5308769799
 40
0.6541493096
 40
0.7728648156
 40
0.8877093047
 40
1.0
 40
1.0
 40
1.0
 40
1.0
 10
42.8762245652
 20
68.4665065209
 30
0.0
 10
42.6298411755
 20
68.4665059287
 30
0.0
 10
42.1390079405
 20
68.4291908706
 30
0.0
 10
41.4270843521
 20
68.2629221149
 30
0.0
 10
40.7643014546
 20
67.9917447498
 30
0.0
 10
40.1735403633
 20
67.6246488838
 30
0.0
 10
39.6752423973
 20
67.1734828595
 30
0.0
 10
39.2871537758
 20
66.6529842917
 30
0.0
 10
39.0238993555
 20
66.0810593542
 30
0.0
 10
38.9380061121
 20
65.6754579237
 30
0.0
 10
38.9190750334
 20
65.4734314308
 30
0.0
  0
SPLINE
  5
250
100
AcDbEntity
  8
0
100
AcDbSpline
 62
7
  6
BYLAYER
 70
0
 71
3
 72
23
 73
19
 74
0
 42
0.0000001
 43
0.0000001
 44
0.0000000001
 40
0.0
 40
0.0
 40
0.0
 40
0.0
 40
0.0640391073
 40
0.1317210719
 40
0.202238756
 40
0.2747642222
 40
0.348332541
 40
0.4219418259
 40
0.4945942595
 40
0.5653249034
 40
0.633256821
 40
0.6976429062
 40
0.7579220925
 40
0.8137882083
 40
0.8652598164
 40
0.9127671538
 40
0.9572223272
 40
1.0
 40
1.0
 40
1.0
 40
1.0
 10
19.6309099562
 20
30.3077544559
 30
0.0
 10
19.4548946795
 20
30.2181101414
 30
0.0
 10
19.0815552297
 20
30.0553750967
 30
0.0
 10
18.4863543906
 20
29.8656141408
 30
0.0
 10
17.8504907517
 20
29.7266165378
 30
0.0
 10
17.1870396929
 20
29.6411298145
 30
0.0
 10
16.509269013
 20
29.6108425747
 30
0.0
 10
15.8309138501
 20
29.6363791609
 30
0.0
 10
15.1656968141
 20
29.7172466073
 30
0.0
 10
14.5270526865
 20
29.8518113008
 30
0.0
 10
13.9278377397
 20
30.0373379358
 30
0.0
 10
13.3800722148
 20
30.2702099858
 30
0.0
 10
12.8946780714
 20
30.5459353495
 30
0.0
 10
12.481276167
 20
30.8593336677
 30
0.0
 10
12.1482640395
 20
31.2048416224
 30
0.0
 10
11.9030358968
 20
31.5766415727
 30
0.0
 10
11.7521430457
 20
31.967608065
 30
0.0
 10
11.71787467
 20
32.2377688075
 30
0.0
 10
11.7178665364
 20
32.3697164079
 30
0.0
  0
SPLINE
  5
251
100
AcDbEntity
  8
0
100
AcDbSpline
 62
7
  6
BYLAYER
 70
0
 71
3
 72
23
 73
19
 74
0
 42
0.0000001
 43
0.0000001
 44
0.0000000001
 40
0.0
 40
0.0
 40
0.0
 40
0.0
 40
0.0623832684
 40
0.1287489119
 40
0.1983464049
 40
0.2703362595
 40
0.3437247357
 40
0.4174677842
 40
0.4905050119
 40
0.5618043315
 40
0.6304129914
 40
0.6955106314
 40
0.7564679494
 40
0.8129145782
 40
0.8648228717
 40
0.9126046764
 40
0.9571861362
 40
1.0
 40
1.0
 40
1.0
 40
1.0
 10
48.472354086
 20
69.6349805691
 30
0.0
 10
48.671947381
 20
69.7502151238
 30
0.0
 10
49.0997803791
 20
69.9611194395
 30
0.0
 10
49.7898539296
 20
70.2112195097
 30
0.0
 10
50.5356545264
 20
70.4005069629
 30
0.0
 10
51.3210807256
 20
70.5250804532
 30
0.0
 10
52.1295790727
 20
70.582222092
 30
0.0
 10
52.9438640397
 20
70.5707525377
 30
0.0
 10
53.7465820945
 20
70.4909366781
 30
0.0
 10
54.520624649
 20
70.3444502523
 30
0.0
 10
55.2495315149
 20
70.1343666446
 30
0.0
 10
55.9178991045
 20
69.8650950769
 30
0.0
 10
56.5116965916
 20
69.5421406217
 30
0.0
 10
57.0184905612
 20
69.1718400285
 30
0.0
 10
57.4274626058
 20
68.7611298532
 30
0.0
 10
57.7292013366
 20
68.3172940558
 30
0.0
 10
57.9151681578
 20
67.8491141546
 30
0.0
 10
57.9574749123
 20
67.5248653717
 30
0.0
 10
57.9574758159
 20
67.3666928763
 30
0.0
  0
SPLINE
  5
252
100
AcDbEntity
  8
0
100
AcDbSpline
 62
7
  6
BYLAYER
 70
0
 71
3
 72
10
 73
6
 74
0
 42
0.0000001
 43
0.0000001
 44
0.0000000001
 40
0.0
 40
0.0
 40
0.0
 40
0.0
 40
0.4687024933
 40
0.7264785578
 40
1.0
 40
1.0
 40
1.0
 40
1.0
 10
47.1817524594
 20
68.4665168701
 30
0.0
 10
47.3282483223
 20
68.6982540615
 30
0.0
 10
47.6141889787
 20
69.0217280316
 30
0.0
 10
48.071425199
 20
69.3870361286
 30
0.0
 10
48.3337972621
 20
69.554985227
 30
0.0
 10
48.472354086
 20
69.6349805691
 30
0.0
  0
SPLINE
  5
253
100
AcDbEntity
  8
0
100
AcDbSpline
 62
7
  6
BYLAYER
 70
0
 71
3
 72
14
 73
10
 74
0
 42
0.0000001
 43
0.0000001
 44
0.0000000001
 40
0.0
 40
0.0
 40
0.0
 40
0.0
 40
0.1062429101
 40
0.2148125472
 40
0.3278024552
 40
0.4468578721
 40
0.7069733108
 40
0.8495416183
 40
1.0
 40
1.0
 40
1.0
 40
1.0
 10
21.2428485955
 20
35.9342597588
 30
0.0
 10
21.2428545975
 20
35.836891932
 30
0.0
 10
21.2244896143
 20
35.6395706824
 30
0.0
 10
21.14292921
 20
35.3489090197
 30
0.0
 10
21.0083839504
 20
35.065669866
 30
0.0
 10
20.7540387925
 20
34.691430393
 30
0.0
 10
20.4044557664
 20
34.3568349043
 30
0.0
 10
19.988181552
 20
34.0669969065
 30
0.0
 10
19.7537818795
 20
33.9348763056
 30
0.0
 10
19.6309099562
 20
33.8722978207
 30
0.0
  0
SPLINE
  5
254
100
AcDbEntity
  8
0
100
AcDbSpline
 62
7
  6
BYLAYER
 70
0
 71
3
 72
15
 73
11
 74
0
 42
0.0000001
 43
0.0000001
 44
0.0000000001
 40
0.0
 40
0.0
 40
0.0
 40
0.0
 40
0.1464792816
 40
0.2858454888
 40
0.4180956343
 40
0.5437113342
 40
0.6634882274
 40
0.7785057854
 40
0.8901334037
 40
1.0
 40
1.0
 40
1.0
 40
1.0
 10
58.3537327353
 20
64.3351443814
 30
0.0
 10
58.5079665708
 20
64.4360884693
 30
0.0
 10
58.8011034561
 20
64.645481947
 30
0.0
 10
59.2000941019
 20
64.9896537868
 30
0.0
 10
59.5440197172
 20
65.3537453293
 30
0.0
 10
59.829966004
 20
65.7347252447
 30
0.0
 10
60.0553684936
 20
66.1297819024
 30
0.0
 10
60.2182535671
 20
66.5357666624
 30
0.0
 10
60.3166624039
 20
66.9492324111
 30
0.0
 10
60.3387310484
 20
67.2284359126
 30
0.0
 10
60.3387222928
 20
67.3666928713
 30
0.0
  0
SPLINE
  5
255
100
AcDbEntity
  8
0
100
AcDbSpline
 62
7
  6
BYLAYER
 70
0
 71
3
 72
9
 73
5
 74
0
 42
0.0000001
 43
0.0000001
 44
0.0000000001
 40
0.0
 40
0.0
 40
0.0
 40
0.0
 40
0.2558729148
 40
1.0
 40
1.0
 40
1.0
 40
1.0
 10
57.6521531468
 20
63.930089635
 30
0.0
 10
57.7137398756
 20
63.9614556629
 30
0.0
 10
57.9528654177
 20
64.0870772961
 30
0.0
 10
58.1855539119
 20
64.2250734759
 30
0.0
 10
58.3537327353
 20
64.3351443814
 30
0.0
  0
SPLINE
  5
256
100
AcDbEntity
  8
0
100
AcDbSpline
 62
7
  6
BYLAYER
 70
0
 71
3
 72
23
 73
19
 74
0
 42
0.0000001
 43
0.0000001
 44
0.0000000001
 40
0.0
 40
0.0
 40
0.0
 40
0.0
 40
0.042777698
 40
0.0872332206
 40
0.1347409412
 40
0.1862127789
 40
0.2420788925
 40
0.3023576236
 40
0.3667427201
 40
0.4346733481
 40
0.5054026686
 40
0.578054081
 40
0.6516631826
 40
0.7252320224
 40
0.7977582357
 40
0.8682770395
 40
0.9359605322
 40
1.0
 40
1.0
 40
1.0
 40
1.0
 10
11.7178660968
 20
36.258309188
 30
0.0
 10
11.717876514
 20
36.1263615087
 30
0.0
 10
11.7521388446
 20
35.8561990823
 30
0.0
 10
11.9030386323
 20
35.465231838
 30
0.0
 10
12.1482677999
 20
35.0934297251
 30
0.0
 10
12.4812816396
 20
34.7479204038
 30
0.0
 10
12.8946843646
 20
34.4345243442
 30
0.0
 10
13.3800752103
 20
34.1588024123
 30
0.0
 10
13.9278323691
 20
33.9259324151
 30
0.0
 10
14.527036519
 20
33.7404082351
 30
0.0
 10
15.1656696359
 20
33.6058461825
 30
0.0
 10
15.8308782017
 20
33.5249742867
 30
0.0
 10
16.509231313
 20
33.4994354045
 30
0.0
 10
17.1870052835
 20
33.5297219203
 30
0.0
 10
17.85046438
 20
33.6152038279
 30
0.0
 10
18.4863387105
 20
33.7542023808
 30
0.0
 10
19.0815482483
 20
33.9439664592
 30
0.0
 10
19.4548936868
 20
34.1067023973
 30
0.0
 10
19.6309099562
 20
34.1963472175
 30
0.0
  0
ENDSEC
  0
SECTION
  2
OBJECTS
  0
DICTIONARY
  5
C
100
AcDbDictionary
280
0
281
1
  3
ACAD_GROUP
350
D
  3
ACAD_MLINESTYLE
350
17
  3
ACAD_LAYOUT
350
1A
  3
ACAD_PLOTSETTINGS
350
19
  3
ACAD_PLOTSTYLENAME
350
E
  0
DICTIONARY
  5
D
102
{ACAD_REACTORS
330
C
102
}
100
AcDbDictionary
280
0
281
1
  0
ACDBDICTIONARYWDFLT
  5
E
102
{ACAD_REACTORS
330
C
102
}
100
AcDbDictionary
281
1
  3
Normal
350
F
100
AcDbDictionaryWithDefault
340
F
  0
DICTIONARY
  5
17
102
{ACAD_REACTORS
330
C
102
}
100
AcDbDictionary
280
0
281
1
  3
Standard
350
18
  0
DICTIONARY
  5
19
102
{ACAD_REACTORS
330
C
102
}
100
AcDbDictionary
281
1
  0
DICTIONARY
  5
1A
102
{ACAD_REACTORS
330
C
102
}
100
AcDbDictionary
281
1
  3
Model
350
257
  3
Layout1
350
258
  0
ACDBPLACEHOLDER
  5
F
102
{ACAD_REACTORS
330
E
102
}
  0
MLINESTYLE
  5
18
102
{ACAD_REACTORS
330
17
102
}
100
AcDbMlineStyle
  2
STANDARD
 70
0
  3

 62
256
 51
90.0
 52
90.0
 71
2
 49
0.5
 62
256
  6
BYLAYER
 49
-0.5
 62
256
  6
BYLAYER
  0
LAYOUT
  5
257
102
{ACAD_REACTORS
330
1A
102
}
100
AcDbPlotSettings
  1

  2
none_device
  4

  6

 40
0.0
 41
0.0
 42
0.0
 43
0.0
 44
210.0
 45
297.0
 46
0.0
 47
0.0
 48
0.0
 49
0.0
140
0.0
141
0.0
142
1.0
143
1.0
 70
1024
 72
1
 73
0
 74
0
  7

 75
0
147
1.0
148
0.0
149
0.0
100
AcDbLayout
  1
Model
 70
0
 71
0
 10
0.0
 20
0.0
 11
210.0
 21
297.0
 12
0.0
 22
0.0
 32
0.0
 14
0.0
 24
0.0
 34
0.0
 15
0.0
 25
0.0
 35
0.0
146
0.0
 13
0.0
 23
0.0
 33
0.0
 16
1.0
 26
0.0
 36
0.0
 17
0.0
 27
1.0
 37
0.0
 76
0
330
210
345
0
346
0
  0
LAYOUT
  5
258
102
{ACAD_REACTORS
330
1A
102
}
100
AcDbPlotSettings
  1

  2
none_device
  4

  6

 40
0.0
 41
0.0
 42
0.0
 43
0.0
 44
210.0
 45
297.0
 46
0.0
 47
0.0
 48
0.0
 49
0.0
140
0.0
141
0.0
142
1.0
143
1.0
 70
0
 72
1
 73
0
 74
0
  7

 75
0
147
1.0
148
0.0
149
0.0
100
AcDbLayout
  1
Layout1
 70
0
 71
1
 10
0.0
 20
0.0
 11
210.0
 21
297.0
 12
0.0
 22
0.0
 32
0.0
 14
0.0
 24
0.0
 34
0.0
 15
0.0
 25
0.0
 35
0.0
146
0.0
 13
0.0
 23
0.0
 33
0.0
 16
1.0
 26
0.0
 36
0.0
 17
0.0
 27
1.0
 37
0.0
 76
0
330
211
345
0
346
0
  0
ENDSEC
  0
EOF
