999
DXF file: C:\Users\sesa63760\Dev\_Creo\CAD\MCADID0002992_3D-CAD\drw0001_1.dxf
999
Pro/ENGINEER 2019471 by Parametric Technology Corporation
  0
SECTION
  2
HEADER
  9
$ACADVER
  1
AC1024
  9
$DWGCODEPAGE
  3
ANSI_1252
  9
$EXTMAX
 10
68.0868405015
 20
96.2942458522
 30
0.0
  9
$EXTMIN
 10
0.0
 20
0.0
 30
0.0
  9
$LIMMIN
 10
0.0
 20
0.0
  9
$LIMMAX
 10
68.0868405015
 20
96.2942458522
  9
$VIEWCTR
 10
34.0434202508
 20
48.1471229261
  9
$VIEWSIZE
 40
96.2942458522
  9
$CLAYER
  8
0
  9
$LTSCALE
 40
6.2769582481
  9
$CELTYPE
  6
BYLAYER
  9
$DIMSCALE
 40
1.0
  9
$DIMASZ
 40
0.810557625
  9
$DIMEXO
 40
1.0
  9
$DIMDLI
 40
4.3368075169
  9
$DIMEXE
 40
1.0
  9
$DIMCEN
 40
1.0271386224
  9
$DIMLFAC
 40
1.0
  9
$DIMBLK
  1
_FILLED
  9
$DIMALT
 70
0
  9
$DIMALTF
 40
0.0393700787
  9
$DIMTXT
 40
1.134780675
  9
$DIMTOL
 70
1
  9
$DIMLIM
 70
0
  9
$DIMTFAC
 40
1.0
  9
$DIMTP
 40
0.01
  9
$DIMTM
 40
0.01
  9
$DIMGAP
 40
0.625
  9
$DIMDSEP
 70
46
  9
$AUNITS
 70
0
  9
$PDMODE
 70
3
  9
$PDSIZE
 40
0.3125
  9
$HANDSEED
  5
259
  9
$TILEMODE
 70
1
  9
$MEASUREMENT
 70
1
  9
$INSUNITS
 70
4
  0
ENDSEC
  0
SECTION
  2
CLASSES
  0
CLASS
  1
ACDBDICTIONARYWDFLT
  2
AcDbDictionaryWithDefault
  3
AutoCAD 2000
 90
0
 91
1
280
0
281
0
  0
CLASS
  1
ACDBPLACEHOLDER
  2
AcDbPlaceHolder
  3
AutoCAD 2000
 90
0
 91
1
280
0
281
0
  0
CLASS
  1
LAYOUT
  2
AcDbLayout
  3
AutoCAD 2000
 90
0
 91
0
280
0
281
0
  0
ENDSEC
  0
SECTION
  2
TABLES
  0
TABLE
  2
VPORT
  5
8
100
AcDbSymbolTable
 70
2
  0
VPORT
  5
1F4
100
AcDbSymbolTableRecord
100
AcDbViewportTableRecord
  2
*ACTIVE
 70
0
 10
0.0
 20
0.0
 11
1.0
 21
1.0
 12
34.0434202508
 22
48.1471229261
 13
0.0
 23
0.0
 14
1.0
 24
1.0
 15
0.0
 25
0.0
 16
0.0
 26
0.0
 36
1.0
 17
0.0
 27
0.0
 37
0.0
 40
96.2942458522
 41
0.7070707071
 42
50.0
 43
0.0
 44
0.0
 50
0.0
 51
0.0
 71
0
 72
100
 73
1
 74
1
 75
0
 76
0
 77
0
 78
0
  0
ENDTAB
  0
TABLE
  2
LTYPE
  5
5
100
AcDbSymbolTable
 70
6
  0
LTYPE
  5
14
100
AcDbSymbolTableRecord
100
AcDbLinetypeTableRecord
  2
BYBLOCK
 70
0
  3

 72
65
 73
0
 40
0.0
  0
LTYPE
  5
15
100
AcDbSymbolTableRecord
100
AcDbLinetypeTableRecord
  2
BYLAYER
 70
0
  3

 72
65
 73
0
 40
0.0
  0
LTYPE
  5
16
100
AcDbSymbolTableRecord
100
AcDbLinetypeTableRecord
  2
CONTINUOUS
 70
64
  3
Solid line
 72
65
 73
0
 40
0.0
  0
LTYPE
  5
1F5
100
AcDbSymbolTableRecord
100
AcDbLinetypeTableRecord
  2
CENTER
 70
64
  3
____ _ ____ _ ____ _ ____ _ ____ _ ____ _ ____
 72
65
 73
4
 40
0.6
 49
0.375
 74
0
 49
-0.075
 74
0
 49
0.075
 74
0
 49
-0.075
 74
0
  0
LTYPE
  5
1F6
100
AcDbSymbolTableRecord
100
AcDbLinetypeTableRecord
  2
HIDDEN
 70
64
  3
- - - - - - - - - - - - - - - - - - - -
 72
65
 73
2
 40
0.2
 49
0.1
 74
0
 49
-0.1
 74
0
  0
LTYPE
  5
1F7
100
AcDbSymbolTableRecord
100
AcDbLinetypeTableRecord
  2
PHANTOM
 70
64
  3
_____ _ _ _____ _ _ _____ _ _ _____
 72
65
 73
6
 40
0.8
 49
0.45
 74
0
 49
-0.05
 74
0
 49
0.1
 74
0
 49
-0.05
 74
0
 49
0.1
 74
0
 49
-0.05
 74
0
  0
LTYPE
  5
1F8
100
AcDbSymbolTableRecord
100
AcDbLinetypeTableRecord
  2
DOT
 70
64
  3
. . . . . . . . . . . . . . . . . . . .
 72
65
 73
2
 40
0.2
 49
0.1
 74
0
 49
-0.1
 74
0
  0
LTYPE
  5
1F9
100
AcDbSymbolTableRecord
100
AcDbLinetypeTableRecord
  2
DASHED
 70
64
  3
- - - - - - - - - - - - - - - - - - - -
 72
65
 73
2
 40
0.2
 49
0.1
 74
0
 49
-0.1
 74
0
  0
ENDTAB
  0
TABLE
  2
LAYER
  5
2
100
AcDbSymbolTable
 70
36
  0
LAYER
  5
10
100
AcDbSymbolTableRecord
100
AcDbLayerTableRecord
  2
0
 70
0
 62
7
  6
CONTINUOUS
370
-3
390
F
  0
LAYER
  5
1FA
100
AcDbSymbolTableRecord
100
AcDbLayerTableRecord
  2
DEFAULT_1
 70
0
 62
7
  6
CENTER
370
-3
390
F
  0
LAYER
  5
1FB
100
AcDbSymbolTableRecord
100
AcDbLayerTableRecord
  2
DEFAULT_2
 70
0
 62
7
  6
HIDDEN
370
-3
390
F
  0
LAYER
  5
1FC
100
AcDbSymbolTableRecord
100
AcDbLayerTableRecord
  2
DEFAULT_3
 70
0
 62
7
  6
PHANTOM
370
-3
390
F
  0
LAYER
  5
1FD
100
AcDbSymbolTableRecord
100
AcDbLayerTableRecord
  2
00_COMPONENTS
 70
0
 62
7
  6
CONTINUOUS
370
-3
390
F
  0
LAYER
  5
1FE
100
AcDbSymbolTableRecord
100
AcDbLayerTableRecord
  2
01_1_DEFAULT_DATUMS
 70
0
 62
7
  6
CONTINUOUS
370
-3
390
F
  0
LAYER
  5
1FF
100
AcDbSymbolTableRecord
100
AcDbLayerTableRecord
  2
01_PLANES
 70
0
 62
7
  6
CONTINUOUS
370
-3
390
F
  0
LAYER
  5
200
100
AcDbSymbolTableRecord
100
AcDbLayerTableRecord
  2
02_COORD_SYS
 70
0
 62
7
  6
CONTINUOUS
370
-3
390
F
  0
LAYER
  5
201
100
AcDbSymbolTableRecord
100
AcDbLayerTableRecord
  2
03_AXES
 70
0
 62
7
  6
CONTINUOUS
370
-3
390
F
  0
LAYER
  5
202
100
AcDbSymbolTableRecord
100
AcDbLayerTableRecord
  2
04_POINTS
 70
0
 62
7
  6
CONTINUOUS
370
-3
390
F
  0
LAYER
  5
203
100
AcDbSymbolTableRecord
100
AcDbLayerTableRecord
  2
05_CURVES
 70
0
 62
7
  6
CONTINUOUS
370
-3
390
F
  0
LAYER
  5
204
100
AcDbSymbolTableRecord
100
AcDbLayerTableRecord
  2
06_SURFS
 70
0
 62
7
  6
CONTINUOUS
370
-3
390
F
  0
LAYER
  5
205
100
AcDbSymbolTableRecord
100
AcDbLayerTableRecord
  2
07_COSMETICS
 70
0
 62
7
  6
CONTINUOUS
370
-3
390
F
  0
LAYER
  5
206
100
AcDbSymbolTableRecord
100
AcDbLayerTableRecord
  2
10_NOTES
 70
0
 62
7
  6
CONTINUOUS
370
-3
390
F
  0
LAYER
  5
207
100
AcDbSymbolTableRecord
100
AcDbLayerTableRecord
  2
11_NOTES_PUB
 70
0
 62
7
  6
CONTINUOUS
370
-3
390
F
  0
LAYER
  5
208
100
AcDbSymbolTableRecord
100
AcDbLayerTableRecord
  2
13_REF_GTOL
 70
0
 62
7
  6
CONTINUOUS
370
-3
390
F
  0
LAYER
  5
209
100
AcDbSymbolTableRecord
100
AcDbLayerTableRecord
  2
16_MISC
 70
0
 62
7
  6
CONTINUOUS
370
-3
390
F
  0
LAYER
  5
20A
100
AcDbSymbolTableRecord
100
AcDbLayerTableRecord
  2
17_NO_PRINT
 70
0
 62
7
  6
CONTINUOUS
370
-3
390
F
  0
LAYER
  5
20B
100
AcDbSymbolTableRecord
100
AcDbLayerTableRecord
  2
18_DATUM_CAMS_JOINTS
 70
0
 62
7
  6
CONTINUOUS
370
-3
390
F
  0
LAYER
  5
20C
100
AcDbSymbolTableRecord
100
AcDbLayerTableRecord
  2
19_DATUM_FUNCTIONAL
 70
0
 62
7
  6
CONTINUOUS
370
-3
390
F
  0
LAYER
  5
20D
100
AcDbSymbolTableRecord
100
AcDbLayerTableRecord
  2
20_DATUM_KINEMATIC_SCHEME
 70
0
 62
7
  6
CONTINUOUS
370
-3
390
F
  0
ENDTAB
  0
TABLE
  2
STYLE
  5
3
100
AcDbSymbolTable
 70
1
  0
STYLE
  5
11
100
AcDbSymbolTableRecord
100
AcDbTextStyleTableRecord
  2
STANDARD
 70
0
 40
0.0
 41
1.0
 50
0.0
 71
0
 42
0.2
  3
ARIAL.TTF
  4

  0
STYLE
  5
20E
100
AcDbSymbolTableRecord
100
AcDbTextStyleTableRecord
  2
TEXTSTYLE_1
 70
0
 40
0.0
 41
0.8
 50
0.0
 71
0
 42
0.2
  3
gdt
  4

  0
ENDTAB
  0
TABLE
  2
VIEW
  5
6
100
AcDbSymbolTable
 70
0
  0
ENDTAB
  0
TABLE
  2
UCS
  5
7
100
AcDbSymbolTable
 70
0
  0
ENDTAB
  0
TABLE
  2
APPID
  5
9
100
AcDbSymbolTable
 70
1
  0
APPID
  5
20F
100
AcDbSymbolTableRecord
100
AcDbRegAppTableRecord
  2
ACAD
 70
0
  0
ENDTAB
  0
TABLE
  2
BLOCK_RECORD
  5
1
100
AcDbSymbolTable
 70
0
  0
BLOCK_RECORD
  5
210
100
AcDbSymbolTableRecord
100
AcDbBlockTableRecord
  2
*Model_Space
  0
BLOCK_RECORD
  5
211
100
AcDbSymbolTableRecord
100
AcDbBlockTableRecord
  2
*Paper_Space
  0
BLOCK_RECORD
  5
212
100
AcDbSymbolTableRecord
100
AcDbBlockTableRecord
  2
_FILLED
  0
ENDTAB
  0
TABLE
  2
DIMSTYLE
  5
A
100
AcDbSymbolTable
 70
1
100
AcDbDimStyleTable
 71
0
  0
DIMSTYLE
105
213
100
AcDbSymbolTableRecord
100
AcDbDimStyleTableRecord
  2
STANDARD
 70
0
  3

  4

 40
1.0
 41
0.810557625
 42
1.0
 43
0.38
 44
1.0
 45
0.0
 46
0.0
 47
0.01
 48
0.01
140
1.134780675
141
0.09
142
0.0
143
25.4
144
1.0
145
0.0
146
1.0
147
0.625
 71
1
 72
0
 73
0
 74
0
 75
0
 76
0
 77
1
 78
8
 79
2
170
0
171
1
172
0
173
0
174
0
175
0
176
0
177
0
178
0
270
2
179
2
271
2
272
2
273
2
274
2
275
0
280
0
281
0
282
0
283
1
284
8
285
0
286
0
287
3
288
0
340
11
278
46
341
212
342
212
343
212
344
212
  0
ENDTAB
  0
ENDSEC
  0
SECTION
  2
BLOCKS
  0
BLOCK
  5
20
100
AcDbEntity
  8
0
100
AcDbBlockBegin
  2
*Model_Space
 70
0
 10
0.0
 20
0.0
 30
0.0
  3
*Model_Space
  1

  0
ENDBLK
  5
21
100
AcDbEntity
  8
0
100
AcDbBlockEnd
  0
BLOCK
  5
1C
100
AcDbEntity
  8
0
100
AcDbBlockBegin
  2
*Paper_Space
 70
0
 10
0.0
 20
0.0
 30
0.0
  3
*Paper_Space
  1

  0
ENDBLK
  5
1D
100
AcDbEntity
  8
0
100
AcDbBlockEnd
  0
BLOCK
  5
214
100
AcDbEntity
  8
0
100
AcDbBlockBegin
  2
_FILLED
 70
64
 10
0.0
 20
0.0
  3
_FILLED
  1

  0
SOLID
  5
215
100
AcDbEntity
  8
0
  6
BYBLOCK
 62
0
100
AcDbTrace
 10
0.0
 20
0.0
 11
-1.0
 21
0.25
 12
-1.0
 22
-0.25
 13
-1.0
 23
-0.25
  0
ENDBLK
  5
216
100
AcDbEntity
  8
0
  6
BYBLOCK
 62
0
100
AcDbBlockEnd
  0
ENDSEC
  0
SECTION
  2
ENTITIES
  0
LINE
  5
217
100
AcDbEntity
  8
0
100
AcDbLine
 62
7
  6
BYLAYER
 10
7.8632334289
 20
37.1227169402
 11
7.8632334289
 21
24.1607410682
  0
LWPOLYLINE
  5
218
100
AcDbEntity
  8
0
100
AcDbPolyline
 62
7
  6
BYLAYER
 90
3
 70
0
 10
17.893585995
 20
18.6996031401
 10
17.392407657
 20
18.6419804708
 10
16.1002295926
 20
18.7901915353
  0
LINE
  5
219
100
AcDbEntity
  8
0
100
AcDbLine
 62
7
  6
BYLAYER
 10
12.6257334289
 20
37.1227169402
 11
12.6257334289
 21
41.0113097017
  0
LINE
  5
21A
100
AcDbEntity
  8
0
100
AcDbLine
 62
7
  6
BYLAYER
 10
20.5387858192
 20
35.3848043919
 11
20.5387858192
 21
38.6252983598
  0
LINE
  5
21B
100
AcDbEntity
  8
0
100
AcDbLine
 62
7
  6
BYLAYER
 10
43.2847791092
 20
72.4862815003
 11
38.4784059583
 21
69.3405712721
  0
LINE
  5
21C
100
AcDbEntity
  8
0
100
AcDbLine
 62
7
  6
BYLAYER
 10
37.1631167491
 20
66.8594841934
 11
30.3049179159
 21
62.3708800966
  0
LINE
  5
21D
100
AcDbEntity
  8
0
100
AcDbLine
 62
7
  6
BYLAYER
 10
22.1507334289
 20
40.6872603049
 11
22.1507334289
 21
41.0113097017
  0
LINE
  5
21E
100
AcDbEntity
  8
0
100
AcDbLine
 62
7
  6
BYLAYER
 10
30.3049179159
 20
62.3708800966
 11
22.9392983444
 21
48.4767924559
  0
LINE
  5
21F
100
AcDbEntity
  8
0
100
AcDbLine
 62
7
  6
BYLAYER
 10
26.9132334289
 20
37.1227169402
 11
26.9132334289
 21
24.1607410682
  0
LINE
  5
220
100
AcDbEntity
  8
0
100
AcDbLine
 62
7
  6
BYLAYER
 10
38.4784059583
 20
69.3405712721
 11
37.1631167491
 21
66.8594841934
  0
LINE
  5
221
100
AcDbEntity
  8
0
100
AcDbLine
 62
7
  6
BYLAYER
 10
22.9392983444
 20
48.4767924559
 11
15.2476388437
 21
43.4426989299
  0
LINE
  5
222
100
AcDbEntity
  8
0
100
AcDbLine
 62
7
  6
BYLAYER
 10
48.4955822829
 20
63.55728266
 11
58.5600290098
 21
68.6830901741
  0
LINE
  5
223
100
AcDbEntity
  8
0
100
AcDbLine
 62
7
  6
BYLAYER
 10
39.2300087498
 20
57.2180930727
 11
47.0045531382
 21
61.1776567851
  0
LINE
  5
224
100
AcDbEntity
  8
0
100
AcDbLine
 62
7
  6
BYLAYER
 10
30.8802455393
 20
43.8921881729
 11
22.9392983444
 21
48.4767924559
  0
LINE
  5
225
100
AcDbEntity
  8
0
100
AcDbLine
 62
7
  6
BYLAYER
 10
47.0045531382
 20
57.9371628171
 11
39.8476132435
 21
54.2921441404
  0
LINE
  5
226
100
AcDbEntity
  8
0
100
AcDbLine
 62
7
  6
BYLAYER
 10
30.8802455393
 20
43.8921881729
 11
39.2300087498
 21
57.2180930727
  0
LINE
  5
227
100
AcDbEntity
  8
0
100
AcDbLine
 62
7
  6
BYLAYER
 10
58.5600290098
 20
62.2021022382
 11
48.4955822829
 21
57.0762947241
  0
LINE
  5
228
100
AcDbEntity
  8
0
100
AcDbLine
 62
7
  6
BYLAYER
 10
39.8476132435
 20
54.2921441404
 11
31.497850033
 21
40.9662392406
  0
LINE
  5
229
100
AcDbEntity
  8
0
100
AcDbLine
 62
7
  6
BYLAYER
 10
20.5387858192
 20
38.6252983598
 11
30.8802455393
 21
43.8921881729
  0
LINE
  5
22A
100
AcDbEntity
  8
0
100
AcDbLine
 62
7
  6
BYLAYER
 10
39.8153487221
 20
70.2155833435
 11
39.8153253126
 21
73.4618001805
  0
LINE
  5
22B
100
AcDbEntity
  8
0
100
AcDbLine
 62
7
  6
BYLAYER
 10
47.0045531382
 20
61.1776567851
 11
48.4955822829
 21
63.55728266
  0
LINE
  5
22C
100
AcDbEntity
  8
0
100
AcDbLine
 62
7
  6
BYLAYER
 10
31.497850033
 20
40.9662392406
 11
20.5387858192
 21
35.3848043919
  0
LINE
  5
22D
100
AcDbEntity
  8
0
100
AcDbLine
 62
7
  6
BYLAYER
 10
43.7840753125
 20
76.7023227684
 11
43.7841004282
 21
73.2195070601
  0
LINE
  5
22E
100
AcDbEntity
  8
0
100
AcDbLine
 62
7
  6
BYLAYER
 10
47.7531177913
 20
72.1196933199
 11
47.7892606941
 21
72.4862923277
  0
LINE
  5
22F
100
AcDbEntity
  8
0
100
AcDbLine
 62
7
  6
BYLAYER
 10
39.2300087498
 20
57.2180930727
 11
30.3049179159
 21
62.3708800966
  0
LINE
  5
230
100
AcDbEntity
  8
0
100
AcDbLine
 62
7
  6
BYLAYER
 10
47.7892606941
 20
71.9805571202
 11
47.7892606941
 21
72.4862923277
  0
LINE
  5
231
100
AcDbEntity
  8
0
100
AcDbLine
 62
7
  6
BYLAYER
 10
48.0896283224
 20
73.2195174093
 11
48.0896283224
 21
71.081577513
  0
LINE
  5
232
100
AcDbEntity
  8
0
100
AcDbLine
 62
7
  6
BYLAYER
 10
48.4955822829
 20
57.0762947241
 11
47.0045531382
 21
57.9371628171
  0
LINE
  5
233
100
AcDbEntity
  8
0
100
AcDbLine
 62
7
  6
BYLAYER
 10
47.0045531382
 20
61.1776567851
 11
37.1631167491
 21
66.8594841934
  0
LINE
  5
234
100
AcDbEntity
  8
0
100
AcDbLine
 62
7
  6
BYLAYER
 10
48.4955822829
 20
63.55728266
 11
38.4784059583
 21
69.3405712721
  0
LINE
  5
235
100
AcDbEntity
  8
0
100
AcDbLine
 62
7
  6
BYLAYER
 10
58.5600290098
 20
68.6830901741
 11
58.5600290098
 21
62.2021022382
  0
LINE
  5
236
100
AcDbEntity
  8
0
100
AcDbLine
 62
7
  6
BYLAYER
 10
47.7892606941
 20
72.4862923277
 11
43.2847791092
 21
72.4862815003
  0
LINE
  5
237
100
AcDbEntity
  8
0
100
AcDbLine
 62
7
  6
BYLAYER
 10
61.2466083594
 20
65.63870548
 11
61.2466083594
 21
72.1196934159
  0
LINE
  5
238
100
AcDbEntity
  8
0
100
AcDbLine
 62
7
  6
BYLAYER
 10
43.7841004282
 20
73.2195070601
 11
48.0896283224
 21
73.2195174093
  0
LINE
  5
239
100
AcDbEntity
  8
0
100
AcDbLine
 62
7
  6
BYLAYER
 10
53.3090753124
 20
76.7023456637
 11
43.7840753125
 21
76.7023227684
  0
SPLINE
  5
23A
100
AcDbEntity
  8
0
100
AcDbSpline
 62
7
  6
BYLAYER
 70
0
 71
3
 72
23
 73
19
 74
0
 42
0.0000001
 43
0.0000001
 44
0.0000000001
 40
0.0
 40
0.0
 40
0.0
 40
0.0
 40
0.0427775555
 40
0.0872330385
 40
0.1347408003
 40
0.1862127108
 40
0.2420789401
 40
0.3023577954
 40
0.36674303
 40
0.4346738024
 40
0.5054031586
 40
0.5780544723
 40
0.6516634857
 40
0.7252323074
 40
0.7977585242
 40
0.8682772148
 40
0.9359605793
 40
1.0
 40
1.0
 40
1.0
 40
1.0
 10
22.150724948
 20
41.0113096764
 30
0.0
 10
22.1507144016
 20
41.1432569174
 30
0.0
 10
22.1164530773
 20
41.4134188871
 30
0.0
 10
21.9655528318
 20
41.804385585
 30
0.0
 10
21.7203240391
 20
42.1761881188
 30
0.0
 10
21.3873099277
 20
42.5216982554
 30
0.0
 10
20.9739062448
 20
42.8350946682
 30
0.0
 10
20.4885143806
 20
43.1108171636
 30
0.0
 10
19.9407559729
 20
43.3436874923
 30
0.0
 10
19.3415507346
 20
43.5292114827
 30
0.0
 10
18.7029173455
 20
43.6637734931
 30
0.0
 10
18.0377091685
 20
43.744644805
 30
0.0
 10
17.3593566839
 20
43.7701834676
 30
0.0
 10
16.6815830303
 20
43.7398967138
 30
0.0
 10
16.0181243559
 20
43.6544145991
 30
0.0
 10
15.3822507539
 20
43.5154161252
 30
0.0
 10
14.7870421208
 20
43.3256521266
 30
0.0
 10
14.4136971803
 20
43.1629164019
 30
0.0
 10
14.2376810387
 20
43.0732716468
 30
0.0
  0
SPLINE
  5
23B
100
AcDbEntity
  8
0
100
AcDbSpline
 62
7
  6
BYLAYER
 70
0
 71
3
 72
25
 73
21
 74
0
 42
0.0000001
 43
0.0000001
 44
0.0000000001
 40
0.0
 40
0.0
 40
0.0
 40
0.0
 40
0.062378874
 40
0.1287245238
 40
0.1983140788
 40
0.2702913496
 40
0.3436677314
 40
0.4174006566
 40
0.4904263183
 40
0.5617136547
 40
0.6303111948
 40
0.6953987679
 40
0.7563463279
 40
0.8127836403
 40
0.8646840666
 40
0.9124584678
 40
0.9351027809
 40
0.9571078606
 40
0.9786681584
 40
1.0
 40
1.0
 40
1.0
 40
1.0
 10
24.123453561
 20
20.2722478814
 30
0.0
 10
23.7812623512
 20
20.0746848736
 30
0.0
 10
23.0478711032
 20
19.7131081134
 30
0.0
 10
21.8648685035
 20
19.2844207023
 30
0.0
 10
20.5864031424
 20
18.9599135799
 30
0.0
 10
19.2399401869
 20
18.7463781797
 30
0.0
 10
17.8539416911
 20
18.6484049553
 30
0.0
 10
16.4580115053
 20
18.6680326529
 30
0.0
 10
15.0819138289
 20
18.8048803741
 30
0.0
 10
13.7549908311
 20
19.0560265721
 30
0.0
 10
12.5054332563
 20
19.4161532318
 30
0.0
 10
11.359649498
 20
19.8777559567
 30
0.0
 10
10.3417169489
 20
20.4313805009
 30
0.0
 10
9.472916124
 20
21.066260986
 30
0.0
 10
8.771868788
 20
21.7701087291
 30
0.0
 10
8.33303088
 20
22.415881796
 30
0.0
 10
8.088480613
 20
22.9490529055
 30
0.0
 10
7.9588550172
 20
23.3489997886
 30
0.0
 10
7.8806672295
 20
23.7536089396
 30
0.0
 10
7.8632656494
 20
24.0256183227
 30
0.0
 10
7.8632654001
 20
24.1607410456
 30
0.0
  0
SPLINE
  5
23C
100
AcDbEntity
  8
0
100
AcDbSpline
 62
7
  6
BYLAYER
 70
0
 71
3
 72
11
 73
7
 74
0
 42
0.0000001
 43
0.0000001
 44
0.0000000001
 40
0.0
 40
0.0
 40
0.0
 40
0.0
 40
0.2435012949
 40
0.4898014772
 40
0.7413569378
 40
1.0
 40
1.0
 40
1.0
 40
1.0
 10
39.81533811
 20
73.4618001812
 30
0.0
 10
39.8153383637
 20
73.6281016587
 30
0.0
 10
39.8471752827
 20
73.963447662
 30
0.0
 10
39.9888068966
 20
74.4524215477
 30
0.0
 10
40.2204517955
 20
74.9171679677
 30
0.0
 10
40.4281153479
 20
75.1993154122
 30
0.0
 10
40.5437485253
 20
75.3328504551
 30
0.0
  0
SPLINE
  5
23D
100
AcDbEntity
  8
0
100
AcDbSpline
 62
7
  6
BYLAYER
 70
0
 71
3
 72
11
 73
7
 74
0
 42
0.0000001
 43
0.0000001
 44
0.0000000001
 40
0.0
 40
0.0
 40
0.0
 40
0.0
 40
0.2361471976
 40
0.4833428899
 40
0.7392678566
 40
1.0
 40
1.0
 40
1.0
 40
1.0
 10
40.5437485253
 20
75.3328504551
 30
0.0
 10
40.7301820324
 20
75.5481468513
 30
0.0
 10
41.1698587285
 20
75.9408798759
 30
0.0
 10
41.9572713908
 20
76.373003164
 30
0.0
 10
42.8447915067
 20
76.6417995252
 30
0.0
 10
43.4696272269
 20
76.7023220125
 30
0.0
 10
43.7840753125
 20
76.7023227684
 30
0.0
  0
SPLINE
  5
23E
100
AcDbEntity
  8
0
100
AcDbSpline
 62
7
  6
BYLAYER
 70
0
 71
3
 72
15
 73
11
 74
0
 42
0.0000001
 43
0.0000001
 44
0.0000000001
 40
0.0
 40
0.0
 40
0.0
 40
0.0
 40
0.148554963
 40
0.2895090791
 40
0.4227327079
 40
0.5486407736
 40
0.6680018676
 40
0.7819398574
 40
0.8919875329
 40
1.0
 40
1.0
 40
1.0
 40
1.0
 10
10.6530132969
 20
41.011210127
 30
0.0
 10
10.4382364058
 20
40.8872093712
 30
0.0
 10
10.0294085823
 20
40.6280280845
 30
0.0
 10
9.4704041043
 20
40.1954448777
 30
0.0
 10
8.9869142087
 20
39.7326319033
 30
0.0
 10
8.5837875739
 20
39.2439622095
 30
0.0
 10
8.265041571
 20
38.733761527
 30
0.0
 10
8.0343477125
 20
38.2065791608
 30
0.0
 10
7.8945387769
 20
37.6678099407
 30
0.0
 10
7.8632654621
 20
37.3030365134
 30
0.0
 10
7.8632653662
 20
37.1227168898
 30
0.0
  0
SPLINE
  5
23F
100
AcDbEntity
  8
0
100
AcDbSpline
 62
7
  6
BYLAYER
 70
0
 71
3
 72
15
 73
11
 74
0
 42
0.0000001
 43
0.0000001
 44
0.0000000001
 40
0.0
 40
0.0
 40
0.0
 40
0.0
 40
0.1080090295
 40
0.2180553708
 40
0.3319992298
 40
0.451350312
 40
0.5772550797
 40
0.7104978553
 40
0.8514744023
 40
1.0
 40
1.0
 40
1.0
 40
1.0
 10
58.8653515906
 20
72.1196934155
 30
0.0
 10
58.8653520135
 20
72.0145105127
 30
0.0
 10
58.8470511113
 20
71.8017390137
 30
0.0
 10
58.7655753898
 20
71.4874358405
 30
0.0
 10
58.6309276232
 20
71.179951045
 30
0.0
 10
58.4450725504
 20
70.8822976827
 30
0.0
 10
58.209878813
 20
70.5972587504
 30
0.0
 10
57.9278280068
 20
70.3272495671
 30
0.0
 10
57.6017114408
 20
70.0749297909
 30
0.0
 10
57.3632482896
 20
69.9237250642
 30
0.0
 10
57.2379867697
 20
69.8514057236
 30
0.0
  0
SPLINE
  5
240
100
AcDbEntity
  8
0
100
AcDbSpline
 62
7
  6
BYLAYER
 70
0
 71
3
 72
19
 73
15
 74
0
 42
0.0000001
 43
0.0000001
 44
0.0000000001
 40
0.0
 40
0.0
 40
0.0
 40
0.0
 40
0.0450644563
 40
0.0909781876
 40
0.138514851
 40
0.1883128982
 40
0.2408483608
 40
0.2964316902
 40
0.3552144331
 40
0.4172161847
 40
0.5502690024
 40
0.693835279
 40
0.8449450162
 40
1.0
 40
1.0
 40
1.0
 40
1.0
 10
61.2465981714
 20
72.1196934117
 30
0.0
 10
61.2465887457
 20
72.2699608366
 30
0.0
 10
61.220478921
 20
72.5739347562
 30
0.0
 10
61.1040212816
 20
73.0229236929
 30
0.0
 10
60.9117539036
 20
73.4622358639
 30
0.0
 10
60.6461308832
 20
73.8874162363
 30
0.0
 10
60.3101740651
 20
74.2946563222
 30
0.0
 10
59.9072837492
 20
74.6802355228
 30
0.0
 10
59.4414914327
 20
75.0408559672
 30
0.0
 10
58.7256318883
 20
75.4944184116
 30
0.0
 10
57.6974163249
 20
75.9731271775
 30
0.0
 10
56.329089471
 20
76.3890443087
 30
0.0
 10
54.8479801934
 20
76.6450220313
 30
0.0
 10
53.8261061413
 20
76.7023469065
 30
0.0
 10
53.3090753124
 20
76.7023456637
 30
0.0
  0
SPLINE
  5
241
100
AcDbEntity
  8
0
100
AcDbSpline
 62
7
  6
BYLAYER
 70
0
 71
3
 72
15
 73
11
 74
0
 42
0.0000001
 43
0.0000001
 44
0.0000000001
 40
0.0
 40
0.0
 40
0.0
 40
0.0
 40
0.1098663954
 40
0.2214938581
 40
0.3365112829
 40
0.4562880001
 40
0.5819036081
 40
0.7141539713
 40
0.8535206056
 40
1.0
 40
1.0
 40
1.0
 40
1.0
 10
61.2465981717
 20
65.6387054757
 30
0.0
 10
61.2466068447
 20
65.5004487719
 30
0.0
 10
61.2245382512
 20
65.2212457422
 30
0.0
 10
61.1261298092
 20
64.8077805337
 30
0.0
 10
60.9632450014
 20
64.4017963147
 30
0.0
 10
60.7378432357
 20
64.0067398443
 30
0.0
 10
60.4518971918
 20
63.6257598208
 30
0.0
 10
60.107971238
 20
63.2616676371
 30
0.0
 10
59.7089797943
 20
62.9174952814
 30
0.0
 10
59.4158425504
 20
62.7081011488
 30
0.0
 10
59.2616085983
 20
62.6071569846
 30
0.0
  0
SPLINE
  5
242
100
AcDbEntity
  8
0
100
AcDbSpline
 62
7
  6
BYLAYER
 70
0
 71
3
 72
13
 73
9
 74
0
 42
0.0000001
 43
0.0000001
 44
0.0000000001
 40
0.0
 40
0.0
 40
0.0
 40
0.0
 40
0.1150757633
 40
0.2330273829
 40
0.3541016362
 40
0.4783335565
 40
0.7349144414
 40
1.0
 40
1.0
 40
1.0
 40
1.0
 10
40.1242129268
 20
70.4990301046
 30
0.0
 10
40.1906973232
 20
70.6284405567
 30
0.0
 10
40.3449185303
 20
70.880876409
 30
0.0
 10
40.6302696611
 20
71.2275320556
 30
0.0
 10
40.9674211149
 20
71.5413440258
 30
0.0
 10
41.4837697255
 20
71.9125978712
 30
0.0
 10
42.2285430004
 20
72.2657055682
 30
0.0
 10
42.8774341226
 20
72.4124761151
 30
0.0
 10
43.2102155523
 20
72.4522191301
 30
0.0
  0
SPLINE
  5
243
100
AcDbEntity
  8
0
100
AcDbSpline
 62
7
  6
BYLAYER
 70
0
 71
3
 72
15
 73
11
 74
0
 42
0.0000001
 43
0.0000001
 44
0.0000000001
 40
0.0
 40
0.0
 40
0.0
 40
0.0
 40
0.1080110247
 40
0.2180576403
 40
0.3319950875
 40
0.4513556193
 40
0.5772634826
 40
0.7104881782
 40
0.8514445615
 40
1.0
 40
1.0
 40
1.0
 40
1.0
 10
26.9132014577
 20
24.1607410908
 30
0.0
 10
26.9132017903
 20
23.9804238956
 30
0.0
 10
26.8819270089
 20
23.6156549674
 30
0.0
 10
26.7421237452
 20
23.07688963
 30
0.0
 10
26.5114296421
 20
22.5497113991
 30
0.0
 10
26.1926904573
 20
22.039509282
 30
0.0
 10
25.7895634866
 20
21.5508390839
 30
0.0
 10
25.3060722339
 20
21.0880200918
 30
0.0
 10
24.7470615698
 20
20.6554344969
 30
0.0
 10
24.3382311152
 20
20.39624902
 30
0.0
 10
24.123453561
 20
20.2722478814
 30
0.0
  0
SPLINE
  5
244
100
AcDbEntity
  8
0
100
AcDbSpline
 62
7
  6
BYLAYER
 70
0
 71
3
 72
9
 73
5
 74
0
 42
0.0000001
 43
0.0000001
 44
0.0000000001
 40
0.0
 40
0.0
 40
0.0
 40
0.0
 40
0.4926475861
 40
1.0
 40
1.0
 40
1.0
 40
1.0
 10
26.9132014917
 20
37.1227169905
 30
0.0
 10
26.9132016133
 20
37.3513787488
 30
0.0
 10
26.8623447773
 20
37.8168388485
 30
0.0
 10
26.7149979522
 20
38.2606923784
 30
0.0
 10
26.6201931005
 20
38.4762524871
 30
0.0
  0
SPLINE
  5
245
100
AcDbEntity
  8
0
100
AcDbSpline
 62
7
  6
BYLAYER
 70
0
 71
3
 72
9
 73
5
 74
0
 42
0.0000001
 43
0.0000001
 44
0.0000000001
 40
0.0
 40
0.0
 40
0.0
 40
0.0
 40
0.5158558635
 40
1.0
 40
1.0
 40
1.0
 40
1.0
 10
12.9934534733
 20
42.0015652402
 30
0.0
 10
12.5742268141
 20
41.8756888935
 30
0.0
 10
11.7730211491
 20
41.5909951857
 30
0.0
 10
11.0087843667
 20
41.2166134238
 30
0.0
 10
10.6530132969
 20
41.011210127
 30
0.0
  0
SPLINE
  5
246
100
AcDbEntity
  8
0
100
AcDbSpline
 62
7
  6
BYLAYER
 70
0
 71
3
 72
9
 73
5
 74
0
 42
0.0000001
 43
0.0000001
 44
0.0000000001
 40
0.0
 40
0.0
 40
0.0
 40
0.0
 40
0.2441542994
 40
1.0
 40
1.0
 40
1.0
 40
1.0
 10
59.2616085983
 20
62.6071569846
 30
0.0
 10
59.2064272496
 20
62.5710414922
 30
0.0
 10
58.9782693807
 20
62.426416153
 30
0.0
 10
58.7419570768
 20
62.2947579279
 30
0.0
 10
58.5600290098
 20
62.2021022382
 30
0.0
  0
SPLINE
  5
247
100
AcDbEntity
  8
0
100
AcDbSpline
 62
7
  6
BYLAYER
 70
0
 71
3
 72
9
 73
5
 74
0
 42
0.0000001
 43
0.0000001
 44
0.0000000001
 40
0.0
 40
0.0
 40
0.0
 40
0.0
 40
0.258059103
 40
1.0
 40
1.0
 40
1.0
 40
1.0
 10
14.2376810387
 20
43.0732716468
 30
0.0
 10
14.1866657048
 20
43.0472896143
 30
0.0
 10
13.9907802202
 20
42.9431419599
 30
0.0
 10
13.8022574452
 20
42.824867233
 30
0.0
 10
13.6687879353
 20
42.7285392266
 30
0.0
  0
SPLINE
  5
248
100
AcDbEntity
  8
0
100
AcDbSpline
 62
7
  6
BYLAYER
 70
0
 71
3
 72
13
 73
9
 74
0
 42
0.0000001
 43
0.0000001
 44
0.0000000001
 40
0.0
 40
0.0
 40
0.0
 40
0.0
 40
0.2828085445
 40
0.5394825411
 40
0.6597181031
 40
0.7756738879
 40
0.8886159909
 40
1.0
 40
1.0
 40
1.0
 40
1.0
 10
13.6687879353
 20
42.7285392266
 30
0.0
 10
13.5094543546
 20
42.6135445269
 30
0.0
 10
13.2216628892
 20
42.369991595
 30
0.0
 10
12.9343731326
 20
42.0076680919
 30
0.0
 10
12.7736378604
 20
41.7043421632
 30
0.0
 10
12.6885853556
 20
41.476354702
 30
0.0
 10
12.6372469731
 20
41.2447948695
 30
0.0
 10
12.6257357241
 20
41.0886998753
 30
0.0
 10
12.6257419098
 20
41.011309727
 30
0.0
  0
SPLINE
  5
249
100
AcDbEntity
  8
0
100
AcDbSpline
 62
7
  6
BYLAYER
 70
0
 71
3
 72
21
 73
17
 74
0
 42
0.0000001
 43
0.0000001
 44
0.0000000001
 40
0.0
 40
0.0
 40
0.0
 40
0.0
 40
0.0551748202
 40
0.1111914812
 40
0.1685712573
 40
0.2276988603
 40
0.2887329753
 40
0.3516527696
 40
0.48192805
 40
0.5487944386
 40
0.6160488517
 40
0.7492786402
 40
0.8145195024
 40
0.8782013342
 40
0.9400601229
 40
1.0
 40
1.0
 40
1.0
 40
1.0
 10
40.61330435
 20
75.4284972928
 30
0.0
 10
40.6218914592
 20
75.5638306422
 30
0.0
 10
40.6655085459
 20
75.8355850434
 30
0.0
 10
40.807529807
 20
76.2271877309
 30
0.0
 10
41.02244338
 20
76.5952732272
 30
0.0
 10
41.304408914
 20
76.9308550509
 30
0.0
 10
41.6465379072
 20
77.2259956713
 30
0.0
 10
42.176812524
 20
77.55992862
 30
0.0
 10
42.786418367
 20
77.7812005564
 30
0.0
 10
43.4297725769
 20
77.8816088273
 30
0.0
 10
44.088016553
 20
77.8997965003
 30
0.0
 10
44.741138035
 20
77.7928858895
 30
0.0
 10
45.3452049374
 20
77.5643216589
 30
0.0
 10
45.7581760227
 20
77.3387245905
 30
0.0
 10
46.1234020377
 20
77.0632414452
 30
0.0
 10
46.3326302023
 20
76.8470009554
 30
0.0
 10
46.4257933829
 20
76.7328832138
 30
0.0
  0
SPLINE
  5
24A
100
AcDbEntity
  8
0
100
AcDbSpline
 62
7
  6
BYLAYER
 70
0
 71
3
 72
24
 73
20
 74
0
 42
0.0000001
 43
0.0000001
 44
0.0000000001
 40
0.0
 40
0.0
 40
0.0
 40
0.0
 40
0.0623734594
 40
0.1287366352
 40
0.1983249539
 40
0.2703063231
 40
0.3436881926
 40
0.4174229099
 40
0.4904516618
 40
0.5617420962
 40
0.6303429282
 40
0.6954352445
 40
0.7563875148
 40
0.8128281783
 40
0.8647335245
 40
0.9125121729
 40
0.9570859122
 40
0.978654508
 40
1.0
 40
1.0
 40
1.0
 40
1.0
 10
57.2379867697
 20
69.8514057236
 30
0.0
 10
57.0384078405
 20
69.7361794629
 30
0.0
 10
56.6105734237
 20
69.5252897384
 30
0.0
 10
55.9205238691
 20
69.2751751087
 30
0.0
 10
55.1747326484
 20
69.085882696
 30
0.0
 10
54.3893264104
 20
68.9613239965
 30
0.0
 10
53.5808464569
 20
68.9041782153
 30
0.0
 10
52.7665788019
 20
68.9156281273
 30
0.0
 10
51.9638839583
 20
68.9954207016
 30
0.0
 10
51.1898697849
 20
69.1419180836
 30
0.0
 10
50.4609753935
 20
69.3519784995
 30
0.0
 10
49.7925956416
 20
69.6212027161
 30
0.0
 10
49.1987917263
 20
69.9441480069
 30
0.0
 10
48.6919963334
 20
70.3144299969
 30
0.0
 10
48.2830064362
 20
70.7251895047
 30
0.0
 10
47.9811894543
 20
71.1687421225
 30
0.0
 10
47.8244475056
 20
71.5639810201
 30
0.0
 10
47.7630554429
 20
71.8820735426
 30
0.0
 10
47.7529166064
 20
72.0408273342
 30
0.0
 10
47.752918711
 20
72.1196933216
 30
0.0
  0
SPLINE
  5
24B
100
AcDbEntity
  8
0
100
AcDbSpline
 62
7
  6
BYLAYER
 70
0
 71
3
 72
14
 73
10
 74
0
 42
0.0000001
 43
0.0000001
 44
0.0000000001
 40
0.0
 40
0.0
 40
0.0
 40
0.0
 40
0.150459849
 40
0.2930269219
 40
0.553139944
 40
0.6721958732
 40
0.7851858028
 40
0.8937559936
 40
1.0
 40
1.0
 40
1.0
 40
1.0
 10
20.5387858192
 20
38.9493477566
 30
0.0
 10
20.6616589834
 20
39.0119268736
 30
0.0
 10
20.8960593454
 20
39.1440468463
 30
0.0
 10
21.3123317832
 20
39.4338845324
 30
0.0
 10
21.661911135
 20
39.7684790044
 30
0.0
 10
21.9162595144
 20
40.1427144732
 30
0.0
 10
22.0508044463
 20
40.4259551284
 30
0.0
 10
22.1323667116
 20
40.7166177238
 30
0.0
 10
22.1507327307
 20
40.9139408112
 30
0.0
 10
22.150724948
 20
41.0113096764
 30
0.0
  0
SPLINE
  5
24C
100
AcDbEntity
  8
0
100
AcDbSpline
 62
7
  6
BYLAYER
 70
0
 71
3
 72
9
 73
5
 74
0
 42
0.0000001
 43
0.0000001
 44
0.0000000001
 40
0.0
 40
0.0
 40
0.0
 40
0.0
 40
0.4744187608
 40
1.0
 40
1.0
 40
1.0
 40
1.0
 10
21.6241007133
 20
35.8659103777
 30
0.0
 10
21.4814023074
 20
35.7056067466
 30
0.0
 10
21.1399058699
 20
35.4032733184
 30
0.0
 10
20.7506517558
 20
35.1686579965
 30
0.0
 10
20.5387858192
 20
35.0607549951
 30
0.0
  0
SPLINE
  5
24D
100
AcDbEntity
  8
0
100
AcDbSpline
 62
7
  6
BYLAYER
 70
0
 71
3
 72
25
 73
21
 74
0
 42
0.0000001
 43
0.0000001
 44
0.0000000001
 40
0.0
 40
0.0
 40
0.0
 40
0.0
 40
0.021332071
 40
0.0428926546
 40
0.064898055
 40
0.0875427138
 40
0.1353178479
 40
0.1872189319
 40
0.2436566464
 40
0.3046042656
 40
0.3696914954
 40
0.4382882738
 40
0.5095745245
 40
0.582599014
 40
0.6563309827
 40
0.7297068246
 40
0.8016840456
 40
0.8712737834
 40
0.9376204536
 40
1.0
 40
1.0
 40
1.0
 40
1.0
 10
7.8632653662
 20
37.1227168898
 30
0.0
 10
7.8632652943
 20
36.9875927167
 30
0.0
 10
7.8806666751
 20
36.7155799488
 30
0.0
 10
7.958858153
 20
36.3109660894
 30
0.0
 10
8.088486463
 20
35.9110137826
 30
0.0
 10
8.3330430661
 20
35.37783575
 30
0.0
 10
8.771891438
 20
34.7320562644
 30
0.0
 10
9.4729528696
 20
34.0282064594
 30
0.0
 10
10.3417636818
 20
33.3933278218
 30
0.0
 10
11.3596998353
 20
32.8397084994
 30
0.0
 10
12.5054792798
 20
32.3781130405
 30
0.0
 10
13.7550246091
 20
32.017994301
 30
0.0
 10
15.0819292646
 20
31.7668546704
 30
0.0
 10
16.4580066009
 20
31.630009505
 30
0.0
 10
17.8539197611
 20
31.6103803749
 30
0.0
 10
19.2399086366
 20
31.7083505423
 30
0.0
 10
20.5863692458
 20
31.9218836072
 30
0.0
 10
21.8648428527
 20
32.246388087
 30
0.0
 10
23.0478567304
 20
32.6750792441
 30
0.0
 10
23.7812586703
 20
33.0366586204
 30
0.0
 10
24.123453561
 20
33.2342237533
 30
0.0
  0
SPLINE
  5
24E
100
AcDbEntity
  8
0
100
AcDbSpline
 62
7
  6
BYLAYER
 70
0
 71
3
 72
15
 73
11
 74
0
 42
0.0000001
 43
0.0000001
 44
0.0000000001
 40
0.0
 40
0.0
 40
0.0
 40
0.0
 40
0.148554963
 40
0.2895090791
 40
0.4227327079
 40
0.5486407736
 40
0.6680018676
 40
0.7819398574
 40
0.8919875329
 40
1.0
 40
1.0
 40
1.0
 40
1.0
 10
24.123453561
 20
33.2342237533
 30
0.0
 10
24.3382304521
 20
33.3582245091
 30
0.0
 10
24.7470582756
 20
33.6174057958
 30
0.0
 10
25.3060627535
 20
34.0499890026
 30
0.0
 10
25.7895526492
 20
34.5128019771
 30
0.0
 10
26.192679284
 20
35.0014716708
 30
0.0
 10
26.5114252869
 20
35.5116723533
 30
0.0
 10
26.7421191453
 20
36.0388547196
 30
0.0
 10
26.881928081
 20
36.5776239396
 30
0.0
 10
26.9132013957
 20
36.9423973669
 30
0.0
 10
26.9132014917
 20
37.1227169905
 30
0.0
  0
SPLINE
  5
24F
100
AcDbEntity
  8
0
100
AcDbSpline
 62
7
  6
BYLAYER
 70
0
 71
3
 72
15
 73
11
 74
0
 42
0.0000001
 43
0.0000001
 44
0.0000000001
 40
0.0
 40
0.0
 40
0.0
 40
0.0
 40
0.1362954725
 40
0.2710940921
 40
0.4029248115
 40
0.5307901695
 40
0.6540857155
 40
0.7728351578
 40
0.88770724
 40
1.0
 40
1.0
 40
1.0
 40
1.0
 10
43.7841004282
 20
73.2195070601
 30
0.0
 10
43.5384640907
 20
73.2195064697
 30
0.0
 10
43.0490675835
 20
73.1823894981
 30
0.0
 10
42.3390895202
 20
73.0171252497
 30
0.0
 10
41.6778286885
 20
72.7474577306
 30
0.0
 10
41.087977591
 20
72.3824161709
 30
0.0
 10
40.5898147639
 20
71.9336256845
 30
0.0
 10
40.200982269
 20
71.4156889111
 30
0.0
 10
39.9360114743
 20
70.8463017521
 30
0.0
 10
39.8483649839
 20
70.4421818902
 30
0.0
 10
39.8283578167
 20
70.240795445
 30
0.0
  0
SPLINE
  5
250
100
AcDbEntity
  8
0
100
AcDbSpline
 62
7
  6
BYLAYER
 70
0
 71
3
 72
23
 73
19
 74
0
 42
0.0000001
 43
0.0000001
 44
0.0000000001
 40
0.0
 40
0.0
 40
0.0
 40
0.0
 40
0.0640391076
 40
0.1317209607
 40
0.2022384854
 40
0.274763873
 40
0.3483320571
 40
0.4219411346
 40
0.4945933885
 40
0.5653240356
 40
0.6332560996
 40
0.6976423676
 40
0.7579217214
 40
0.8137879926
 40
0.8652597366
 40
0.912767176
 40
0.9572223777
 40
1.0
 40
1.0
 40
1.0
 40
1.0
 10
20.5387858192
 20
35.0607549951
 30
0.0
 10
20.362770541
 20
34.9711106798
 30
0.0
 10
19.9894313795
 20
34.8083758418
 30
0.0
 10
19.394231415
 20
34.6186148899
 30
0.0
 10
18.7583688181
 20
34.4796175635
 30
0.0
 10
18.0949189612
 20
34.3941305839
 30
0.0
 10
17.417149581
 20
34.3638430682
 30
0.0
 10
16.7387960356
 20
34.3893793472
 30
0.0
 10
16.0735800437
 20
34.4702455821
 30
0.0
 10
15.4349359348
 20
34.6048099872
 30
0.0
 10
14.8357198254
 20
34.7903362711
 30
0.0
 10
14.287952523
 20
35.0232081019
 30
0.0
 10
13.8025568682
 20
35.2989340023
 30
0.0
 10
13.3891535987
 20
35.6123328408
 30
0.0
 10
13.0561403107
 20
35.9578414282
 30
0.0
 10
12.810911928
 20
36.3296421841
 30
0.0
 10
12.6600185744
 20
36.7206087739
 30
0.0
 10
12.6257505336
 20
36.9907695014
 30
0.0
 10
12.6257423832
 20
37.1227169467
 30
0.0
  0
SPLINE
  5
251
100
AcDbEntity
  8
0
100
AcDbSpline
 62
7
  6
BYLAYER
 70
0
 71
3
 72
23
 73
19
 74
0
 42
0.0000001
 43
0.0000001
 44
0.0000000001
 40
0.0
 40
0.0
 40
0.0
 40
0.0
 40
0.0623834164
 40
0.1287492176
 40
0.1983467481
 40
0.2703366554
 40
0.3437250521
 40
0.4174678864
 40
0.4905049425
 40
0.561804246
 40
0.6304129294
 40
0.6955106022
 40
0.7564679579
 40
0.8129146238
 40
0.8648229462
 40
0.9126047708
 40
0.9571862054
 40
1.0
 40
1.0
 40
1.0
 40
1.0
 10
49.380229949
 20
74.3879811083
 30
0.0
 10
49.5798237166
 20
74.5032159358
 30
0.0
 10
50.0076578967
 20
74.7141204054
 30
0.0
 10
50.697732561
 20
74.9642211058
 30
0.0
 10
51.4435342034
 20
75.1535082217
 30
0.0
 10
52.228960483
 20
75.2780813958
 30
0.0
 10
53.0374579581
 20
75.335222588
 30
0.0
 10
53.8517412016
 20
75.3237531425
 30
0.0
 10
54.6544577427
 20
75.2439371232
 30
0.0
 10
55.4284997245
 20
75.0974510127
 30
0.0
 10
56.157406777
 20
74.8873674982
 30
0.0
 10
56.8257746755
 20
74.6180957668
 30
0.0
 10
57.4195724869
 20
74.2951410813
 30
0.0
 10
57.9263667626
 20
73.924840267
 30
0.0
 10
58.335339044
 20
73.5141298646
 30
0.0
 10
58.6370775428
 20
73.0702937718
 30
0.0
 10
58.8230440074
 20
72.6021141002
 30
0.0
 10
58.8653509547
 20
72.2778656545
 30
0.0
 10
58.8653515906
 20
72.1196934155
 30
0.0
  0
SPLINE
  5
252
100
AcDbEntity
  8
0
100
AcDbSpline
 62
7
  6
BYLAYER
 70
0
 71
3
 72
10
 73
6
 74
0
 42
0.0000001
 43
0.0000001
 44
0.0000000001
 40
0.0
 40
0.0
 40
0.0
 40
0.0
 40
0.4687024933
 40
0.7264785578
 40
1.0
 40
1.0
 40
1.0
 40
1.0
 10
48.0896283224
 20
73.2195174093
 30
0.0
 10
48.2361241853
 20
73.4512546007
 30
0.0
 10
48.5220648417
 20
73.7747285708
 30
0.0
 10
48.979301062
 20
74.1400366678
 30
0.0
 10
49.2416731251
 20
74.3079857662
 30
0.0
 10
49.380229949
 20
74.3879811083
 30
0.0
  0
SPLINE
  5
253
100
AcDbEntity
  8
0
100
AcDbSpline
 62
7
  6
BYLAYER
 70
0
 71
3
 72
14
 73
10
 74
0
 42
0.0000001
 43
0.0000001
 44
0.0000000001
 40
0.0
 40
0.0
 40
0.0
 40
0.0
 40
0.1062428674
 40
0.2148125399
 40
0.3278025779
 40
0.4468581053
 40
0.7069733314
 40
0.8495415802
 40
1.0
 40
1.0
 40
1.0
 40
1.0
 10
22.1507244747
 20
40.6872602984
 30
0.0
 10
22.1507304891
 20
40.5898925104
 30
0.0
 10
22.1323655182
 20
40.3925712669
 30
0.0
 10
22.0508051063
 20
40.1019094804
 30
0.0
 10
21.9162596016
 20
39.8186701596
 30
0.0
 10
21.6619144504
 20
39.4444306553
 30
0.0
 10
21.3123314778
 20
39.1098353177
 30
0.0
 10
20.8960574281
 20
38.8199974594
 30
0.0
 10
20.6616577741
 20
38.6878768609
 30
0.0
 10
20.5387858192
 20
38.6252983598
 30
0.0
  0
SPLINE
  5
254
100
AcDbEntity
  8
0
100
AcDbSpline
 62
7
  6
BYLAYER
 70
0
 71
3
 72
15
 73
11
 74
0
 42
0.0000001
 43
0.0000001
 44
0.0000000001
 40
0.0
 40
0.0
 40
0.0
 40
0.0
 40
0.1464793897
 40
0.2858460177
 40
0.4180963777
 40
0.5437119862
 40
0.6634887051
 40
0.7785061328
 40
0.8901335995
 40
1.0
 40
1.0
 40
1.0
 40
1.0
 10
59.2616085983
 20
69.0881449206
 30
0.0
 10
59.4158425454
 20
69.1890890815
 30
0.0
 10
59.7089797798
 20
69.3984832034
 30
0.0
 10
60.1079712105
 20
69.7426555469
 30
0.0
 10
60.4518971589
 20
70.1067477196
 30
0.0
 10
60.7378432083
 20
70.4877277375
 30
0.0
 10
60.9632449803
 20
70.8827842113
 30
0.0
 10
61.1261298007
 20
71.2887684372
 30
0.0
 10
61.224538244
 20
71.7022336609
 30
0.0
 10
61.2466068436
 20
71.9814367014
 30
0.0
 10
61.2465981714
 20
72.1196934117
 30
0.0
  0
SPLINE
  5
255
100
AcDbEntity
  8
0
100
AcDbSpline
 62
7
  6
BYLAYER
 70
0
 71
3
 72
9
 73
5
 74
0
 42
0.0000001
 43
0.0000001
 44
0.0000000001
 40
0.0
 40
0.0
 40
0.0
 40
0.0
 40
0.2558729148
 40
1.0
 40
1.0
 40
1.0
 40
1.0
 10
58.5600290098
 20
68.6830901741
 30
0.0
 10
58.6216157386
 20
68.714456202
 30
0.0
 10
58.8607412807
 20
68.8400778353
 30
0.0
 10
59.0934297749
 20
68.9780740151
 30
0.0
 10
59.2616085983
 20
69.0881449206
 30
0.0
  0
SPLINE
  5
256
100
AcDbEntity
  8
0
100
AcDbSpline
 62
7
  6
BYLAYER
 70
0
 71
3
 72
23
 73
19
 74
0
 42
0.0000001
 43
0.0000001
 44
0.0000000001
 40
0.0
 40
0.0
 40
0.0
 40
0.0
 40
0.0427775555
 40
0.0872330385
 40
0.1347408003
 40
0.1862127108
 40
0.2420789401
 40
0.3023577954
 40
0.36674303
 40
0.4346738024
 40
0.5054031586
 40
0.5780544723
 40
0.6516634857
 40
0.7252323074
 40
0.7977585242
 40
0.8682772148
 40
0.9359605793
 40
1.0
 40
1.0
 40
1.0
 40
1.0
 10
12.6257419098
 20
41.011309727
 30
0.0
 10
12.6257524563
 20
40.8793624861
 30
0.0
 10
12.6600137806
 20
40.6092005164
 30
0.0
 10
12.810914026
 20
40.2182338185
 30
0.0
 10
13.0561428187
 20
39.8464312847
 30
0.0
 10
13.3891569302
 20
39.5009211481
 30
0.0
 10
13.802560613
 20
39.1875247353
 30
0.0
 10
14.2879524773
 20
38.9118022399
 30
0.0
 10
14.8357108849
 20
38.6789319111
 30
0.0
 10
15.4349161232
 20
38.4934079208
 30
0.0
 10
16.0735495123
 20
38.3588459103
 30
0.0
 10
16.7387576894
 20
38.2779745985
 30
0.0
 10
17.417110174
 20
38.2524359359
 30
0.0
 10
18.0948838275
 20
38.2827226897
 30
0.0
 10
18.758342502
 20
38.3682048044
 30
0.0
 10
19.394216104
 20
38.5072032782
 30
0.0
 10
19.9894247371
 20
38.6969672768
 30
0.0
 10
20.3627696775
 20
38.8597030016
 30
0.0
 10
20.5387858192
 20
38.9493477566
 30
0.0
  0
ENDSEC
  0
SECTION
  2
OBJECTS
  0
DICTIONARY
  5
C
100
AcDbDictionary
280
0
281
1
  3
ACAD_GROUP
350
D
  3
ACAD_MLINESTYLE
350
17
  3
ACAD_LAYOUT
350
1A
  3
ACAD_PLOTSETTINGS
350
19
  3
ACAD_PLOTSTYLENAME
350
E
  0
DICTIONARY
  5
D
102
{ACAD_REACTORS
330
C
102
}
100
AcDbDictionary
280
0
281
1
  0
ACDBDICTIONARYWDFLT
  5
E
102
{ACAD_REACTORS
330
C
102
}
100
AcDbDictionary
281
1
  3
Normal
350
F
100
AcDbDictionaryWithDefault
340
F
  0
DICTIONARY
  5
17
102
{ACAD_REACTORS
330
C
102
}
100
AcDbDictionary
280
0
281
1
  3
Standard
350
18
  0
DICTIONARY
  5
19
102
{ACAD_REACTORS
330
C
102
}
100
AcDbDictionary
281
1
  0
DICTIONARY
  5
1A
102
{ACAD_REACTORS
330
C
102
}
100
AcDbDictionary
281
1
  3
Model
350
257
  3
Layout1
350
258
  0
ACDBPLACEHOLDER
  5
F
102
{ACAD_REACTORS
330
E
102
}
  0
MLINESTYLE
  5
18
102
{ACAD_REACTORS
330
17
102
}
100
AcDbMlineStyle
  2
STANDARD
 70
0
  3

 62
256
 51
90.0
 52
90.0
 71
2
 49
0.5
 62
256
  6
BYLAYER
 49
-0.5
 62
256
  6
BYLAYER
  0
LAYOUT
  5
257
102
{ACAD_REACTORS
330
1A
102
}
100
AcDbPlotSettings
  1

  2
none_device
  4

  6

 40
0.0
 41
0.0
 42
0.0
 43
0.0
 44
210.0
 45
297.0
 46
0.0
 47
0.0
 48
0.0
 49
0.0
140
0.0
141
0.0
142
1.0
143
1.0
 70
1024
 72
1
 73
0
 74
0
  7

 75
0
147
1.0
148
0.0
149
0.0
100
AcDbLayout
  1
Model
 70
0
 71
0
 10
0.0
 20
0.0
 11
210.0
 21
297.0
 12
0.0
 22
0.0
 32
0.0
 14
0.0
 24
0.0
 34
0.0
 15
0.0
 25
0.0
 35
0.0
146
0.0
 13
0.0
 23
0.0
 33
0.0
 16
1.0
 26
0.0
 36
0.0
 17
0.0
 27
1.0
 37
0.0
 76
0
330
210
345
0
346
0
  0
LAYOUT
  5
258
102
{ACAD_REACTORS
330
1A
102
}
100
AcDbPlotSettings
  1

  2
none_device
  4

  6

 40
0.0
 41
0.0
 42
0.0
 43
0.0
 44
210.0
 45
297.0
 46
0.0
 47
0.0
 48
0.0
 49
0.0
140
0.0
141
0.0
142
1.0
143
1.0
 70
0
 72
1
 73
0
 74
0
  7

 75
0
147
1.0
148
0.0
149
0.0
100
AcDbLayout
  1
Layout1
 70
0
 71
1
 10
0.0
 20
0.0
 11
210.0
 21
297.0
 12
0.0
 22
0.0
 32
0.0
 14
0.0
 24
0.0
 34
0.0
 15
0.0
 25
0.0
 35
0.0
146
0.0
 13
0.0
 23
0.0
 33
0.0
 16
1.0
 26
0.0
 36
0.0
 17
0.0
 27
1.0
 37
0.0
 76
0
330
211
345
0
346
0
  0
ENDSEC
  0
EOF
