999
DXF file: C:\Users\sesa63760\Dev\_Creo\CAD\MCADID0002981_3D-CAD\drw0001_1.dxf
999
Pro/ENGINEER 2019471 by Parametric Technology Corporation
  0
SECTION
  2
HEADER
  9
$ACADVER
  1
AC1024
  9
$DWGCODEPAGE
  3
ANSI_1252
  9
$EXTMAX
 10
148.3811699581
 20
209.8533689407
 30
0.0
  9
$EXTMIN
 10
0.0
 20
0.0
 30
0.0
  9
$LIMMIN
 10
0.0
 20
0.0
  9
$LIMMAX
 10
148.3811699581
 20
209.8533689407
  9
$VIEWCTR
 10
74.190584979
 20
104.9266844704
  9
$VIEWSIZE
 40
209.8533689407
  9
$CLAYER
  8
0
  9
$LTSCALE
 40
13.6793307161
  9
$CELTYPE
  6
BYLAYER
  9
$DIMSCALE
 40
1.0
  9
$DIMASZ
 40
1.7664424995
  9
$DIMEXO
 40
1.0
  9
$DIMDLI
 40
9.4511739493
  9
$DIMEXE
 40
1.0
  9
$DIMCEN
 40
2.2384359354
  9
$DIMLFAC
 40
1.0
  9
$DIMBLK
  1
_FILLED
  9
$DIMALT
 70
0
  9
$DIMALTF
 40
0.0393700787
  9
$DIMTXT
 40
2.4730194993
  9
$DIMTOL
 70
1
  9
$DIMLIM
 70
0
  9
$DIMTFAC
 40
1.0
  9
$DIMTP
 40
0.01
  9
$DIMTM
 40
0.01
  9
$DIMGAP
 40
0.625
  9
$DIMDSEP
 70
46
  9
$AUNITS
 70
0
  9
$PDMODE
 70
3
  9
$PDSIZE
 40
0.3125
  9
$HANDSEED
  5
269
  9
$TILEMODE
 70
1
  9
$MEASUREMENT
 70
1
  9
$INSUNITS
 70
4
  0
ENDSEC
  0
SECTION
  2
CLASSES
  0
CLASS
  1
ACDBDICTIONARYWDFLT
  2
AcDbDictionaryWithDefault
  3
AutoCAD 2000
 90
0
 91
1
280
0
281
0
  0
CLASS
  1
ACDBPLACEHOLDER
  2
AcDbPlaceHolder
  3
AutoCAD 2000
 90
0
 91
1
280
0
281
0
  0
CLASS
  1
LAYOUT
  2
AcDbLayout
  3
AutoCAD 2000
 90
0
 91
0
280
0
281
0
  0
ENDSEC
  0
SECTION
  2
TABLES
  0
TABLE
  2
VPORT
  5
8
100
AcDbSymbolTable
 70
2
  0
VPORT
  5
1F4
100
AcDbSymbolTableRecord
100
AcDbViewportTableRecord
  2
*ACTIVE
 70
0
 10
0.0
 20
0.0
 11
1.0
 21
1.0
 12
74.190584979
 22
104.9266844704
 13
0.0
 23
0.0
 14
1.0
 24
1.0
 15
0.0
 25
0.0
 16
0.0
 26
0.0
 36
1.0
 17
0.0
 27
0.0
 37
0.0
 40
209.8533689407
 41
0.7070707071
 42
50.0
 43
0.0
 44
0.0
 50
0.0
 51
0.0
 71
0
 72
100
 73
1
 74
1
 75
0
 76
0
 77
0
 78
0
  0
ENDTAB
  0
TABLE
  2
LTYPE
  5
5
100
AcDbSymbolTable
 70
6
  0
LTYPE
  5
14
100
AcDbSymbolTableRecord
100
AcDbLinetypeTableRecord
  2
BYBLOCK
 70
0
  3

 72
65
 73
0
 40
0.0
  0
LTYPE
  5
15
100
AcDbSymbolTableRecord
100
AcDbLinetypeTableRecord
  2
BYLAYER
 70
0
  3

 72
65
 73
0
 40
0.0
  0
LTYPE
  5
16
100
AcDbSymbolTableRecord
100
AcDbLinetypeTableRecord
  2
CONTINUOUS
 70
64
  3
Solid line
 72
65
 73
0
 40
0.0
  0
LTYPE
  5
1F5
100
AcDbSymbolTableRecord
100
AcDbLinetypeTableRecord
  2
CENTER
 70
64
  3
____ _ ____ _ ____ _ ____ _ ____ _ ____ _ ____
 72
65
 73
4
 40
0.6
 49
0.375
 74
0
 49
-0.075
 74
0
 49
0.075
 74
0
 49
-0.075
 74
0
  0
LTYPE
  5
1F6
100
AcDbSymbolTableRecord
100
AcDbLinetypeTableRecord
  2
HIDDEN
 70
64
  3
- - - - - - - - - - - - - - - - - - - -
 72
65
 73
2
 40
0.2
 49
0.1
 74
0
 49
-0.1
 74
0
  0
LTYPE
  5
1F7
100
AcDbSymbolTableRecord
100
AcDbLinetypeTableRecord
  2
PHANTOM
 70
64
  3
_____ _ _ _____ _ _ _____ _ _ _____
 72
65
 73
6
 40
0.8
 49
0.45
 74
0
 49
-0.05
 74
0
 49
0.1
 74
0
 49
-0.05
 74
0
 49
0.1
 74
0
 49
-0.05
 74
0
  0
LTYPE
  5
1F8
100
AcDbSymbolTableRecord
100
AcDbLinetypeTableRecord
  2
DOT
 70
64
  3
. . . . . . . . . . . . . . . . . . . .
 72
65
 73
2
 40
0.2
 49
0.1
 74
0
 49
-0.1
 74
0
  0
LTYPE
  5
1F9
100
AcDbSymbolTableRecord
100
AcDbLinetypeTableRecord
  2
DASHED
 70
64
  3
- - - - - - - - - - - - - - - - - - - -
 72
65
 73
2
 40
0.2
 49
0.1
 74
0
 49
-0.1
 74
0
  0
ENDTAB
  0
TABLE
  2
LAYER
  5
2
100
AcDbSymbolTable
 70
36
  0
LAYER
  5
10
100
AcDbSymbolTableRecord
100
AcDbLayerTableRecord
  2
0
 70
0
 62
7
  6
CONTINUOUS
370
-3
390
F
  0
LAYER
  5
1FA
100
AcDbSymbolTableRecord
100
AcDbLayerTableRecord
  2
DEFAULT_1
 70
0
 62
7
  6
CENTER
370
-3
390
F
  0
LAYER
  5
1FB
100
AcDbSymbolTableRecord
100
AcDbLayerTableRecord
  2
DEFAULT_2
 70
0
 62
7
  6
HIDDEN
370
-3
390
F
  0
LAYER
  5
1FC
100
AcDbSymbolTableRecord
100
AcDbLayerTableRecord
  2
DEFAULT_3
 70
0
 62
7
  6
PHANTOM
370
-3
390
F
  0
LAYER
  5
1FD
100
AcDbSymbolTableRecord
100
AcDbLayerTableRecord
  2
00_COMPONENTS
 70
0
 62
7
  6
CONTINUOUS
370
-3
390
F
  0
LAYER
  5
1FE
100
AcDbSymbolTableRecord
100
AcDbLayerTableRecord
  2
01_1_DEFAULT_DATUMS
 70
0
 62
7
  6
CONTINUOUS
370
-3
390
F
  0
LAYER
  5
1FF
100
AcDbSymbolTableRecord
100
AcDbLayerTableRecord
  2
01_PLANES
 70
0
 62
7
  6
CONTINUOUS
370
-3
390
F
  0
LAYER
  5
200
100
AcDbSymbolTableRecord
100
AcDbLayerTableRecord
  2
02_COORD_SYS
 70
0
 62
7
  6
CONTINUOUS
370
-3
390
F
  0
LAYER
  5
201
100
AcDbSymbolTableRecord
100
AcDbLayerTableRecord
  2
03_AXES
 70
0
 62
7
  6
CONTINUOUS
370
-3
390
F
  0
LAYER
  5
202
100
AcDbSymbolTableRecord
100
AcDbLayerTableRecord
  2
04_POINTS
 70
0
 62
7
  6
CONTINUOUS
370
-3
390
F
  0
LAYER
  5
203
100
AcDbSymbolTableRecord
100
AcDbLayerTableRecord
  2
05_CURVES
 70
0
 62
7
  6
CONTINUOUS
370
-3
390
F
  0
LAYER
  5
204
100
AcDbSymbolTableRecord
100
AcDbLayerTableRecord
  2
06_SURFS
 70
0
 62
7
  6
CONTINUOUS
370
-3
390
F
  0
LAYER
  5
205
100
AcDbSymbolTableRecord
100
AcDbLayerTableRecord
  2
07_COSMETICS
 70
0
 62
7
  6
CONTINUOUS
370
-3
390
F
  0
LAYER
  5
206
100
AcDbSymbolTableRecord
100
AcDbLayerTableRecord
  2
10_NOTES
 70
0
 62
7
  6
CONTINUOUS
370
-3
390
F
  0
LAYER
  5
207
100
AcDbSymbolTableRecord
100
AcDbLayerTableRecord
  2
11_NOTES_PUB
 70
0
 62
7
  6
CONTINUOUS
370
-3
390
F
  0
LAYER
  5
208
100
AcDbSymbolTableRecord
100
AcDbLayerTableRecord
  2
13_REF_GTOL
 70
0
 62
7
  6
CONTINUOUS
370
-3
390
F
  0
LAYER
  5
209
100
AcDbSymbolTableRecord
100
AcDbLayerTableRecord
  2
16_MISC
 70
0
 62
7
  6
CONTINUOUS
370
-3
390
F
  0
LAYER
  5
20A
100
AcDbSymbolTableRecord
100
AcDbLayerTableRecord
  2
17_NO_PRINT
 70
0
 62
7
  6
CONTINUOUS
370
-3
390
F
  0
LAYER
  5
20B
100
AcDbSymbolTableRecord
100
AcDbLayerTableRecord
  2
18_DATUM_CAMS_JOINTS
 70
0
 62
7
  6
CONTINUOUS
370
-3
390
F
  0
LAYER
  5
20C
100
AcDbSymbolTableRecord
100
AcDbLayerTableRecord
  2
19_DATUM_FUNCTIONAL
 70
0
 62
7
  6
CONTINUOUS
370
-3
390
F
  0
LAYER
  5
20D
100
AcDbSymbolTableRecord
100
AcDbLayerTableRecord
  2
20_DATUM_KINEMATIC_SCHEME
 70
0
 62
7
  6
CONTINUOUS
370
-3
390
F
  0
ENDTAB
  0
TABLE
  2
STYLE
  5
3
100
AcDbSymbolTable
 70
1
  0
STYLE
  5
11
100
AcDbSymbolTableRecord
100
AcDbTextStyleTableRecord
  2
STANDARD
 70
0
 40
0.0
 41
1.0
 50
0.0
 71
0
 42
0.2
  3
ARIAL.TTF
  4

  0
STYLE
  5
20E
100
AcDbSymbolTableRecord
100
AcDbTextStyleTableRecord
  2
TEXTSTYLE_1
 70
0
 40
0.0
 41
0.8
 50
0.0
 71
0
 42
0.2
  3
gdt
  4

  0
ENDTAB
  0
TABLE
  2
VIEW
  5
6
100
AcDbSymbolTable
 70
0
  0
ENDTAB
  0
TABLE
  2
UCS
  5
7
100
AcDbSymbolTable
 70
0
  0
ENDTAB
  0
TABLE
  2
APPID
  5
9
100
AcDbSymbolTable
 70
1
  0
APPID
  5
20F
100
AcDbSymbolTableRecord
100
AcDbRegAppTableRecord
  2
ACAD
 70
0
  0
ENDTAB
  0
TABLE
  2
BLOCK_RECORD
  5
1
100
AcDbSymbolTable
 70
0
  0
BLOCK_RECORD
  5
210
100
AcDbSymbolTableRecord
100
AcDbBlockTableRecord
  2
*Model_Space
  0
BLOCK_RECORD
  5
211
100
AcDbSymbolTableRecord
100
AcDbBlockTableRecord
  2
*Paper_Space
  0
BLOCK_RECORD
  5
212
100
AcDbSymbolTableRecord
100
AcDbBlockTableRecord
  2
_FILLED
  0
ENDTAB
  0
TABLE
  2
DIMSTYLE
  5
A
100
AcDbSymbolTable
 70
1
100
AcDbDimStyleTable
 71
0
  0
DIMSTYLE
105
213
100
AcDbSymbolTableRecord
100
AcDbDimStyleTableRecord
  2
STANDARD
 70
0
  3

  4

 40
1.0
 41
1.7664424995
 42
1.0
 43
0.38
 44
1.0
 45
0.0
 46
0.0
 47
0.01
 48
0.01
140
2.4730194993
141
0.09
142
0.0
143
25.4
144
1.0
145
0.0
146
1.0
147
0.625
 71
1
 72
0
 73
0
 74
0
 75
0
 76
0
 77
1
 78
8
 79
2
170
0
171
1
172
0
173
0
174
0
175
0
176
0
177
0
178
0
270
2
179
2
271
2
272
2
273
2
274
2
275
0
280
0
281
0
282
0
283
1
284
8
285
0
286
0
287
3
288
0
340
11
278
46
341
212
342
212
343
212
344
212
  0
ENDTAB
  0
ENDSEC
  0
SECTION
  2
BLOCKS
  0
BLOCK
  5
20
100
AcDbEntity
  8
0
100
AcDbBlockBegin
  2
*Model_Space
 70
0
 10
0.0
 20
0.0
 30
0.0
  3
*Model_Space
  1

  0
ENDBLK
  5
21
100
AcDbEntity
  8
0
100
AcDbBlockEnd
  0
BLOCK
  5
1C
100
AcDbEntity
  8
0
100
AcDbBlockBegin
  2
*Paper_Space
 70
0
 10
0.0
 20
0.0
 30
0.0
  3
*Paper_Space
  1

  0
ENDBLK
  5
1D
100
AcDbEntity
  8
0
100
AcDbBlockEnd
  0
BLOCK
  5
214
100
AcDbEntity
  8
0
100
AcDbBlockBegin
  2
_FILLED
 70
64
 10
0.0
 20
0.0
  3
_FILLED
  1

  0
SOLID
  5
215
100
AcDbEntity
  8
0
  6
BYBLOCK
 62
0
100
AcDbTrace
 10
0.0
 20
0.0
 11
-1.0
 21
0.25
 12
-1.0
 22
-0.25
 13
-1.0
 23
-0.25
  0
ENDBLK
  5
216
100
AcDbEntity
  8
0
  6
BYBLOCK
 62
0
100
AcDbBlockEnd
  0
ENDSEC
  0
SECTION
  2
ENTITIES
  0
LINE
  5
217
100
AcDbEntity
  8
0
100
AcDbLine
 62
7
  6
BYLAYER
 10
17.1920611139
 20
88.1924097808
 11
17.1920611139
 21
83.007619432
  0
LINE
  5
218
100
AcDbEntity
  8
0
100
AcDbLine
 62
7
  6
BYLAYER
 10
37.8295611139
 20
88.7108888156
 11
37.8295611139
 21
89.5404552714
  0
LINE
  5
219
100
AcDbEntity
  8
0
100
AcDbLine
 62
7
  6
BYLAYER
 10
45.7115538615
 20
86.6332458416
 11
45.7115538615
 21
87.4628122974
  0
LINE
  5
21A
100
AcDbEntity
  8
0
100
AcDbLine
 62
7
  6
BYLAYER
 10
57.6787822231
 20
103.8501882513
 11
57.6787822231
 21
104.6797547071
  0
LINE
  5
21B
100
AcDbEntity
  8
0
100
AcDbLine
 62
7
  6
BYLAYER
 10
95.036478691
 20
136.617650517
 11
72.5859318594
 21
123.6558986316
  0
LINE
  5
21C
100
AcDbEntity
  8
0
100
AcDbLine
 62
7
  6
BYLAYER
 10
62.7975345681
 20
102.9688050967
 11
62.7975345681
 21
103.7983715525
  0
LINE
  5
21D
100
AcDbEntity
  8
0
100
AcDbLine
 62
7
  6
BYLAYER
 10
58.3972057038
 20
104.2649821005
 11
38.9934005021
 21
91.3414522014
  0
LWPOLYLINE
  5
21E
100
AcDbEntity
  8
0
100
AcDbPolyline
 62
7
  6
BYLAYER
 90
6
 70
0
 10
53.7716195531
 20
101.1841997334
 10
51.8111586717
 20
101.8568543987
 10
43.645461918
 20
102.8442715446
 10
35.3768529222
 20
102.2527961025
 10
27.8493810583
 20
100.1339490805
 10
24.6314740952
 20
98.5617249456
  0
LINE
  5
21F
100
AcDbEntity
  8
0
100
AcDbLine
 62
7
  6
BYLAYER
 10
68.8143461747
 20
97.4212128491
 11
68.095922694
 21
97.8359854557
  0
LINE
  5
220
100
AcDbEntity
  8
0
100
AcDbLine
 62
7
  6
BYLAYER
 10
57.7300126288
 20
103.8206110319
 11
57.6787822231
 21
103.8501882513
  0
LINE
  5
221
100
AcDbEntity
  8
0
100
AcDbLine
 62
7
  6
BYLAYER
 10
57.6787822231
 20
104.6797547071
 11
58.3972057038
 21
104.2649821005
  0
LINE
  5
222
100
AcDbEntity
  8
0
100
AcDbLine
 62
7
  6
BYLAYER
 10
68.095922694
 20
98.6655519115
 11
68.8143461747
 21
98.2507793049
  0
LWPOLYLINE
  5
223
100
AcDbEntity
  8
0
100
AcDbPolyline
 62
7
  6
BYLAYER
 90
4
 70
0
 10
67.9914333143
 20
88.192410064
 10
67.9698899281
 20
88.8047786087
 10
66.2360850281
 20
93.5501615483
 10
63.945767179
 20
95.7589507204
  0
LINE
  5
224
100
AcDbEntity
  8
0
100
AcDbLine
 62
7
  6
BYLAYER
 10
67.9920611139
 20
88.1924097808
 11
67.9920611139
 21
83.007619432
  0
LINE
  5
225
100
AcDbEntity
  8
0
100
AcDbLine
 62
7
  6
BYLAYER
 10
68.095922694
 20
97.8359854557
 11
68.095922694
 21
98.6655519115
  0
LINE
  5
226
100
AcDbEntity
  8
0
100
AcDbLine
 62
7
  6
BYLAYER
 10
68.8143461747
 20
98.2507793049
 11
68.8143461747
 21
97.4212128491
  0
LINE
  5
227
100
AcDbEntity
  8
0
100
AcDbLine
 62
7
  6
BYLAYER
 10
122.3363570979
 20
142.0096001371
 11
104.0168994515
 21
131.4329194678
  0
LINE
  5
228
100
AcDbEntity
  8
0
100
AcDbLine
 62
7
  6
BYLAYER
 10
74.2023846911
 20
114.2196040948
 11
57.6787822231
 21
104.6797547071
  0
LINE
  5
229
100
AcDbEntity
  8
0
100
AcDbLine
 62
7
  6
BYLAYER
 10
120.2709344568
 20
136.9804563791
 11
107.3396080499
 21
129.5145961623
  0
LINE
  5
22A
100
AcDbEntity
  8
0
100
AcDbLine
 62
7
  6
BYLAYER
 10
77.5250932896
 20
112.3012807893
 11
62.7975345681
 21
103.7983715525
  0
LINE
  5
22B
100
AcDbEntity
  8
0
100
AcDbLine
 62
7
  6
BYLAYER
 10
62.7975345681
 20
102.9688050967
 11
78.2435291851
 21
111.8865010152
  0
LINE
  5
22C
100
AcDbEntity
  8
0
100
AcDbLine
 62
7
  6
BYLAYER
 10
108.0580439454
 20
129.0998163882
 11
120.2709344568
 21
136.1508899233
  0
LINE
  5
22D
100
AcDbEntity
  8
0
100
AcDbLine
 62
7
  6
BYLAYER
 10
72.5859318594
 20
113.2863501881
 11
72.5859318594
 21
123.6558986316
  0
LINE
  5
22E
100
AcDbEntity
  8
0
100
AcDbLine
 62
7
  6
BYLAYER
 10
109.4049483059
 20
128.3221983852
 11
86.9544014744
 21
115.3604464998
  0
LINE
  5
22F
100
AcDbEntity
  8
0
100
AcDbLine
 62
7
  6
BYLAYER
 10
67.2876813228
 20
101.2060427613
 11
82.0152400443
 21
109.7089519981
  0
LINE
  5
230
100
AcDbEntity
  8
0
100
AcDbLine
 62
7
  6
BYLAYER
 10
109.4049483059
 20
125.522313043
 11
124.7610812115
 21
134.3881275879
  0
LINE
  5
231
100
AcDbEntity
  8
0
100
AcDbLine
 62
7
  6
BYLAYER
 10
133.4719210495
 20
135.5806247349
 11
111.0392790313
 21
122.6292101366
  0
LINE
  5
232
100
AcDbEntity
  8
0
100
AcDbLine
 62
7
  6
BYLAYER
 10
85.3379486427
 20
107.7906286926
 11
68.8143461747
 21
98.2507793049
  0
LINE
  5
233
100
AcDbEntity
  8
0
100
AcDbLine
 62
7
  6
BYLAYER
 10
133.4719210495
 20
134.7510582791
 11
111.4329897836
 21
122.0269513328
  0
LINE
  5
234
100
AcDbEntity
  8
0
100
AcDbLine
 62
7
  6
BYLAYER
 10
85.3379486427
 20
106.9610622368
 11
68.8143461747
 21
97.4212128491
  0
LINE
  5
235
100
AcDbEntity
  8
0
100
AcDbLine
 62
7
  6
BYLAYER
 10
45.7115538615
 20
87.4628122974
 11
68.095922694
 21
98.6655519115
  0
LINE
  5
236
100
AcDbEntity
  8
0
100
AcDbLine
 62
7
  6
BYLAYER
 10
68.095922694
 20
97.8359854557
 11
45.7115538615
 21
86.6332458416
  0
LINE
  5
237
100
AcDbEntity
  8
0
100
AcDbLine
 62
7
  6
BYLAYER
 10
108.2058150218
 20
117.0529102819
 11
86.9544014744
 21
104.7834741883
  0
LINE
  5
238
100
AcDbEntity
  8
0
100
AcDbLine
 62
7
  6
BYLAYER
 10
86.9544014744
 20
104.7834741883
 11
85.3379486427
 21
105.7167125531
  0
LINE
  5
239
100
AcDbEntity
  8
0
100
AcDbLine
 62
7
  6
BYLAYER
 10
85.3559090802
 20
106.1418651825
 11
84.6374731847
 21
106.5566449566
  0
LINE
  5
23A
100
AcDbEntity
  8
0
100
AcDbLine
 62
7
  6
BYLAYER
 10
80.5963286907
 20
108.8897480362
 11
76.8246178315
 21
111.0672970533
  0
LINE
  5
23B
100
AcDbEntity
  8
0
100
AcDbLine
 62
7
  6
BYLAYER
 10
77.543053727
 20
111.482083735
 11
81.3147645862
 21
109.3045347179
  0
LINE
  5
23C
100
AcDbEntity
  8
0
100
AcDbLine
 62
7
  6
BYLAYER
 10
74.2023846911
 20
114.2196040948
 11
85.3379486427
 21
107.7906286926
  0
LINE
  5
23D
100
AcDbEntity
  8
0
100
AcDbLine
 62
7
  6
BYLAYER
 10
85.3379486427
 20
105.7167125531
 11
85.3379486427
 21
107.7906286926
  0
LINE
  5
23E
100
AcDbEntity
  8
0
100
AcDbLine
 62
7
  6
BYLAYER
 10
86.9544014744
 20
115.3604464998
 11
86.9544014744
 21
104.7834741883
  0
LINE
  5
23F
100
AcDbEntity
  8
0
100
AcDbLine
 62
7
  6
BYLAYER
 10
72.5859318594
 20
123.6558986316
 11
86.9544014744
 21
115.3604464998
  0
LINE
  5
240
100
AcDbEntity
  8
0
100
AcDbLine
 62
7
  6
BYLAYER
 10
107.8175051518
 20
117.1732807567
 11
104.9438112288
 21
118.8323711831
  0
LINE
  5
241
100
AcDbEntity
  8
0
100
AcDbLine
 62
7
  6
BYLAYER
 10
109.4049483059
 20
123.5890977081
 11
109.4049483059
 21
128.3221983852
  0
LINE
  5
242
100
AcDbEntity
  8
0
100
AcDbLine
 62
7
  6
BYLAYER
 10
110.9924512815
 20
122.6725731724
 11
108.1187573585
 21
124.3316635988
  0
LINE
  5
243
100
AcDbEntity
  8
0
100
AcDbLine
 62
7
  6
BYLAYER
 10
109.4049483059
 20
128.3221983852
 11
95.036478691
 21
136.617650517
  0
LINE
  5
244
100
AcDbEntity
  8
0
100
AcDbLine
 62
7
  6
BYLAYER
 10
120.2709344568
 20
136.9804563791
 11
120.2709344568
 21
136.1508899233
  0
LINE
  5
245
100
AcDbEntity
  8
0
100
AcDbLine
 62
7
  6
BYLAYER
 10
133.4719210495
 20
135.5806247349
 11
122.3363570979
 21
142.0096001371
  0
LINE
  5
246
100
AcDbEntity
  8
0
100
AcDbLine
 62
7
  6
BYLAYER
 10
133.4719210495
 20
134.7510582791
 11
133.4719210495
 21
135.5806247349
  0
ARC
  5
247
100
AcDbEntity
  8
0
100
AcDbCircle
 62
7
  6
BYLAYER
 10
43.376797726
 20
91.3032216353
 40
5.2210880212
100
AcDbArc
 50
292.4656167518
 51
296.5627763548
  0
ARC
  5
248
100
AcDbEntity
  8
0
100
AcDbCircle
 62
7
  6
BYLAYER
 10
63.1088499289
 20
101.6212261068
 40
1.2491261679
100
AcDbArc
 50
155.2083180324
 51
157.7149353069
  0
ARC
  5
249
100
AcDbEntity
  8
0
100
AcDbCircle
 62
7
  6
BYLAYER
 10
124.4539065629
 20
134.8048827991
 40
1.244700474
100
AcDbArc
 50
21.8669580479
 51
24.7800041873
  0
SPLINE
  5
24A
100
AcDbEntity
  8
0
100
AcDbSpline
 62
7
  6
BYLAYER
 70
0
 71
3
 72
25
 73
21
 74
0
 42
0.0000001
 43
0.0000001
 44
0.0000000001
 40
0.0
 40
0.0
 40
0.0
 40
0.0
 40
0.0623806926
 40
0.1287233452
 40
0.1983142681
 40
0.2702910344
 40
0.3436682218
 40
0.4174013613
 40
0.4904267815
 40
0.5617142132
 40
0.6303120122
 40
0.69539973
 40
0.7563471283
 40
0.8127840352
 40
0.8646841094
 40
0.9124584339
 40
0.9351030788
 40
0.9571079163
 40
0.9786681843
 40
1.0
 40
1.0
 40
1.0
 40
1.0
 10
60.5526481326
 20
72.6383042672
 30
0.0
 10
59.6401114873
 20
72.1114541342
 30
0.0
 10
57.6844314225
 20
71.1472300115
 30
0.0
 10
54.5297377007
 20
70.004109346
 30
0.0
 10
51.1205445469
 20
69.1387159691
 30
0.0
 10
47.5299407764
 20
68.5693191643
 30
0.0
 10
43.8339357858
 20
68.3080651723
 30
0.0
 10
40.1114416203
 20
68.3604217874
 30
0.0
 10
36.4418462655
 20
68.7253406882
 30
0.0
 10
32.9033768238
 20
69.3950334336
 30
0.0
 10
29.5712086652
 20
70.3553558856
 30
0.0
 10
26.515782734
 20
71.5863041534
 30
0.0
 10
23.8013131415
 20
73.0626575935
 30
0.0
 10
21.4845508477
 20
74.7556977833
 30
0.0
 10
19.615106241
 20
76.6326256886
 30
0.0
 10
18.4449022712
 20
78.3546948701
 30
0.0
 10
17.792672817
 20
79.7764411526
 30
0.0
 10
17.4470326421
 20
80.8429830669
 30
0.0
 10
17.2385955487
 20
81.9219395054
 30
0.0
 10
17.1920831971
 20
82.6472923025
 30
0.0
 10
17.1921065343
 20
83.007619185
 30
0.0
  0
SPLINE
  5
24B
100
AcDbEntity
  8
0
100
AcDbSpline
 62
7
  6
BYLAYER
 70
0
 71
3
 72
14
 73
10
 74
0
 42
0.0000001
 43
0.0000001
 44
0.0000000001
 40
0.0
 40
0.0
 40
0.0
 40
0.0
 40
0.2892813763
 40
0.4225433839
 40
0.5484947657
 40
0.6678951751
 40
0.7818679847
 40
0.8919511471
 40
1.0
 40
1.0
 40
1.0
 40
1.0
 10
24.6314740952
 20
98.5617249456
 30
0.0
 10
23.5165366384
 20
97.9180193472
 30
0.0
 10
21.9551357747
 20
96.8429922502
 30
0.0
 10
20.1886202987
 20
95.1523112195
 30
0.0
 10
19.1135545503
 20
93.849041227
 30
0.0
 10
18.2635122804
 20
92.4885724735
 30
0.0
 10
17.6483672513
 20
91.082722018
 30
0.0
 10
17.2755725188
 20
89.6460015768
 30
0.0
 10
17.1921387933
 20
88.6732697967
 30
0.0
 10
17.1921072696
 20
88.1924095102
 30
0.0
  0
SPLINE
  5
24C
100
AcDbEntity
  8
0
100
AcDbSpline
 62
7
  6
BYLAYER
 70
0
 71
3
 72
17
 73
13
 74
0
 42
0.0000001
 43
0.0000001
 44
0.0000000001
 40
0.0
 40
0.0
 40
0.0
 40
0.0
 40
0.1362493927
 40
0.2813698752
 40
0.4285029653
 40
0.5703621388
 40
0.7005246785
 40
0.8146943115
 40
0.8656024907
 40
0.9128029463
 40
0.9571720294
 40
1.0
 40
1.0
 40
1.0
 40
1.0
 10
45.3719265705
 20
86.4783671277
 30
0.0
 10
45.0011828594
 20
86.3245586029
 30
0.0
 10
44.2010647026
 20
86.0872332813
 30
0.0
 10
42.9429503925
 20
85.9352623028
 30
0.0
 10
41.6596272636
 20
85.9802923343
 30
0.0
 10
40.4422473497
 20
86.2199564509
 30
0.0
 10
39.3767623508
 20
86.6369967237
 30
0.0
 10
38.64698676
 20
87.1310605563
 30
0.0
 10
38.2232769264
 20
87.5947170055
 30
0.0
 10
37.9985846501
 20
87.9524250576
 30
0.0
 10
37.8608726554
 20
88.3268878238
 30
0.0
 10
37.8295597672
 20
88.5847201054
 30
0.0
 10
37.8295935099
 20
88.710888741
 30
0.0
  0
SPLINE
  5
24D
100
AcDbEntity
  8
0
100
AcDbSpline
 62
7
  6
BYLAYER
 70
0
 71
3
 72
9
 73
5
 74
0
 42
0.0000001
 43
0.0000001
 44
0.0000000001
 40
0.0
 40
0.0
 40
0.0
 40
0.0
 40
0.2747197706
 40
1.0
 40
1.0
 40
1.0
 40
1.0
 10
62.7975345681
 20
102.9688050967
 30
0.0
 10
62.7163887109
 20
102.9219557939
 30
0.0
 10
62.42980851
 20
102.7381577419
 30
0.0
 10
62.1762227747
 20
102.4921429734
 30
0.0
 10
62.0475058184
 20
102.2808967189
 30
0.0
  0
SPLINE
  5
24E
100
AcDbEntity
  8
0
100
AcDbSpline
 62
7
  6
BYLAYER
 70
0
 71
3
 72
9
 73
5
 74
0
 42
0.0000001
 43
0.0000001
 44
0.0000000001
 40
0.0
 40
0.0
 40
0.0
 40
0.0
 40
0.2536003753
 40
1.0
 40
1.0
 40
1.0
 40
1.0
 10
62.0475058184
 20
102.2808967189
 30
0.0
 10
62.0407258196
 20
102.2697695964
 30
0.0
 10
62.0145929494
 20
102.2255300166
 30
0.0
 10
61.9909222039
 20
102.1798276
 30
0.0
 10
61.9748452725
 20
102.1450100532
 30
0.0
  0
SPLINE
  5
24F
100
AcDbEntity
  8
0
100
AcDbSpline
 62
7
  6
BYLAYER
 70
0
 71
3
 72
11
 73
7
 74
0
 42
0.0000001
 43
0.0000001
 44
0.0000000001
 40
0.0
 40
0.0
 40
0.0
 40
0.0
 40
0.2230806966
 40
0.4585177803
 40
0.7157795989
 40
1.0
 40
1.0
 40
1.0
 40
1.0
 10
104.943818557
 20
118.8323838038
 30
0.0
 10
104.8519731725
 20
118.8854262758
 30
0.0
 10
104.6790609323
 20
119.0243222818
 30
0.0
 10
104.4828058433
 20
119.3070283059
 30
0.0
 10
104.3504092764
 20
119.6550342256
 30
0.0
 10
104.3081815657
 20
119.9106064689
 30
0.0
 10
104.2964553135
 20
120.0452267049
 30
0.0
  0
SPLINE
  5
250
100
AcDbEntity
  8
0
100
AcDbSpline
 62
7
  6
BYLAYER
 70
0
 71
3
 72
9
 73
5
 74
0
 42
0.0000001
 43
0.0000001
 44
0.0000000001
 40
0.0
 40
0.0
 40
0.0
 40
0.0
 40
0.2455951119
 40
1.0
 40
1.0
 40
1.0
 40
1.0
 10
104.2964553135
 20
120.0452267049
 30
0.0
 10
104.2947441207
 20
120.0648716157
 30
0.0
 10
104.2886910608
 20
120.1449385666
 30
0.0
 10
104.2862296105
 20
120.2252696021
 30
0.0
 10
104.2862296105
 20
120.2858422024
 30
0.0
  0
SPLINE
  5
251
100
AcDbEntity
  8
0
100
AcDbSpline
 62
7
  6
BYLAYER
 70
0
 71
3
 72
11
 73
7
 74
0
 42
0.0000001
 43
0.0000001
 44
0.0000000001
 40
0.0
 40
0.0
 40
0.0
 40
0.0
 40
0.2127351915
 40
0.4439207838
 40
0.7052016069
 40
1.0
 40
1.0
 40
1.0
 40
1.0
 10
107.8175105677
 20
117.1732901253
 30
0.0
 10
107.9348679018
 20
117.1055235522
 30
0.0
 10
108.2102072461
 20
117.0124301527
 30
0.0
 10
108.6663942226
 20
117.0262395378
 30
0.0
 10
109.1491173175
 20
117.1789102447
 30
0.0
 10
109.4586918545
 20
117.3560919121
 30
0.0
 10
109.6136066396
 20
117.4622428399
 30
0.0
  0
SPLINE
  5
252
100
AcDbEntity
  8
0
100
AcDbSpline
 62
7
  6
BYLAYER
 70
0
 71
3
 72
11
 73
7
 74
0
 42
0.0000001
 43
0.0000001
 44
0.0000000001
 40
0.0
 40
0.0
 40
0.0
 40
0.0
 40
0.2427435238
 40
0.5055387799
 40
0.7653374096
 40
1.0
 40
1.0
 40
1.0
 40
1.0
 10
109.6136066396
 20
117.4622428399
 30
0.0
 10
109.9079456906
 20
117.6639302602
 30
0.0
 10
110.4578963053
 20
118.1776661497
 30
0.0
 10
111.0971828195
 20
119.1124526938
 30
0.0
 10
111.5283456117
 20
120.1467562321
 30
0.0
 10
111.6500328998
 20
120.8741704735
 30
0.0
 10
111.6500328998
 20
121.2191021531
 30
0.0
  0
SPLINE
  5
253
100
AcDbEntity
  8
0
100
AcDbSpline
 62
7
  6
BYLAYER
 70
0
 71
3
 72
11
 73
7
 74
0
 42
0.0000001
 43
0.0000001
 44
0.0000000001
 40
0.0
 40
0.0
 40
0.0
 40
0.0
 40
0.2177827477
 40
0.4509152641
 40
0.7103063952
 40
1.0
 40
1.0
 40
1.0
 40
1.0
 10
125.690993236
 20
135.6842920198
 30
0.0
 10
125.6909767128
 20
135.5633621161
 30
0.0
 10
125.6463135298
 20
135.3113030276
 30
0.0
 10
125.4552176536
 20
134.9601021139
 30
0.0
 10
125.1531402254
 20
134.6426427238
 30
0.0
 10
124.9003906128
 20
134.4685574282
 30
0.0
 10
124.7610812115
 20
134.3881275879
 30
0.0
  0
SPLINE
  5
254
100
AcDbEntity
  8
0
100
AcDbSpline
 62
7
  6
BYLAYER
 70
0
 71
3
 72
9
 73
5
 74
0
 42
0.0000001
 43
0.0000001
 44
0.0000000001
 40
0.0
 40
0.0
 40
0.0
 40
0.0
 40
0.2465741283
 40
1.0
 40
1.0
 40
1.0
 40
1.0
 10
125.5839997584
 20
135.3265806423
 30
0.0
 10
125.5786420603
 20
135.3381911469
 30
0.0
 10
125.5562027141
 20
135.3849482608
 30
0.0
 10
125.5309784277
 20
135.4303598839
 30
0.0
 10
125.510622707
 20
135.4637103092
 30
0.0
  0
SPLINE
  5
255
100
AcDbEntity
  8
0
100
AcDbSpline
 62
7
  6
BYLAYER
 70
0
 71
3
 72
15
 73
11
 74
0
 42
0.0000001
 43
0.0000001
 44
0.0000000001
 40
0.0
 40
0.0
 40
0.0
 40
0.0
 40
0.0960054499
 40
0.2066983786
 40
0.3312477944
 40
0.4660970785
 40
0.606109221
 40
0.7454487628
 40
0.8783758239
 40
1.0
 40
1.0
 40
1.0
 40
1.0
 10
125.510622707
 20
135.4637103092
 30
0.0
 10
125.4158285146
 20
135.6190193102
 30
0.0
 10
125.1475115057
 20
135.9148415151
 30
0.0
 10
124.6144940968
 20
136.2554187528
 30
0.0
 10
123.9565060644
 20
136.5095741359
 30
0.0
 10
123.2121034816
 20
136.6626135898
 30
0.0
 10
122.4255852154
 20
136.7060324718
 30
0.0
 10
121.6444048324
 20
136.637082855
 30
0.0
 10
120.9162718941
 20
136.4600884684
 30
0.0
 10
120.4705590611
 20
136.2661425544
 30
0.0
 10
120.2709344568
 20
136.1508899233
 30
0.0
  0
SPLINE
  5
256
100
AcDbEntity
  8
0
100
AcDbSpline
 62
7
  6
BYLAYER
 70
0
 71
3
 72
14
 73
10
 74
0
 42
0.0000001
 43
0.0000001
 44
0.0000000001
 40
0.0
 40
0.0
 40
0.0
 40
0.0
 40
0.1080473901
 40
0.2181293624
 40
0.3321013358
 40
0.4515011615
 40
0.5774521756
 40
0.7107150133
 40
1.0
 40
1.0
 40
1.0
 40
1.0
 10
67.9920156935
 20
83.007619679
 30
0.0
 10
67.9919845502
 20
82.5267659195
 30
0.0
 10
67.9085521624
 20
81.5540460906
 30
0.0
 10
67.535765568
 20
80.1173397411
 30
0.0
 10
66.9206284626
 20
78.7114988076
 30
0.0
 10
66.0705995749
 20
77.3510312199
 30
0.0
 10
64.9955379137
 20
76.047758459
 30
0.0
 10
63.2290169551
 20
74.3570570672
 30
0.0
 10
61.6675994654
 20
73.2820178768
 30
0.0
 10
60.5526481326
 20
72.6383042672
 30
0.0
  0
SPLINE
  5
257
100
AcDbEntity
  8
0
100
AcDbSpline
 62
7
  6
BYLAYER
 70
0
 71
3
 72
9
 73
5
 74
0
 42
0.0000001
 43
0.0000001
 44
0.0000000001
 40
0.0
 40
0.0
 40
0.0
 40
0.0
 40
0.5328741819
 40
1.0
 40
1.0
 40
1.0
 40
1.0
 10
80.2223620874
 20
108.6772768626
 30
0.0
 10
80.0409054221
 20
108.797345984
 30
0.0
 10
79.7207006645
 20
109.0572285269
 30
0.0
 10
79.4822245717
 20
109.3987315422
 30
0.0
 10
79.4042533724
 20
109.5728049206
 30
0.0
  0
SPLINE
  5
258
100
AcDbEntity
  8
0
100
AcDbSpline
 62
7
  6
BYLAYER
 70
0
 71
3
 72
11
 73
7
 74
0
 42
0.0000001
 43
0.0000001
 44
0.0000000001
 40
0.0
 40
0.0
 40
0.0
 40
0.0
 40
0.2897026209
 40
0.5490908265
 40
0.782219764
 40
1.0
 40
1.0
 40
1.0
 40
1.0
 10
111.6500328998
 20
121.2191021531
 30
0.0
 10
111.6500328998
 20
121.3799736712
 30
0.0
 10
111.6256427181
 20
121.6859184517
 30
0.0
 10
111.5017455429
 20
122.106273215
 30
0.0
 10
111.293128529
 20
122.4473660389
 30
0.0
 10
111.0971730315
 20
122.6120903685
 30
0.0
 10
110.9924458656
 20
122.6725638038
 30
0.0
  0
SPLINE
  5
259
100
AcDbEntity
  8
0
100
AcDbSpline
 62
7
  6
BYLAYER
 70
0
 71
3
 72
9
 73
5
 74
0
 42
0.0000001
 43
0.0000001
 44
0.0000000001
 40
0.0
 40
0.0
 40
0.0
 40
0.0
 40
0.2378825145
 40
1.0
 40
1.0
 40
1.0
 40
1.0
 10
104.2862296105
 20
120.2858422024
 30
0.0
 10
104.2862296105
 20
120.3514642769
 30
0.0
 10
104.2954108493
 20
120.6273004249
 30
0.0
 10
104.3383525979
 20
120.9015604685
 30
0.0
 10
104.3856990193
 20
121.1063968798
 30
0.0
  0
SPLINE
  5
25A
100
AcDbEntity
  8
0
100
AcDbSpline
 62
7
  6
BYLAYER
 70
0
 71
3
 72
11
 73
7
 74
0
 42
0.0000001
 43
0.0000001
 44
0.0000000001
 40
0.0
 40
0.0
 40
0.0
 40
0.0
 40
0.2529953854
 40
0.5152346538
 40
0.7694233706
 40
1.0
 40
1.0
 40
1.0
 40
1.0
 10
104.3856990193
 20
121.1063968798
 30
0.0
 10
104.4582875077
 20
121.4204388925
 30
0.0
 10
104.6764701071
 20
122.0448255794
 30
0.0
 10
105.1639172017
 20
122.9010479752
 30
0.0
 10
105.7785638734
 20
123.6342810304
 30
0.0
 10
106.2685487453
 20
124.0215346028
 30
0.0
 10
106.5224518515
 20
124.1692781072
 30
0.0
  0
SPLINE
  5
25B
100
AcDbEntity
  8
0
100
AcDbSpline
 62
7
  6
BYLAYER
 70
0
 71
3
 72
11
 73
7
 74
0
 42
0.0000001
 43
0.0000001
 44
0.0000000001
 40
0.0
 40
0.0
 40
0.0
 40
0.0
 40
0.290017168
 40
0.5493437675
 40
0.7824352435
 40
1.0
 40
1.0
 40
1.0
 40
1.0
 10
106.5224518515
 20
124.1692781072
 30
0.0
 10
106.6624899734
 20
124.250764794
 30
0.0
 10
106.9409853509
 20
124.3844786004
 30
0.0
 10
107.369395899
 20
124.489146593
 30
0.0
 10
107.7713948969
 20
124.480053543
 30
0.0
 10
108.0134970007
 20
124.3924366226
 30
0.0
 10
108.1187500303
 20
124.3316509781
 30
0.0
  0
SPLINE
  5
25C
100
AcDbEntity
  8
0
100
AcDbSpline
 62
7
  6
BYLAYER
 70
0
 71
3
 72
17
 73
13
 74
0
 42
0.0000001
 43
0.0000001
 44
0.0000000001
 40
0.0
 40
0.0
 40
0.0
 40
0.0
 40
0.1286926208
 40
0.2702795078
 40
0.4174383051
 40
0.5617803148
 40
0.6954501289
 40
0.8127134773
 40
0.8646759206
 40
0.9125113962
 40
0.9571388332
 40
1.0
 40
1.0
 40
1.0
 40
1.0
 10
67.2876813228
 20
101.2060427613
 30
0.0
 10
67.0526494759
 20
101.0703478712
 30
0.0
 10
66.5205146213
 20
100.8507800992
 30
0.0
 10
65.6532276252
 20
100.6772945839
 30
0.0
 10
64.7359310883
 20
100.651889536
 30
0.0
 10
63.8434695107
 20
100.7773094205
 30
0.0
 10
63.0482124549
 20
101.0429411432
 30
0.0
 10
62.4950932329
 20
101.3796015547
 30
0.0
 10
62.1705179702
 20
101.7053814131
 30
0.0
 10
61.9980443621
 20
101.9589907602
 30
0.0
 10
61.8918516253
 20
102.2265448562
 30
0.0
 10
61.8676101936
 20
102.4118201619
 30
0.0
 10
61.8676225436
 20
102.5022071206
 30
0.0
  0
SPLINE
  5
25D
100
AcDbEntity
  8
0
100
AcDbSpline
 62
7
  6
BYLAYER
 70
0
 71
3
 72
11
 73
7
 74
0
 42
0.0000001
 43
0.0000001
 44
0.0000000001
 40
0.0
 40
0.0
 40
0.0
 40
0.0
 40
0.2854474542
 40
0.5433702747
 40
0.7782407329
 40
1.0
 40
1.0
 40
1.0
 40
1.0
 10
38.9934005021
 20
91.3414522014
 30
0.0
 10
38.8169295006
 20
91.2239170973
 30
0.0
 10
38.4975366361
 20
90.973019831
 30
0.0
 10
38.120311505
 20
90.5287374716
 30
0.0
 10
37.8841220598
 20
90.0463400385
 30
0.0
 10
37.8296375186
 20
89.7051773109
 30
0.0
 10
37.8295934773
 20
89.540455197
 30
0.0
  0
SPLINE
  5
25E
100
AcDbEntity
  8
0
100
AcDbSpline
 62
7
  6
BYLAYER
 70
0
 71
3
 72
11
 73
7
 74
0
 42
0.0000001
 43
0.0000001
 44
0.0000000001
 40
0.0
 40
0.0
 40
0.0
 40
0.0
 40
0.2897026209
 40
0.5490908265
 40
0.782219764
 40
1.0
 40
1.0
 40
1.0
 40
1.0
 10
107.1599235335
 20
118.626751776
 30
0.0
 10
107.1599235335
 20
118.4658802579
 30
0.0
 10
107.1843137152
 20
118.1599354774
 30
0.0
 10
107.3082108904
 20
117.7395807141
 30
0.0
 10
107.5168279043
 20
117.3984878902
 30
0.0
 10
107.7127834018
 20
117.2337635606
 30
0.0
 10
107.8175105677
 20
117.1732901253
 30
0.0
  0
SPLINE
  5
25F
100
AcDbEntity
  8
0
100
AcDbSpline
 62
7
  6
BYLAYER
 70
0
 71
3
 72
9
 73
5
 74
0
 42
0.0000001
 43
0.0000001
 44
0.0000000001
 40
0.0
 40
0.0
 40
0.0
 40
0.0
 40
0.4903988775
 40
1.0
 40
1.0
 40
1.0
 40
1.0
 10
37.8295934773
 20
89.540455197
 30
0.0
 10
37.8295582071
 20
89.4085384262
 30
0.0
 10
37.8638565498
 20
89.1385639236
 30
0.0
 10
37.9615572401
 20
88.8851538897
 30
0.0
 10
38.0238923378
 20
88.7630643574
 30
0.0
  0
SPLINE
  5
260
100
AcDbEntity
  8
0
100
AcDbSpline
 62
7
  6
BYLAYER
 70
0
 71
3
 72
15
 73
11
 74
0
 42
0.0000001
 43
0.0000001
 44
0.0000000001
 40
0.0
 40
0.0
 40
0.0
 40
0.0
 40
0.1999944489
 40
0.2596645122
 40
0.3226253287
 40
0.4564032622
 40
0.5966770492
 40
0.7377761235
 40
0.8739256708
 40
1.0
 40
1.0
 40
1.0
 40
1.0
 10
38.0238923378
 20
88.7630643574
 30
0.0
 10
38.2781340745
 20
88.2651064508
 30
0.0
 10
38.8759551526
 20
87.7608020171
 30
0.0
 10
39.6778870865
 20
87.3569267062
 30
0.0
 10
40.347454555
 20
87.0954549605
 30
0.0
 10
41.2664843335
 20
86.870533547
 30
0.0
 10
42.426215267
 20
86.7645308489
 30
0.0
 10
43.596031897
 20
86.8240992501
 30
0.0
 10
44.7056950539
 20
87.045279373
 30
0.0
 10
45.3963678623
 20
87.305070674
 30
0.0
 10
45.7115538615
 20
87.4628122974
 30
0.0
  0
SPLINE
  5
261
100
AcDbEntity
  8
0
100
AcDbSpline
 62
7
  6
BYLAYER
 70
0
 71
3
 72
17
 73
13
 74
0
 42
0.0000001
 43
0.0000001
 44
0.0000000001
 40
0.0
 40
0.0
 40
0.0
 40
0.0
 40
0.0428590154
 40
0.087484945
 40
0.1353191404
 40
0.1872810096
 40
0.3045411455
 40
0.4382064078
 40
0.5825480614
 40
0.7297123844
 40
0.8713056989
 40
1.0
 40
1.0
 40
1.0
 40
1.0
 10
110.9924458656
 20
122.6725638038
 30
0.0
 10
110.9141756006
 20
122.7177600217
 30
0.0
 10
110.7416148442
 20
122.789411712
 30
0.0
 10
110.4568190469
 20
122.8312114081
 30
0.0
 10
110.150957478
 20
122.8086730993
 30
0.0
 10
109.7065478815
 20
122.690469813
 30
0.0
 10
109.1384399018
 20
122.3798175586
 30
0.0
 10
108.5107715184
 20
121.823942629
 30
0.0
 10
107.9559146699
 20
121.1137678873
 30
0.0
 10
107.5192493043
 20
120.3066477587
 30
0.0
 10
107.2358403849
 20
119.4687871588
 30
0.0
 10
107.1599235335
 20
118.8981454872
 30
0.0
 10
107.1599235335
 20
118.626751776
 30
0.0
  0
SPLINE
  5
262
100
AcDbEntity
  8
0
100
AcDbSpline
 62
7
  6
BYLAYER
 70
0
 71
3
 72
17
 73
13
 74
0
 42
0.0000001
 43
0.0000001
 44
0.0000000001
 40
0.0
 40
0.0
 40
0.0
 40
0.0
 40
0.1286926208
 40
0.2702795078
 40
0.4174383051
 40
0.5617803148
 40
0.6954501289
 40
0.8127134773
 40
0.8646759206
 40
0.9125113962
 40
0.9571388332
 40
1.0
 40
1.0
 40
1.0
 40
1.0
 10
120.2709344568
 20
136.9804563791
 30
0.0
 10
120.5059663037
 20
137.1161512692
 30
0.0
 10
121.0381011583
 20
137.3357190412
 30
0.0
 10
121.9053881544
 20
137.5092045565
 30
0.0
 10
122.8226846913
 20
137.5346096044
 30
0.0
 10
123.7151462689
 20
137.4091897199
 30
0.0
 10
124.5104033247
 20
137.1435579972
 30
0.0
 10
125.0635225467
 20
136.8068975857
 30
0.0
 10
125.3880978094
 20
136.4811177273
 30
0.0
 10
125.5605714174
 20
136.2275083802
 30
0.0
 10
125.6667641543
 20
135.9599542842
 30
0.0
 10
125.691005586
 20
135.7746789785
 30
0.0
 10
125.690993236
 20
135.6842920198
 30
0.0
  0
SPLINE
  5
263
100
AcDbEntity
  8
0
100
AcDbSpline
 62
7
  6
BYLAYER
 70
0
 71
3
 72
25
 73
21
 74
0
 42
0.0000001
 43
0.0000001
 44
0.0000000001
 40
0.0
 40
0.0
 40
0.0
 40
0.0
 40
0.0213321399
 40
0.0428927701
 40
0.0648979813
 40
0.0875430394
 40
0.1353181675
 40
0.1872189545
 40
0.2436563716
 40
0.3046039914
 40
0.3696915447
 40
0.4382887107
 40
0.5095751345
 40
0.5825993836
 40
0.6563314264
 40
0.7297077981
 40
0.8016842022
 40
0.8712750819
 40
0.9376185536
 40
1.0
 40
1.0
 40
1.0
 40
1.0
 10
17.1921072696
 20
88.1924095102
 30
0.0
 10
17.1920836473
 20
87.8320771579
 30
0.0
 10
17.238596567
 20
87.1067124755
 30
0.0
 10
17.4470450665
 20
86.0277401007
 30
0.0
 10
17.7926906646
 20
84.9611794196
 30
0.0
 10
18.4449472748
 20
83.5394156598
 30
0.0
 10
19.615178721
 20
81.8173262437
 30
0.0
 10
21.4846636632
 20
79.9403892259
 30
0.0
 10
23.8014586714
 20
78.2473528129
 30
0.0
 10
26.5159476381
 20
76.7710149583
 30
0.0
 10
29.5713725607
 20
75.54009088
 30
0.0
 10
32.9035156795
 20
74.5797928945
 30
0.0
 10
36.4419400402
 20
73.9101190609
 30
0.0
 10
40.1114805847
 20
73.5452106671
 30
0.0
 10
43.8339224344
 20
73.4928558346
 30
0.0
 10
47.5298891774
 20
73.7541044281
 30
0.0
 10
51.1204728119
 20
74.3234946799
 30
0.0
 10
54.5296754205
 20
75.1888793579
 30
0.0
 10
57.6843940394
 20
76.3320071731
 30
0.0
 10
59.6401004737
 20
77.2962381243
 30
0.0
 10
60.5526481326
 20
77.8230946159
 30
0.0
  0
SPLINE
  5
264
100
AcDbEntity
  8
0
100
AcDbSpline
 62
7
  6
BYLAYER
 70
0
 71
3
 72
13
 73
9
 74
0
 42
0.0000001
 43
0.0000001
 44
0.0000000001
 40
0.0
 40
0.0
 40
0.0
 40
0.0
 40
0.117295541
 40
0.2447621242
 40
0.5145279159
 40
0.7761158707
 40
0.8941608356
 40
1.0
 40
1.0
 40
1.0
 40
1.0
 10
104.3401049408
 20
121.1464990738
 30
0.0
 10
104.3401049408
 20
121.2790205632
 30
0.0
 10
104.367803254
 20
121.5558629281
 30
0.0
 10
104.515137671
 20
122.1199397718
 30
0.0
 10
104.8491537305
 20
122.7945100996
 30
0.0
 10
105.330304824
 20
123.3616130841
 30
0.0
 10
105.7737476838
 20
123.6880682671
 30
0.0
 10
106.0038558837
 20
123.7986126778
 30
0.0
 10
106.1173040799
 20
123.836406854
 30
0.0
  0
SPLINE
  5
265
100
AcDbEntity
  8
0
100
AcDbSpline
 62
7
  6
BYLAYER
 70
0
 71
3
 72
11
 73
7
 74
0
 42
0.0000001
 43
0.0000001
 44
0.0000000001
 40
0.0
 40
0.0
 40
0.0
 40
0.0
 40
0.2177827477
 40
0.4509152641
 40
0.7103063952
 40
1.0
 40
1.0
 40
1.0
 40
1.0
 10
61.8676225436
 20
102.5022071206
 30
0.0
 10
61.8676390668
 20
102.6231370243
 30
0.0
 10
61.9123022498
 20
102.8751961128
 30
0.0
 10
62.103398126
 20
103.2263970265
 30
0.0
 10
62.4054755542
 20
103.5438564166
 30
0.0
 10
62.6582251668
 20
103.7179417122
 30
0.0
 10
62.7975345681
 20
103.7983715525
 30
0.0
  0
SPLINE
  5
266
100
AcDbEntity
  8
0
100
AcDbSpline
 62
7
  6
BYLAYER
 70
0
 71
3
 72
14
 73
10
 74
0
 42
0.0000001
 43
0.0000001
 44
0.0000000001
 40
0.0
 40
0.0
 40
0.0
 40
0.0
 40
0.2892813763
 40
0.4225433839
 40
0.5484947657
 40
0.6678951751
 40
0.7818679847
 40
0.8919511471
 40
1.0
 40
1.0
 40
1.0
 40
1.0
 10
60.5526481326
 20
77.8230946159
 30
0.0
 10
61.6675855894
 20
78.4668002143
 30
0.0
 10
63.228986453
 20
79.5418273113
 30
0.0
 10
64.9955019291
 20
81.232508342
 30
0.0
 10
66.0705676774
 20
82.5357783346
 30
0.0
 10
66.9206099473
 20
83.896247088
 30
0.0
 10
67.5357549765
 20
85.3020975435
 30
0.0
 10
67.908549709
 20
86.7388179848
 30
0.0
 10
67.9919834344
 20
87.7115497648
 30
0.0
 10
67.9920149582
 20
88.1924100513
 30
0.0
  0
ENDSEC
  0
SECTION
  2
OBJECTS
  0
DICTIONARY
  5
C
100
AcDbDictionary
280
0
281
1
  3
ACAD_GROUP
350
D
  3
ACAD_MLINESTYLE
350
17
  3
ACAD_LAYOUT
350
1A
  3
ACAD_PLOTSETTINGS
350
19
  3
ACAD_PLOTSTYLENAME
350
E
  0
DICTIONARY
  5
D
102
{ACAD_REACTORS
330
C
102
}
100
AcDbDictionary
280
0
281
1
  0
ACDBDICTIONARYWDFLT
  5
E
102
{ACAD_REACTORS
330
C
102
}
100
AcDbDictionary
281
1
  3
Normal
350
F
100
AcDbDictionaryWithDefault
340
F
  0
DICTIONARY
  5
17
102
{ACAD_REACTORS
330
C
102
}
100
AcDbDictionary
280
0
281
1
  3
Standard
350
18
  0
DICTIONARY
  5
19
102
{ACAD_REACTORS
330
C
102
}
100
AcDbDictionary
281
1
  0
DICTIONARY
  5
1A
102
{ACAD_REACTORS
330
C
102
}
100
AcDbDictionary
281
1
  3
Model
350
267
  3
Layout1
350
268
  0
ACDBPLACEHOLDER
  5
F
102
{ACAD_REACTORS
330
E
102
}
  0
MLINESTYLE
  5
18
102
{ACAD_REACTORS
330
17
102
}
100
AcDbMlineStyle
  2
STANDARD
 70
0
  3

 62
256
 51
90.0
 52
90.0
 71
2
 49
0.5
 62
256
  6
BYLAYER
 49
-0.5
 62
256
  6
BYLAYER
  0
LAYOUT
  5
267
102
{ACAD_REACTORS
330
1A
102
}
100
AcDbPlotSettings
  1

  2
none_device
  4

  6

 40
0.0
 41
0.0
 42
0.0
 43
0.0
 44
210.0
 45
297.0
 46
0.0
 47
0.0
 48
0.0
 49
0.0
140
0.0
141
0.0
142
1.0
143
1.0
 70
1024
 72
1
 73
0
 74
0
  7

 75
0
147
1.0
148
0.0
149
0.0
100
AcDbLayout
  1
Model
 70
0
 71
0
 10
0.0
 20
0.0
 11
210.0
 21
297.0
 12
0.0
 22
0.0
 32
0.0
 14
0.0
 24
0.0
 34
0.0
 15
0.0
 25
0.0
 35
0.0
146
0.0
 13
0.0
 23
0.0
 33
0.0
 16
1.0
 26
0.0
 36
0.0
 17
0.0
 27
1.0
 37
0.0
 76
0
330
210
345
0
346
0
  0
LAYOUT
  5
268
102
{ACAD_REACTORS
330
1A
102
}
100
AcDbPlotSettings
  1

  2
none_device
  4

  6

 40
0.0
 41
0.0
 42
0.0
 43
0.0
 44
210.0
 45
297.0
 46
0.0
 47
0.0
 48
0.0
 49
0.0
140
0.0
141
0.0
142
1.0
143
1.0
 70
0
 72
1
 73
0
 74
0
  7

 75
0
147
1.0
148
0.0
149
0.0
100
AcDbLayout
  1
Layout1
 70
0
 71
1
 10
0.0
 20
0.0
 11
210.0
 21
297.0
 12
0.0
 22
0.0
 32
0.0
 14
0.0
 24
0.0
 34
0.0
 15
0.0
 25
0.0
 35
0.0
146
0.0
 13
0.0
 23
0.0
 33
0.0
 16
1.0
 26
0.0
 36
0.0
 17
0.0
 27
1.0
 37
0.0
 76
0
330
211
345
0
346
0
  0
ENDSEC
  0
EOF
