999
DXF file: C:\Users\sesa63760\Dev\_Creo\CAD\MCADID0002976_3D-CAD\drw0001_1.dxf
999
Pro/ENGINEER 2019471 by Parametric Technology Corporation
  0
SECTION
  2
HEADER
  9
$ACADVER
  1
AC1024
  9
$DWGCODEPAGE
  3
ANSI_1252
  9
$EXTMAX
 10
142.2269861867
 20
201.1495947497
 30
0.0
  9
$EXTMIN
 10
0.0
 20
0.0
 30
0.0
  9
$LIMMIN
 10
0.0
 20
0.0
  9
$LIMMAX
 10
142.2269861867
 20
201.1495947497
  9
$VIEWCTR
 10
71.1134930933
 20
100.5747973749
  9
$VIEWSIZE
 40
201.1495947497
  9
$CLAYER
  8
0
  9
$LTSCALE
 40
13.1119735837
  9
$CELTYPE
  6
BYLAYER
  9
$DIMSCALE
 40
1.0
  9
$DIMASZ
 40
1.693178407
  9
$DIMEXO
 40
1.0
  9
$DIMDLI
 40
9.0591817487
  9
$DIMEXE
 40
1.0
  9
$DIMCEN
 40
2.1455956773
  9
$DIMLFAC
 40
1.0
  9
$DIMBLK
  1
_FILLED
  9
$DIMALT
 70
0
  9
$DIMALTF
 40
0.0393700787
  9
$DIMTXT
 40
2.3704497698
  9
$DIMTOL
 70
1
  9
$DIMLIM
 70
0
  9
$DIMTFAC
 40
1.0
  9
$DIMTP
 40
0.01
  9
$DIMTM
 40
0.01
  9
$DIMGAP
 40
0.625
  9
$DIMDSEP
 70
46
  9
$AUNITS
 70
0
  9
$PDMODE
 70
3
  9
$PDSIZE
 40
0.3125
  9
$HANDSEED
  5
269
  9
$TILEMODE
 70
1
  9
$MEASUREMENT
 70
1
  9
$INSUNITS
 70
4
  0
ENDSEC
  0
SECTION
  2
CLASSES
  0
CLASS
  1
ACDBDICTIONARYWDFLT
  2
AcDbDictionaryWithDefault
  3
AutoCAD 2000
 90
0
 91
1
280
0
281
0
  0
CLASS
  1
ACDBPLACEHOLDER
  2
AcDbPlaceHolder
  3
AutoCAD 2000
 90
0
 91
1
280
0
281
0
  0
CLASS
  1
LAYOUT
  2
AcDbLayout
  3
AutoCAD 2000
 90
0
 91
0
280
0
281
0
  0
ENDSEC
  0
SECTION
  2
TABLES
  0
TABLE
  2
VPORT
  5
8
100
AcDbSymbolTable
 70
2
  0
VPORT
  5
1F4
100
AcDbSymbolTableRecord
100
AcDbViewportTableRecord
  2
*ACTIVE
 70
0
 10
0.0
 20
0.0
 11
1.0
 21
1.0
 12
71.1134930933
 22
100.5747973749
 13
0.0
 23
0.0
 14
1.0
 24
1.0
 15
0.0
 25
0.0
 16
0.0
 26
0.0
 36
1.0
 17
0.0
 27
0.0
 37
0.0
 40
201.1495947497
 41
0.7070707071
 42
50.0
 43
0.0
 44
0.0
 50
0.0
 51
0.0
 71
0
 72
100
 73
1
 74
1
 75
0
 76
0
 77
0
 78
0
  0
ENDTAB
  0
TABLE
  2
LTYPE
  5
5
100
AcDbSymbolTable
 70
6
  0
LTYPE
  5
14
100
AcDbSymbolTableRecord
100
AcDbLinetypeTableRecord
  2
BYBLOCK
 70
0
  3

 72
65
 73
0
 40
0.0
  0
LTYPE
  5
15
100
AcDbSymbolTableRecord
100
AcDbLinetypeTableRecord
  2
BYLAYER
 70
0
  3

 72
65
 73
0
 40
0.0
  0
LTYPE
  5
16
100
AcDbSymbolTableRecord
100
AcDbLinetypeTableRecord
  2
CONTINUOUS
 70
64
  3
Solid line
 72
65
 73
0
 40
0.0
  0
LTYPE
  5
1F5
100
AcDbSymbolTableRecord
100
AcDbLinetypeTableRecord
  2
CENTER
 70
64
  3
____ _ ____ _ ____ _ ____ _ ____ _ ____ _ ____
 72
65
 73
4
 40
0.6
 49
0.375
 74
0
 49
-0.075
 74
0
 49
0.075
 74
0
 49
-0.075
 74
0
  0
LTYPE
  5
1F6
100
AcDbSymbolTableRecord
100
AcDbLinetypeTableRecord
  2
HIDDEN
 70
64
  3
- - - - - - - - - - - - - - - - - - - -
 72
65
 73
2
 40
0.2
 49
0.1
 74
0
 49
-0.1
 74
0
  0
LTYPE
  5
1F7
100
AcDbSymbolTableRecord
100
AcDbLinetypeTableRecord
  2
PHANTOM
 70
64
  3
_____ _ _ _____ _ _ _____ _ _ _____
 72
65
 73
6
 40
0.8
 49
0.45
 74
0
 49
-0.05
 74
0
 49
0.1
 74
0
 49
-0.05
 74
0
 49
0.1
 74
0
 49
-0.05
 74
0
  0
LTYPE
  5
1F8
100
AcDbSymbolTableRecord
100
AcDbLinetypeTableRecord
  2
DOT
 70
64
  3
. . . . . . . . . . . . . . . . . . . .
 72
65
 73
2
 40
0.2
 49
0.1
 74
0
 49
-0.1
 74
0
  0
LTYPE
  5
1F9
100
AcDbSymbolTableRecord
100
AcDbLinetypeTableRecord
  2
DASHED
 70
64
  3
- - - - - - - - - - - - - - - - - - - -
 72
65
 73
2
 40
0.2
 49
0.1
 74
0
 49
-0.1
 74
0
  0
ENDTAB
  0
TABLE
  2
LAYER
  5
2
100
AcDbSymbolTable
 70
36
  0
LAYER
  5
10
100
AcDbSymbolTableRecord
100
AcDbLayerTableRecord
  2
0
 70
0
 62
7
  6
CONTINUOUS
370
-3
390
F
  0
LAYER
  5
1FA
100
AcDbSymbolTableRecord
100
AcDbLayerTableRecord
  2
DEFAULT_1
 70
0
 62
7
  6
CENTER
370
-3
390
F
  0
LAYER
  5
1FB
100
AcDbSymbolTableRecord
100
AcDbLayerTableRecord
  2
DEFAULT_2
 70
0
 62
7
  6
HIDDEN
370
-3
390
F
  0
LAYER
  5
1FC
100
AcDbSymbolTableRecord
100
AcDbLayerTableRecord
  2
DEFAULT_3
 70
0
 62
7
  6
PHANTOM
370
-3
390
F
  0
LAYER
  5
1FD
100
AcDbSymbolTableRecord
100
AcDbLayerTableRecord
  2
00_COMPONENTS
 70
0
 62
7
  6
CONTINUOUS
370
-3
390
F
  0
LAYER
  5
1FE
100
AcDbSymbolTableRecord
100
AcDbLayerTableRecord
  2
01_1_DEFAULT_DATUMS
 70
0
 62
7
  6
CONTINUOUS
370
-3
390
F
  0
LAYER
  5
1FF
100
AcDbSymbolTableRecord
100
AcDbLayerTableRecord
  2
01_PLANES
 70
0
 62
7
  6
CONTINUOUS
370
-3
390
F
  0
LAYER
  5
200
100
AcDbSymbolTableRecord
100
AcDbLayerTableRecord
  2
02_COORD_SYS
 70
0
 62
7
  6
CONTINUOUS
370
-3
390
F
  0
LAYER
  5
201
100
AcDbSymbolTableRecord
100
AcDbLayerTableRecord
  2
03_AXES
 70
0
 62
7
  6
CONTINUOUS
370
-3
390
F
  0
LAYER
  5
202
100
AcDbSymbolTableRecord
100
AcDbLayerTableRecord
  2
04_POINTS
 70
0
 62
7
  6
CONTINUOUS
370
-3
390
F
  0
LAYER
  5
203
100
AcDbSymbolTableRecord
100
AcDbLayerTableRecord
  2
05_CURVES
 70
0
 62
7
  6
CONTINUOUS
370
-3
390
F
  0
LAYER
  5
204
100
AcDbSymbolTableRecord
100
AcDbLayerTableRecord
  2
06_SURFS
 70
0
 62
7
  6
CONTINUOUS
370
-3
390
F
  0
LAYER
  5
205
100
AcDbSymbolTableRecord
100
AcDbLayerTableRecord
  2
07_COSMETICS
 70
0
 62
7
  6
CONTINUOUS
370
-3
390
F
  0
LAYER
  5
206
100
AcDbSymbolTableRecord
100
AcDbLayerTableRecord
  2
10_NOTES
 70
0
 62
7
  6
CONTINUOUS
370
-3
390
F
  0
LAYER
  5
207
100
AcDbSymbolTableRecord
100
AcDbLayerTableRecord
  2
11_NOTES_PUB
 70
0
 62
7
  6
CONTINUOUS
370
-3
390
F
  0
LAYER
  5
208
100
AcDbSymbolTableRecord
100
AcDbLayerTableRecord
  2
13_REF_GTOL
 70
0
 62
7
  6
CONTINUOUS
370
-3
390
F
  0
LAYER
  5
209
100
AcDbSymbolTableRecord
100
AcDbLayerTableRecord
  2
16_MISC
 70
0
 62
7
  6
CONTINUOUS
370
-3
390
F
  0
LAYER
  5
20A
100
AcDbSymbolTableRecord
100
AcDbLayerTableRecord
  2
17_NO_PRINT
 70
0
 62
7
  6
CONTINUOUS
370
-3
390
F
  0
LAYER
  5
20B
100
AcDbSymbolTableRecord
100
AcDbLayerTableRecord
  2
18_DATUM_CAMS_JOINTS
 70
0
 62
7
  6
CONTINUOUS
370
-3
390
F
  0
LAYER
  5
20C
100
AcDbSymbolTableRecord
100
AcDbLayerTableRecord
  2
19_DATUM_FUNCTIONAL
 70
0
 62
7
  6
CONTINUOUS
370
-3
390
F
  0
LAYER
  5
20D
100
AcDbSymbolTableRecord
100
AcDbLayerTableRecord
  2
20_DATUM_KINEMATIC_SCHEME
 70
0
 62
7
  6
CONTINUOUS
370
-3
390
F
  0
ENDTAB
  0
TABLE
  2
STYLE
  5
3
100
AcDbSymbolTable
 70
1
  0
STYLE
  5
11
100
AcDbSymbolTableRecord
100
AcDbTextStyleTableRecord
  2
STANDARD
 70
0
 40
0.0
 41
1.0
 50
0.0
 71
0
 42
0.2
  3
ARIAL.TTF
  4

  0
STYLE
  5
20E
100
AcDbSymbolTableRecord
100
AcDbTextStyleTableRecord
  2
TEXTSTYLE_1
 70
0
 40
0.0
 41
0.8
 50
0.0
 71
0
 42
0.2
  3
gdt
  4

  0
ENDTAB
  0
TABLE
  2
VIEW
  5
6
100
AcDbSymbolTable
 70
0
  0
ENDTAB
  0
TABLE
  2
UCS
  5
7
100
AcDbSymbolTable
 70
0
  0
ENDTAB
  0
TABLE
  2
APPID
  5
9
100
AcDbSymbolTable
 70
1
  0
APPID
  5
20F
100
AcDbSymbolTableRecord
100
AcDbRegAppTableRecord
  2
ACAD
 70
0
  0
ENDTAB
  0
TABLE
  2
BLOCK_RECORD
  5
1
100
AcDbSymbolTable
 70
0
  0
BLOCK_RECORD
  5
210
100
AcDbSymbolTableRecord
100
AcDbBlockTableRecord
  2
*Model_Space
  0
BLOCK_RECORD
  5
211
100
AcDbSymbolTableRecord
100
AcDbBlockTableRecord
  2
*Paper_Space
  0
BLOCK_RECORD
  5
212
100
AcDbSymbolTableRecord
100
AcDbBlockTableRecord
  2
_FILLED
  0
ENDTAB
  0
TABLE
  2
DIMSTYLE
  5
A
100
AcDbSymbolTable
 70
1
100
AcDbDimStyleTable
 71
0
  0
DIMSTYLE
105
213
100
AcDbSymbolTableRecord
100
AcDbDimStyleTableRecord
  2
STANDARD
 70
0
  3

  4

 40
1.0
 41
1.693178407
 42
1.0
 43
0.38
 44
1.0
 45
0.0
 46
0.0
 47
0.01
 48
0.01
140
2.3704497698
141
0.09
142
0.0
143
25.4
144
1.0
145
0.0
146
1.0
147
0.625
 71
1
 72
0
 73
0
 74
0
 75
0
 76
0
 77
1
 78
8
 79
2
170
0
171
1
172
0
173
0
174
0
175
0
176
0
177
0
178
0
270
2
179
2
271
2
272
2
273
2
274
2
275
0
280
0
281
0
282
0
283
1
284
8
285
0
286
0
287
3
288
0
340
11
278
46
341
212
342
212
343
212
344
212
  0
ENDTAB
  0
ENDSEC
  0
SECTION
  2
BLOCKS
  0
BLOCK
  5
20
100
AcDbEntity
  8
0
100
AcDbBlockBegin
  2
*Model_Space
 70
0
 10
0.0
 20
0.0
 30
0.0
  3
*Model_Space
  1

  0
ENDBLK
  5
21
100
AcDbEntity
  8
0
100
AcDbBlockEnd
  0
BLOCK
  5
1C
100
AcDbEntity
  8
0
100
AcDbBlockBegin
  2
*Paper_Space
 70
0
 10
0.0
 20
0.0
 30
0.0
  3
*Paper_Space
  1

  0
ENDBLK
  5
1D
100
AcDbEntity
  8
0
100
AcDbBlockEnd
  0
BLOCK
  5
214
100
AcDbEntity
  8
0
100
AcDbBlockBegin
  2
_FILLED
 70
64
 10
0.0
 20
0.0
  3
_FILLED
  1

  0
SOLID
  5
215
100
AcDbEntity
  8
0
  6
BYBLOCK
 62
0
100
AcDbTrace
 10
0.0
 20
0.0
 11
-1.0
 21
0.25
 12
-1.0
 22
-0.25
 13
-1.0
 23
-0.25
  0
ENDBLK
  5
216
100
AcDbEntity
  8
0
  6
BYBLOCK
 62
0
100
AcDbBlockEnd
  0
ENDSEC
  0
SECTION
  2
ENTITIES
  0
LINE
  5
217
100
AcDbEntity
  8
0
100
AcDbLine
 62
7
  6
BYLAYER
 10
16.4822459515
 20
82.126967883
 11
16.4822459515
 21
76.9421775342
  0
LINE
  5
218
100
AcDbEntity
  8
0
100
AcDbLine
 62
7
  6
BYLAYER
 10
32.2937459515
 20
83.2676217598
 11
32.2937459515
 21
84.0971882156
  0
LINE
  5
219
100
AcDbEntity
  8
0
100
AcDbLine
 62
7
  6
BYLAYER
 10
40.1757386991
 20
81.1899787857
 11
40.1757386991
 21
82.0195452415
  0
LINE
  5
21A
100
AcDbEntity
  8
0
100
AcDbLine
 62
7
  6
BYLAYER
 10
52.1429670607
 20
98.4069211954
 11
52.1429670607
 21
99.2364876512
  0
LINE
  5
21B
100
AcDbEntity
  8
0
100
AcDbLine
 62
7
  6
BYLAYER
 10
89.5006635286
 20
131.1743834611
 11
67.0501166971
 21
118.2126315757
  0
LWPOLYLINE
  5
21C
100
AcDbEntity
  8
0
100
AcDbPolyline
 62
7
  6
BYLAYER
 90
4
 70
0
 10
57.6299112531
 20
82.1269680015
 10
57.6125128202
 20
82.6198640873
 10
56.210080353
 20
86.4635462287
 10
54.3329282151
 20
88.2752492708
  0
LINE
  5
21D
100
AcDbEntity
  8
0
100
AcDbLine
 62
7
  6
BYLAYER
 10
57.2617194057
 20
97.5255380408
 11
57.2617194057
 21
98.3551044966
  0
LINE
  5
21E
100
AcDbEntity
  8
0
100
AcDbLine
 62
7
  6
BYLAYER
 10
57.6302459515
 20
82.126967883
 11
57.6302459515
 21
76.9421775342
  0
LINE
  5
21F
100
AcDbEntity
  8
0
100
AcDbLine
 62
7
  6
BYLAYER
 10
62.5601075316
 20
92.3927183998
 11
62.5601075316
 21
93.2222848556
  0
LINE
  5
220
100
AcDbEntity
  8
0
100
AcDbLine
 62
7
  6
BYLAYER
 10
63.2785310123
 20
92.807512249
 11
63.2785310123
 21
91.9779457932
  0
LINE
  5
221
100
AcDbEntity
  8
0
100
AcDbLine
 62
7
  6
BYLAYER
 10
52.8613905415
 20
98.8217150446
 11
33.4575853397
 21
85.8981851455
  0
LINE
  5
222
100
AcDbEntity
  8
0
100
AcDbLine
 62
7
  6
BYLAYER
 10
116.8005419356
 20
136.5663330812
 11
98.4810842891
 21
125.9896524119
  0
LINE
  5
223
100
AcDbEntity
  8
0
100
AcDbLine
 62
7
  6
BYLAYER
 10
68.6665695287
 20
108.7763370389
 11
52.1429670607
 21
99.2364876512
  0
LINE
  5
224
100
AcDbEntity
  8
0
100
AcDbLine
 62
7
  6
BYLAYER
 10
63.2785310123
 20
91.9779457932
 11
62.5601075316
 21
92.3927183998
  0
LINE
  5
225
100
AcDbEntity
  8
0
100
AcDbLine
 62
7
  6
BYLAYER
 10
52.1941974665
 20
98.377343976
 11
52.1429670607
 21
98.4069211954
  0
LINE
  5
226
100
AcDbEntity
  8
0
100
AcDbLine
 62
7
  6
BYLAYER
 10
52.1429670607
 20
99.2364876512
 11
52.8613905415
 21
98.8217150446
  0
LINE
  5
227
100
AcDbEntity
  8
0
100
AcDbLine
 62
7
  6
BYLAYER
 10
62.5601075316
 20
93.2222848556
 11
63.2785310123
 21
92.807512249
  0
LINE
  5
228
100
AcDbEntity
  8
0
100
AcDbLine
 62
7
  6
BYLAYER
 10
67.0501166971
 20
107.8430831322
 11
67.0501166971
 21
118.2126315757
  0
LINE
  5
229
100
AcDbEntity
  8
0
100
AcDbLine
 62
7
  6
BYLAYER
 10
114.7351192945
 20
131.5371893233
 11
101.8037928876
 21
124.0713291064
  0
LINE
  5
22A
100
AcDbEntity
  8
0
100
AcDbLine
 62
7
  6
BYLAYER
 10
71.9892781272
 20
106.8580137334
 11
57.2617194057
 21
98.3551044966
  0
LINE
  5
22B
100
AcDbEntity
  8
0
100
AcDbLine
 62
7
  6
BYLAYER
 10
57.2617194057
 20
97.5255380408
 11
72.7077140227
 21
106.4432339593
  0
LINE
  5
22C
100
AcDbEntity
  8
0
100
AcDbLine
 62
7
  6
BYLAYER
 10
102.5222287831
 20
123.6565493323
 11
114.7351192945
 21
130.7076228674
  0
LINE
  5
22D
100
AcDbEntity
  8
0
100
AcDbLine
 62
7
  6
BYLAYER
 10
103.8691331436
 20
122.8789313293
 11
81.418586312
 21
109.9171794439
  0
LINE
  5
22E
100
AcDbEntity
  8
0
100
AcDbLine
 62
7
  6
BYLAYER
 10
61.7518661604
 20
95.7627757054
 11
76.4794248819
 21
104.2656849422
  0
LINE
  5
22F
100
AcDbEntity
  8
0
100
AcDbLine
 62
7
  6
BYLAYER
 10
103.8691331436
 20
120.0790459871
 11
119.2252660491
 21
128.944860532
  0
LINE
  5
230
100
AcDbEntity
  8
0
100
AcDbLine
 62
7
  6
BYLAYER
 10
127.9361058872
 20
130.1373576791
 11
105.5034638689
 21
117.1859430807
  0
LINE
  5
231
100
AcDbEntity
  8
0
100
AcDbLine
 62
7
  6
BYLAYER
 10
79.8021334804
 20
102.3473616367
 11
63.2785310123
 21
92.807512249
  0
LINE
  5
232
100
AcDbEntity
  8
0
100
AcDbLine
 62
7
  6
BYLAYER
 10
127.9361058872
 20
129.3077912233
 11
105.8971746212
 21
116.5836842769
  0
LINE
  5
233
100
AcDbEntity
  8
0
100
AcDbLine
 62
7
  6
BYLAYER
 10
79.8021334804
 20
101.5177951809
 11
63.2785310123
 21
91.9779457932
  0
LINE
  5
234
100
AcDbEntity
  8
0
100
AcDbLine
 62
7
  6
BYLAYER
 10
40.1757386991
 20
82.0195452415
 11
62.5601075316
 21
93.2222848556
  0
LINE
  5
235
100
AcDbEntity
  8
0
100
AcDbLine
 62
7
  6
BYLAYER
 10
62.5601075316
 20
92.3927183998
 11
40.1757386991
 21
81.1899787857
  0
LINE
  5
236
100
AcDbEntity
  8
0
100
AcDbLine
 62
7
  6
BYLAYER
 10
81.418586312
 20
99.3402071324
 11
79.8021334804
 21
100.2734454972
  0
LINE
  5
237
100
AcDbEntity
  8
0
100
AcDbLine
 62
7
  6
BYLAYER
 10
79.8200939178
 20
100.6985981266
 11
79.1016580223
 21
101.1133779007
  0
LINE
  5
238
100
AcDbEntity
  8
0
100
AcDbLine
 62
7
  6
BYLAYER
 10
75.0605135284
 20
103.4464809803
 11
71.2888026692
 21
105.6240299974
  0
LINE
  5
239
100
AcDbEntity
  8
0
100
AcDbLine
 62
7
  6
BYLAYER
 10
72.0072385647
 20
106.0388166791
 11
75.7789494239
 21
103.861267662
  0
LINE
  5
23A
100
AcDbEntity
  8
0
100
AcDbLine
 62
7
  6
BYLAYER
 10
79.8021334804
 20
100.2734454972
 11
79.8021334804
 21
102.3473616367
  0
LINE
  5
23B
100
AcDbEntity
  8
0
100
AcDbLine
 62
7
  6
BYLAYER
 10
81.418586312
 20
109.9171794439
 11
81.418586312
 21
99.3402071324
  0
LINE
  5
23C
100
AcDbEntity
  8
0
100
AcDbLine
 62
7
  6
BYLAYER
 10
102.6699998595
 20
111.609643226
 11
81.418586312
 21
99.3402071324
  0
LINE
  5
23D
100
AcDbEntity
  8
0
100
AcDbLine
 62
7
  6
BYLAYER
 10
68.6665695287
 20
108.7763370389
 11
79.8021334804
 21
102.3473616367
  0
LINE
  5
23E
100
AcDbEntity
  8
0
100
AcDbLine
 62
7
  6
BYLAYER
 10
67.0501166971
 20
118.2126315757
 11
81.418586312
 21
109.9171794439
  0
LINE
  5
23F
100
AcDbEntity
  8
0
100
AcDbLine
 62
7
  6
BYLAYER
 10
102.2816899894
 20
111.7300137008
 11
99.4079960664
 21
113.3891041272
  0
LINE
  5
240
100
AcDbEntity
  8
0
100
AcDbLine
 62
7
  6
BYLAYER
 10
105.4566361191
 20
117.2293061165
 11
102.5829421961
 21
118.8883965429
  0
LINE
  5
241
100
AcDbEntity
  8
0
100
AcDbLine
 62
7
  6
BYLAYER
 10
103.8691331436
 20
118.1458306522
 11
103.8691331436
 21
122.8789313293
  0
LINE
  5
242
100
AcDbEntity
  8
0
100
AcDbLine
 62
7
  6
BYLAYER
 10
103.8691331436
 20
122.8789313293
 11
89.5006635286
 21
131.1743834611
  0
LINE
  5
243
100
AcDbEntity
  8
0
100
AcDbLine
 62
7
  6
BYLAYER
 10
114.7351192945
 20
131.5371893233
 11
114.7351192945
 21
130.7076228674
  0
LINE
  5
244
100
AcDbEntity
  8
0
100
AcDbLine
 62
7
  6
BYLAYER
 10
127.9361058872
 20
130.1373576791
 11
116.8005419356
 21
136.5663330812
  0
LINE
  5
245
100
AcDbEntity
  8
0
100
AcDbLine
 62
7
  6
BYLAYER
 10
127.9361058872
 20
129.3077912233
 11
127.9361058872
 21
130.1373576791
  0
SPLINE
  5
246
100
AcDbEntity
  8
0
100
AcDbSpline
 62
7
  6
BYLAYER
 70
0
 71
3
 72
11
 73
7
 74
0
 42
0.0000001
 43
0.0000001
 44
0.0000000001
 40
0.0
 40
0.0
 40
0.0
 40
0.0
 40
0.2897026209
 40
0.5490908265
 40
0.782219764
 40
1.0
 40
1.0
 40
1.0
 40
1.0
 10
106.1142177374
 20
115.7758350972
 30
0.0
 10
106.1142177374
 20
115.9367066153
 30
0.0
 10
106.0898275557
 20
116.2426513958
 30
0.0
 10
105.9659303805
 20
116.6630061591
 30
0.0
 10
105.7573133667
 20
117.004098983
 30
0.0
 10
105.5613578691
 20
117.1688233126
 30
0.0
 10
105.4566307033
 20
117.2292967479
 30
0.0
  0
SPLINE
  5
247
100
AcDbEntity
  8
0
100
AcDbSpline
 62
7
  6
BYLAYER
 70
0
 71
3
 72
9
 73
5
 74
0
 42
0.0000001
 43
0.0000001
 44
0.0000000001
 40
0.0
 40
0.0
 40
0.0
 40
0.0
 40
0.2378825145
 40
1.0
 40
1.0
 40
1.0
 40
1.0
 10
98.7504144481
 20
114.8425751465
 30
0.0
 10
98.7504144481
 20
114.908197221
 30
0.0
 10
98.7595956869
 20
115.184033369
 30
0.0
 10
98.8025374355
 20
115.4582934126
 30
0.0
 10
98.8498838569
 20
115.6631298239
 30
0.0
  0
SPLINE
  5
248
100
AcDbEntity
  8
0
100
AcDbSpline
 62
7
  6
BYLAYER
 70
0
 71
3
 72
11
 73
7
 74
0
 42
0.0000001
 43
0.0000001
 44
0.0000000001
 40
0.0
 40
0.0
 40
0.0
 40
0.0
 40
0.2529953854
 40
0.5152346538
 40
0.7694233706
 40
1.0
 40
1.0
 40
1.0
 40
1.0
 10
98.8498838569
 20
115.6631298239
 30
0.0
 10
98.9224723454
 20
115.9771718366
 30
0.0
 10
99.1406549447
 20
116.6015585235
 30
0.0
 10
99.6281020393
 20
117.4577809194
 30
0.0
 10
100.242748711
 20
118.1910139745
 30
0.0
 10
100.7327335829
 20
118.5782675469
 30
0.0
 10
100.9866366892
 20
118.7260110513
 30
0.0
  0
SPLINE
  5
249
100
AcDbEntity
  8
0
100
AcDbSpline
 62
7
  6
BYLAYER
 70
0
 71
3
 72
11
 73
7
 74
0
 42
0.0000001
 43
0.0000001
 44
0.0000000001
 40
0.0
 40
0.0
 40
0.0
 40
0.0
 40
0.290017168
 40
0.5493437675
 40
0.7824352435
 40
1.0
 40
1.0
 40
1.0
 40
1.0
 10
100.9866366892
 20
118.7260110513
 30
0.0
 10
101.126674811
 20
118.8074977381
 30
0.0
 10
101.4051701886
 20
118.9412115445
 30
0.0
 10
101.8335807366
 20
119.0458795372
 30
0.0
 10
102.2355797345
 20
119.0367864871
 30
0.0
 10
102.4776818384
 20
118.9491695667
 30
0.0
 10
102.582934868
 20
118.8883839222
 30
0.0
  0
SPLINE
  5
24A
100
AcDbEntity
  8
0
100
AcDbSpline
 62
7
  6
BYLAYER
 70
0
 71
3
 72
14
 73
10
 74
0
 42
0.0000001
 43
0.0000001
 44
0.0000000001
 40
0.0
 40
0.0
 40
0.0
 40
0.0
 40
0.1080468429
 40
0.2181287012
 40
0.3321009461
 40
0.4515011236
 40
0.5774523321
 40
0.7107152226
 40
1.0
 40
1.0
 40
1.0
 40
1.0
 10
57.6302091713
 20
76.9421776417
 30
0.0
 10
57.6301843816
 20
76.5526880795
 30
0.0
 10
57.5626051649
 20
75.7647872461
 30
0.0
 10
57.2606468605
 20
74.6010569582
 30
0.0
 10
56.7623873446
 20
73.4623232342
 30
0.0
 10
56.0738623042
 20
72.3603419413
 30
0.0
 10
55.2030613859
 20
71.3046890856
 30
0.0
 10
53.7721789738
 20
69.9352212348
 30
0.0
 10
52.5074313386
 20
69.0644398833
 30
0.0
 10
51.6043214367
 20
68.5430322507
 30
0.0
  0
SPLINE
  5
24B
100
AcDbEntity
  8
0
100
AcDbSpline
 62
7
  6
BYLAYER
 70
0
 71
3
 72
15
 73
11
 74
0
 42
0.0000001
 43
0.0000001
 44
0.0000000001
 40
0.0
 40
0.0
 40
0.0
 40
0.0
 40
0.1275474289
 40
0.257852526
 40
0.3891473799
 40
0.5196198456
 40
0.6474997677
 40
0.771117231
 40
0.8890213909
 40
1.0
 40
1.0
 40
1.0
 40
1.0
 10
44.4353821976
 20
93.2148972798
 30
0.0
 10
43.4994139064
 20
93.4225173296
 30
0.0
 10
41.5870219185
 20
93.7553841384
 30
0.0
 10
38.6697761534
 20
94.0094800759
 30
0.0
 10
35.719343426
 20
94.0209145484
 30
0.0
 10
32.7962630142
 20
93.7894343592
 30
0.0
 10
29.960190401
 20
93.3196913064
 30
0.0
 10
27.2685735477
 20
92.6212925856
 30
0.0
 10
24.7767078055
 20
91.7082966221
 30
0.0
 10
23.2305914072
 20
90.9432006015
 30
0.0
 10
22.5081704663
 20
90.5261131665
 30
0.0
  0
SPLINE
  5
24C
100
AcDbEntity
  8
0
100
AcDbSpline
 62
7
  6
BYLAYER
 70
0
 71
3
 72
11
 73
7
 74
0
 42
0.0000001
 43
0.0000001
 44
0.0000000001
 40
0.0
 40
0.0
 40
0.0
 40
0.0
 40
0.2177827477
 40
0.4509152641
 40
0.7103063952
 40
1.0
 40
1.0
 40
1.0
 40
1.0
 10
120.1551780736
 20
130.2410249639
 30
0.0
 10
120.1551615504
 20
130.1200950602
 30
0.0
 10
120.1104983674
 20
129.8680359718
 30
0.0
 10
119.9194024912
 20
129.516835058
 30
0.0
 10
119.617325063
 20
129.1993756679
 30
0.0
 10
119.3645754505
 20
129.0252903723
 30
0.0
 10
119.2252660491
 20
128.944860532
 30
0.0
  0
SPLINE
  5
24D
100
AcDbEntity
  8
0
100
AcDbSpline
 62
7
  6
BYLAYER
 70
0
 71
3
 72
9
 73
5
 74
0
 42
0.0000001
 43
0.0000001
 44
0.0000000001
 40
0.0
 40
0.0
 40
0.0
 40
0.0
 40
0.245389201
 40
1.0
 40
1.0
 40
1.0
 40
1.0
 10
120.073237167
 20
129.8252077281
 30
0.0
 10
120.0665744296
 20
129.8418173394
 30
0.0
 10
120.0379390467
 20
129.9089038608
 30
0.0
 10
120.0034789856
 20
129.9734685102
 30
0.0
 10
119.9748075447
 20
130.0204432533
 30
0.0
  0
SPLINE
  5
24E
100
AcDbEntity
  8
0
100
AcDbSpline
 62
7
  6
BYLAYER
 70
0
 71
3
 72
15
 73
11
 74
0
 42
0.0000001
 43
0.0000001
 44
0.0000000001
 40
0.0
 40
0.0
 40
0.0
 40
0.0
 40
0.0960054499
 40
0.2066983786
 40
0.3312477944
 40
0.4660970785
 40
0.606109221
 40
0.7454487628
 40
0.8783758239
 40
1.0
 40
1.0
 40
1.0
 40
1.0
 10
119.9748075447
 20
130.0204432533
 30
0.0
 10
119.8800133522
 20
130.1757522543
 30
0.0
 10
119.6116963433
 20
130.4715744592
 30
0.0
 10
119.0786789344
 20
130.8121516969
 30
0.0
 10
118.420690902
 20
131.06630708
 30
0.0
 10
117.6762883192
 20
131.2193465339
 30
0.0
 10
116.8897700531
 20
131.2627654159
 30
0.0
 10
116.10858967
 20
131.1938157992
 30
0.0
 10
115.3804567318
 20
131.0168214125
 30
0.0
 10
114.9347438988
 20
130.8228754985
 30
0.0
 10
114.7351192945
 20
130.7076228674
 30
0.0
  0
SPLINE
  5
24F
100
AcDbEntity
  8
0
100
AcDbSpline
 62
7
  6
BYLAYER
 70
0
 71
3
 72
11
 73
7
 74
0
 42
0.0000001
 43
0.0000001
 44
0.0000000001
 40
0.0
 40
0.0
 40
0.0
 40
0.0
 40
0.2177830968
 40
0.450915839
 40
0.7103069095
 40
1.0
 40
1.0
 40
1.0
 40
1.0
 10
99.4080033946
 20
113.3891167479
 30
0.0
 10
99.3032786292
 20
113.4495973096
 30
0.0
 10
99.1073116106
 20
113.6143109196
 30
0.0
 10
98.8987001211
 20
113.9554166359
 30
0.0
 10
98.7748039507
 20
114.3757678292
 30
0.0
 10
98.7504144481
 20
114.6817090583
 30
0.0
 10
98.7504144481
 20
114.8425751465
 30
0.0
  0
SPLINE
  5
250
100
AcDbEntity
  8
0
100
AcDbSpline
 62
7
  6
BYLAYER
 70
0
 71
3
 72
11
 73
7
 74
0
 42
0.0000001
 43
0.0000001
 44
0.0000000001
 40
0.0
 40
0.0
 40
0.0
 40
0.0
 40
0.2127351915
 40
0.4439207838
 40
0.7052016069
 40
1.0
 40
1.0
 40
1.0
 40
1.0
 10
102.2816954053
 20
111.7300230694
 30
0.0
 10
102.3990527394
 20
111.6622564963
 30
0.0
 10
102.6743920838
 20
111.5691630968
 30
0.0
 10
103.1305790603
 20
111.582972482
 30
0.0
 10
103.6133021551
 20
111.7356431888
 30
0.0
 10
103.9228766922
 20
111.9128248562
 30
0.0
 10
104.0777914772
 20
112.018975784
 30
0.0
  0
SPLINE
  5
251
100
AcDbEntity
  8
0
100
AcDbSpline
 62
7
  6
BYLAYER
 70
0
 71
3
 72
11
 73
7
 74
0
 42
0.0000001
 43
0.0000001
 44
0.0000000001
 40
0.0
 40
0.0
 40
0.0
 40
0.0
 40
0.2427435238
 40
0.5055387799
 40
0.7653374096
 40
1.0
 40
1.0
 40
1.0
 40
1.0
 10
104.0777914772
 20
112.018975784
 30
0.0
 10
104.3721305283
 20
112.2206632043
 30
0.0
 10
104.9220811429
 20
112.7343990938
 30
0.0
 10
105.5613676571
 20
113.6691856379
 30
0.0
 10
105.9925304494
 20
114.7034891762
 30
0.0
 10
106.1142177374
 20
115.4309034176
 30
0.0
 10
106.1142177374
 20
115.7758350972
 30
0.0
  0
SPLINE
  5
252
100
AcDbEntity
  8
0
100
AcDbSpline
 62
7
  6
BYLAYER
 70
0
 71
3
 72
9
 73
5
 74
0
 42
0.0000001
 43
0.0000001
 44
0.0000000001
 40
0.0
 40
0.0
 40
0.0
 40
0.0
 40
0.5328741819
 40
1.0
 40
1.0
 40
1.0
 40
1.0
 10
74.686546925
 20
103.2340098067
 30
0.0
 10
74.5050902597
 20
103.3540789281
 30
0.0
 10
74.1848855022
 20
103.613961471
 30
0.0
 10
73.9464094093
 20
103.9554644863
 30
0.0
 10
73.8684382101
 20
104.1295378647
 30
0.0
  0
SPLINE
  5
253
100
AcDbEntity
  8
0
100
AcDbSpline
 62
7
  6
BYLAYER
 70
0
 71
3
 72
23
 73
19
 74
0
 42
0.0000001
 43
0.0000001
 44
0.0000000001
 40
0.0
 40
0.0
 40
0.0
 40
0.0
 40
0.062390783
 40
0.128744142
 40
0.1983463678
 40
0.270334841
 40
0.3437235807
 40
0.4174682902
 40
0.4905055188
 40
0.5618044308
 40
0.6304132697
 40
0.6955114283
 40
0.7564685956
 40
0.8129145632
 40
0.8648230043
 40
0.9126050582
 40
0.9571862448
 40
1.0
 40
1.0
 40
1.0
 40
1.0
 10
51.6043214367
 20
68.5430322507
 30
0.0
 10
50.8651660444
 20
68.1162832334
 30
0.0
 10
49.2810638401
 20
67.335261363
 30
0.0
 10
46.7257592023
 20
66.4093326495
 30
0.0
 10
43.964308689
 20
65.7083638755
 30
0.0
 10
41.055919424
 20
65.2471541688
 30
0.0
 10
38.0621609085
 20
65.0355374219
 30
0.0
 10
35.0469470739
 20
65.0779481431
 30
0.0
 10
32.0745773763
 20
65.3735308068
 30
0.0
 10
29.2084161597
 20
65.9159812517
 30
0.0
 10
26.50935868
 20
66.693845395
 30
0.0
 10
24.0344678051
 20
67.6909004797
 30
0.0
 10
21.8357352209
 20
68.8867870338
 30
0.0
 10
19.9591998612
 20
70.2580109744
 30
0.0
 10
18.4448087128
 20
71.778776843
 30
0.0
 10
17.3274726509
 20
73.4222225108
 30
0.0
 10
16.6389037305
 20
75.1558400434
 30
0.0
 10
16.4822454544
 20
76.3564880398
 30
0.0
 10
16.4822827317
 20
76.9421774268
 30
0.0
  0
SPLINE
  5
254
100
AcDbEntity
  8
0
100
AcDbSpline
 62
7
  6
BYLAYER
 70
0
 71
3
 72
15
 73
11
 74
0
 42
0.0000001
 43
0.0000001
 44
0.0000000001
 40
0.0
 40
0.0
 40
0.0
 40
0.0
 40
0.1210006763
 40
0.2510670102
 40
0.3864308458
 40
0.5228783064
 40
0.6560290139
 40
0.7818571879
 40
0.8971324741
 40
1.0
 40
1.0
 40
1.0
 40
1.0
 10
40.1757386991
 20
81.1899787857
 30
0.0
 10
39.8994356526
 20
81.0516969736
 30
0.0
 10
39.2991051395
 20
80.8173301683
 30
0.0
 10
38.3345107795
 20
80.5962661364
 30
0.0
 10
37.3099469842
 20
80.5001323901
 30
0.0
 10
36.2736910307
 20
80.5333146821
 30
0.0
 10
35.2739599276
 20
80.694339
 30
0.0
 10
34.3569813015
 20
80.9759414208
 30
0.0
 10
33.5652089536
 20
81.3651556447
 30
0.0
 10
33.1180474294
 20
81.7066671269
 30
0.0
 10
32.9322800962
 20
81.8923735246
 30
0.0
  0
SPLINE
  5
255
100
AcDbEntity
  8
0
100
AcDbSpline
 62
7
  6
BYLAYER
 70
0
 71
3
 72
10
 73
6
 74
0
 42
0.0000001
 43
0.0000001
 44
0.0000000001
 40
0.0
 40
0.0
 40
0.0
 40
0.0
 40
0.5264156167
 40
0.7670446073
 40
1.0
 40
1.0
 40
1.0
 40
1.0
 10
32.9322800962
 20
81.8923735246
 30
0.0
 10
32.7397923029
 20
82.0847981781
 30
0.0
 10
32.4940571884
 20
82.4103403506
 30
0.0
 10
32.3222392709
 20
82.9014228753
 30
0.0
 10
32.2937461354
 20
83.1471760818
 30
0.0
 10
32.2937783475
 20
83.2676216851
 30
0.0
  0
SPLINE
  5
256
100
AcDbEntity
  8
0
100
AcDbSpline
 62
7
  6
BYLAYER
 70
0
 71
3
 72
9
 73
5
 74
0
 42
0.0000001
 43
0.0000001
 44
0.0000000001
 40
0.0
 40
0.0
 40
0.0
 40
0.0
 40
0.2747197706
 40
1.0
 40
1.0
 40
1.0
 40
1.0
 10
57.2617194057
 20
97.5255380408
 30
0.0
 10
57.1805735486
 20
97.478688738
 30
0.0
 10
56.8939933477
 20
97.294890686
 30
0.0
 10
56.6404076123
 20
97.0488759175
 30
0.0
 10
56.511690656
 20
96.8376296631
 30
0.0
  0
SPLINE
  5
257
100
AcDbEntity
  8
0
100
AcDbSpline
 62
7
  6
BYLAYER
 70
0
 71
3
 72
9
 73
5
 74
0
 42
0.0000001
 43
0.0000001
 44
0.0000000001
 40
0.0
 40
0.0
 40
0.0
 40
0.0
 40
0.2548250701
 40
1.0
 40
1.0
 40
1.0
 40
1.0
 10
56.511690656
 20
96.8376296631
 30
0.0
 10
56.5024652241
 20
96.822489172
 30
0.0
 10
56.467371469
 20
96.7624086139
 30
0.0
 10
56.4368626694
 20
96.6996226343
 30
0.0
 10
56.417207581
 20
96.6516463956
 30
0.0
  0
SPLINE
  5
258
100
AcDbEntity
  8
0
100
AcDbSpline
 62
7
  6
BYLAYER
 70
0
 71
3
 72
14
 73
10
 74
0
 42
0.0000001
 43
0.0000001
 44
0.0000000001
 40
0.0
 40
0.0
 40
0.0
 40
0.0
 40
0.2892816557
 40
0.4225437151
 40
0.5484952327
 40
0.6678958853
 40
0.7818688354
 40
0.8919517652
 40
1.0
 40
1.0
 40
1.0
 40
1.0
 10
22.5081704663
 20
90.5261131665
 30
0.0
 10
21.6050702597
 20
90.0047111314
 30
0.0
 10
20.3403346319
 20
89.1339384112
 30
0.0
 10
18.9094560959
 20
87.7644853483
 30
0.0
 10
18.038652618
 20
86.7088348489
 30
0.0
 10
17.3501177896
 20
85.6068532508
 30
0.0
 10
16.8518521983
 20
84.4681129643
 30
0.0
 10
16.5498891281
 20
83.3043720557
 30
0.0
 10
16.4823074767
 20
82.5164623724
 30
0.0
 10
16.4822823289
 20
82.126967771
 30
0.0
  0
SPLINE
  5
259
100
AcDbEntity
  8
0
100
AcDbSpline
 62
7
  6
BYLAYER
 70
0
 71
3
 72
17
 73
13
 74
0
 42
0.0000001
 43
0.0000001
 44
0.0000000001
 40
0.0
 40
0.0
 40
0.0
 40
0.0
 40
0.1286926208
 40
0.2702795078
 40
0.4174383051
 40
0.5617803148
 40
0.6954501289
 40
0.8127134773
 40
0.8646759206
 40
0.9125113962
 40
0.9571388332
 40
1.0
 40
1.0
 40
1.0
 40
1.0
 10
61.7518661604
 20
95.7627757054
 30
0.0
 10
61.5168343136
 20
95.6270808153
 30
0.0
 10
60.9846994589
 20
95.4075130433
 30
0.0
 10
60.1174124628
 20
95.234027528
 30
0.0
 10
59.2001159259
 20
95.2086224801
 30
0.0
 10
58.3076543483
 20
95.3340423646
 30
0.0
 10
57.5123972925
 20
95.5996740873
 30
0.0
 10
56.9592780706
 20
95.9363344988
 30
0.0
 10
56.6347028078
 20
96.2621143572
 30
0.0
 10
56.4622291998
 20
96.5157237044
 30
0.0
 10
56.356036463
 20
96.7832778003
 30
0.0
 10
56.3317950312
 20
96.968553106
 30
0.0
 10
56.3318073812
 20
97.0589400647
 30
0.0
  0
SPLINE
  5
25A
100
AcDbEntity
  8
0
100
AcDbSpline
 62
7
  6
BYLAYER
 70
0
 71
3
 72
11
 73
7
 74
0
 42
0.0000001
 43
0.0000001
 44
0.0000000001
 40
0.0
 40
0.0
 40
0.0
 40
0.0
 40
0.2854474542
 40
0.5433702747
 40
0.7782407329
 40
1.0
 40
1.0
 40
1.0
 40
1.0
 10
33.4575853397
 20
85.8981851455
 30
0.0
 10
33.2811143382
 20
85.7806500414
 30
0.0
 10
32.9617214738
 20
85.5297527751
 30
0.0
 10
32.5844963427
 20
85.0854704157
 30
0.0
 10
32.3483068975
 20
84.6030729826
 30
0.0
 10
32.2938223562
 20
84.261910255
 30
0.0
 10
32.2937783149
 20
84.0971881411
 30
0.0
  0
SPLINE
  5
25B
100
AcDbEntity
  8
0
100
AcDbSpline
 62
7
  6
BYLAYER
 70
0
 71
3
 72
14
 73
10
 74
0
 42
0.0000001
 43
0.0000001
 44
0.0000000001
 40
0.0
 40
0.0
 40
0.0
 40
0.0
 40
0.117222112
 40
0.244608899
 40
0.5142058128
 40
0.6483957717
 40
0.7762560259
 40
0.8942270927
 40
1.0
 40
1.0
 40
1.0
 40
1.0
 10
98.8042897784
 20
115.7032320179
 30
0.0
 10
98.8042897784
 20
115.8357535073
 30
0.0
 10
98.832002455
 20
116.112628512
 30
0.0
 10
98.9792410533
 20
116.6764876142
 30
0.0
 10
99.2493252159
 20
117.2220982531
 30
0.0
 10
99.6122378304
 20
117.7026275471
 30
0.0
 10
99.9164445859
 20
118.0083148018
 30
0.0
 10
100.2379625167
 20
118.2447772752
 30
0.0
 10
100.4680407213
 20
118.3553456219
 30
0.0
 10
100.5814889175
 20
118.3931397981
 30
0.0
  0
SPLINE
  5
25C
100
AcDbEntity
  8
0
100
AcDbSpline
 62
7
  6
BYLAYER
 70
0
 71
3
 72
11
 73
7
 74
0
 42
0.0000001
 43
0.0000001
 44
0.0000000001
 40
0.0
 40
0.0
 40
0.0
 40
0.0
 40
0.2897026209
 40
0.5490908265
 40
0.782219764
 40
1.0
 40
1.0
 40
1.0
 40
1.0
 10
101.6241083711
 20
113.1834847201
 30
0.0
 10
101.6241083711
 20
113.022613202
 30
0.0
 10
101.6484985528
 20
112.7166684215
 30
0.0
 10
101.772395728
 20
112.2963136582
 30
0.0
 10
101.9810127419
 20
111.9552208343
 30
0.0
 10
102.1769682394
 20
111.7904965047
 30
0.0
 10
102.2816954053
 20
111.7300230694
 30
0.0
  0
SPLINE
  5
25D
100
AcDbEntity
  8
0
100
AcDbSpline
 62
7
  6
BYLAYER
 70
0
 71
3
 72
17
 73
13
 74
0
 42
0.0000001
 43
0.0000001
 44
0.0000000001
 40
0.0
 40
0.0
 40
0.0
 40
0.0
 40
0.0428590154
 40
0.087484945
 40
0.1353191404
 40
0.1872810096
 40
0.3045411455
 40
0.4382064078
 40
0.5825480614
 40
0.7297123844
 40
0.8713056989
 40
1.0
 40
1.0
 40
1.0
 40
1.0
 10
105.4566307033
 20
117.2292967479
 30
0.0
 10
105.3783604382
 20
117.2744929658
 30
0.0
 10
105.2057996818
 20
117.3461446561
 30
0.0
 10
104.9210038845
 20
117.3879443522
 30
0.0
 10
104.6151423157
 20
117.3654060434
 30
0.0
 10
104.1707327191
 20
117.2472027571
 30
0.0
 10
103.6026247395
 20
116.9365505027
 30
0.0
 10
102.9749563561
 20
116.3806755731
 30
0.0
 10
102.4200995076
 20
115.6705008314
 30
0.0
 10
101.9834341419
 20
114.8633807028
 30
0.0
 10
101.7000252225
 20
114.025520103
 30
0.0
 10
101.6241083711
 20
113.4548784314
 30
0.0
 10
101.6241083711
 20
113.1834847201
 30
0.0
  0
SPLINE
  5
25E
100
AcDbEntity
  8
0
100
AcDbSpline
 62
7
  6
BYLAYER
 70
0
 71
3
 72
9
 73
5
 74
0
 42
0.0000001
 43
0.0000001
 44
0.0000000001
 40
0.0
 40
0.0
 40
0.0
 40
0.0
 40
0.2421771482
 40
1.0
 40
1.0
 40
1.0
 40
1.0
 10
40.6289903573
 20
81.3628840447
 30
0.0
 10
40.6119908825
 20
81.3363902754
 30
0.0
 10
40.5388655607
 20
81.2288833579
 30
0.0
 10
40.4545895041
 20
81.1291045392
 30
0.0
 10
40.386256967
 20
81.058157205
 30
0.0
  0
SPLINE
  5
25F
100
AcDbEntity
  8
0
100
AcDbSpline
 62
7
  6
BYLAYER
 70
0
 71
3
 72
9
 73
5
 74
0
 42
0.0000001
 43
0.0000001
 44
0.0000000001
 40
0.0
 40
0.0
 40
0.0
 40
0.0
 40
0.2360949927
 40
1.0
 40
1.0
 40
1.0
 40
1.0
 10
40.386256967
 20
81.058157205
 30
0.0
 10
40.3424593497
 20
81.0126836382
 30
0.0
 10
40.1488448614
 20
80.8279077432
 30
0.0
 10
39.9272457543
 20
80.6737100451
 30
0.0
 10
39.7503340043
 20
80.5715706083
 30
0.0
  0
SPLINE
  5
260
100
AcDbEntity
  8
0
100
AcDbSpline
 62
7
  6
BYLAYER
 70
0
 71
3
 72
16
 73
12
 74
0
 42
0.0000001
 43
0.0000001
 44
0.0000000001
 40
0.0
 40
0.0
 40
0.0
 40
0.0
 40
0.1240192615
 40
0.2599006897
 40
0.4020040474
 40
0.5437313154
 40
0.6785547534
 40
0.8009964419
 40
0.8565536754
 40
0.9080998127
 40
1.0
 40
1.0
 40
1.0
 40
1.0
 10
39.7503340043
 20
80.5715706083
 30
0.0
 10
39.4963011177
 20
80.4249055283
 30
0.0
 10
38.9263197639
 20
80.1813047466
 30
0.0
 10
37.9954975929
 20
79.9690217639
 30
0.0
 10
37.0010739414
 20
79.9020987673
 30
0.0
 10
36.0104131489
 20
79.9853965046
 30
0.0
 10
35.0903441493
 20
80.2131816424
 30
0.0
 10
34.4109715321
 20
80.520943905
 30
0.0
 10
33.963484408
 20
80.8314126377
 30
0.0
 10
33.6161654157
 20
81.1497361594
 30
0.0
 10
33.419750842
 20
81.4386855331
 30
0.0
 10
33.3404036431
 20
81.6410484767
 30
0.0
  0
SPLINE
  5
261
100
AcDbEntity
  8
0
100
AcDbSpline
 62
7
  6
BYLAYER
 70
0
 71
3
 72
14
 73
10
 74
0
 42
0.0000001
 43
0.0000001
 44
0.0000000001
 40
0.0
 40
0.0
 40
0.0
 40
0.0
 40
0.2892816557
 40
0.4225437151
 40
0.5484952327
 40
0.6678958853
 40
0.7818688354
 40
0.8919517652
 40
1.0
 40
1.0
 40
1.0
 40
1.0
 10
51.6043214367
 20
73.7278225995
 30
0.0
 10
52.5074216434
 20
74.2492246346
 30
0.0
 10
53.7721572712
 20
75.1199973548
 30
0.0
 10
55.2030358071
 20
76.4894504177
 30
0.0
 10
56.0738392851
 20
77.5451009171
 30
0.0
 10
56.7623741134
 20
78.6470825153
 30
0.0
 10
57.2606397048
 20
79.7858228017
 30
0.0
 10
57.5626027749
 20
80.9495637103
 30
0.0
 10
57.6301844263
 20
81.7374733936
 30
0.0
 10
57.6302095742
 20
82.1269679951
 30
0.0
  0
SPLINE
  5
262
100
AcDbEntity
  8
0
100
AcDbSpline
 62
7
  6
BYLAYER
 70
0
 71
3
 72
9
 73
5
 74
0
 42
0.0000001
 43
0.0000001
 44
0.0000000001
 40
0.0
 40
0.0
 40
0.0
 40
0.0
 40
0.4903988775
 40
1.0
 40
1.0
 40
1.0
 40
1.0
 10
32.2937783149
 20
84.0971881411
 30
0.0
 10
32.2937430447
 20
83.9652713703
 30
0.0
 10
32.3280413874
 20
83.6952968677
 30
0.0
 10
32.4257420778
 20
83.4418868338
 30
0.0
 10
32.4880771754
 20
83.3197973015
 30
0.0
  0
SPLINE
  5
263
100
AcDbEntity
  8
0
100
AcDbSpline
 62
7
  6
BYLAYER
 70
0
 71
3
 72
15
 73
11
 74
0
 42
0.0000001
 43
0.0000001
 44
0.0000000001
 40
0.0
 40
0.0
 40
0.0
 40
0.0
 40
0.1999944489
 40
0.2596645122
 40
0.3226253287
 40
0.4564032622
 40
0.5966770492
 40
0.7377761235
 40
0.8739256708
 40
1.0
 40
1.0
 40
1.0
 40
1.0
 10
32.4880771754
 20
83.3197973015
 30
0.0
 10
32.7423189121
 20
82.8218393949
 30
0.0
 10
33.3401399902
 20
82.3175349613
 30
0.0
 10
34.1420719242
 20
81.9136596504
 30
0.0
 10
34.8116393926
 20
81.6521879046
 30
0.0
 10
35.7306691711
 20
81.4272664911
 30
0.0
 10
36.8904001046
 20
81.321263793
 30
0.0
 10
38.0602167346
 20
81.3808321942
 30
0.0
 10
39.1698798915
 20
81.6020123171
 30
0.0
 10
39.8605526999
 20
81.8618036181
 30
0.0
 10
40.1757386991
 20
82.0195452415
 30
0.0
  0
SPLINE
  5
264
100
AcDbEntity
  8
0
100
AcDbSpline
 62
7
  6
BYLAYER
 70
0
 71
3
 72
23
 73
19
 74
0
 42
0.0000001
 43
0.0000001
 44
0.0000000001
 40
0.0
 40
0.0
 40
0.0
 40
0.0
 40
0.0428143343
 40
0.0873962188
 40
0.1351790046
 40
0.1870880903
 40
0.2435344992
 40
0.3044918219
 40
0.3695897588
 40
0.4381979298
 40
0.5094958374
 40
0.5825319444
 40
0.6562756685
 40
0.7296637428
 40
0.8016520123
 40
0.8712543037
 40
0.9376085187
 40
1.0
 40
1.0
 40
1.0
 40
1.0
 10
16.4822823289
 20
82.126967771
 30
0.0
 10
16.482244513
 20
81.5412704751
 30
0.0
 10
16.6389103466
 20
80.3406050675
 30
0.0
 10
17.327498117
 20
78.6069652523
 30
0.0
 10
18.4448613496
 20
76.9635032807
 30
0.0
 10
19.9592807089
 20
75.442730341
 30
0.0
 10
21.8358394435
 20
74.0715096232
 30
0.0
 10
24.0345842025
 20
72.8756349542
 30
0.0
 10
26.5094712988
 20
71.8785979064
 30
0.0
 10
29.2085066661
 20
71.1007516519
 30
0.0
 10
32.0746312333
 20
70.5583145153
 30
0.0
 10
35.0469585939
 20
70.2627383885
 30
0.0
 10
38.0621342815
 20
70.2203277894
 30
0.0
 10
41.0558676312
 20
70.4319393481
 30
0.0
 10
43.9642463124
 20
70.8931440901
 30
0.0
 10
46.7257086127
 20
71.5941064095
 30
0.0
 10
49.2810345655
 20
72.520041358
 30
0.0
 10
50.865157788
 20
73.3010688153
 30
0.0
 10
51.6043214367
 20
73.7278225995
 30
0.0
  0
SPLINE
  5
265
100
AcDbEntity
  8
0
100
AcDbSpline
 62
7
  6
BYLAYER
 70
0
 71
3
 72
11
 73
7
 74
0
 42
0.0000001
 43
0.0000001
 44
0.0000000001
 40
0.0
 40
0.0
 40
0.0
 40
0.0
 40
0.2177827477
 40
0.4509152641
 40
0.7103063952
 40
1.0
 40
1.0
 40
1.0
 40
1.0
 10
56.3318073812
 20
97.0589400647
 30
0.0
 10
56.3318239045
 20
97.1798699684
 30
0.0
 10
56.3764870874
 20
97.4319290569
 30
0.0
 10
56.5675829637
 20
97.7831299706
 30
0.0
 10
56.8696603919
 20
98.1005893607
 30
0.0
 10
57.1224100044
 20
98.2746746563
 30
0.0
 10
57.2617194057
 20
98.3551044966
 30
0.0
  0
SPLINE
  5
266
100
AcDbEntity
  8
0
100
AcDbSpline
 62
7
  6
BYLAYER
 70
0
 71
3
 72
17
 73
13
 74
0
 42
0.0000001
 43
0.0000001
 44
0.0000000001
 40
0.0
 40
0.0
 40
0.0
 40
0.0
 40
0.1286926208
 40
0.2702795078
 40
0.4174383051
 40
0.5617803148
 40
0.6954501289
 40
0.8127134773
 40
0.8646759206
 40
0.9125113962
 40
0.9571388332
 40
1.0
 40
1.0
 40
1.0
 40
1.0
 10
114.7351192945
 20
131.5371893233
 30
0.0
 10
114.9701511413
 20
131.6728842133
 30
0.0
 10
115.5022859959
 20
131.8924519853
 30
0.0
 10
116.3695729921
 20
132.0659375006
 30
0.0
 10
117.2868695289
 20
132.0913425486
 30
0.0
 10
118.1793311065
 20
131.965922664
 30
0.0
 10
118.9745881624
 20
131.7002909413
 30
0.0
 10
119.5277073843
 20
131.3636305299
 30
0.0
 10
119.852282647
 20
131.0378506714
 30
0.0
 10
120.0247562551
 20
130.7842413243
 30
0.0
 10
120.1309489919
 20
130.5166872283
 30
0.0
 10
120.1551904237
 20
130.3314119226
 30
0.0
 10
120.1551780736
 20
130.2410249639
 30
0.0
  0
ENDSEC
  0
SECTION
  2
OBJECTS
  0
DICTIONARY
  5
C
100
AcDbDictionary
280
0
281
1
  3
ACAD_GROUP
350
D
  3
ACAD_MLINESTYLE
350
17
  3
ACAD_LAYOUT
350
1A
  3
ACAD_PLOTSETTINGS
350
19
  3
ACAD_PLOTSTYLENAME
350
E
  0
DICTIONARY
  5
D
102
{ACAD_REACTORS
330
C
102
}
100
AcDbDictionary
280
0
281
1
  0
ACDBDICTIONARYWDFLT
  5
E
102
{ACAD_REACTORS
330
C
102
}
100
AcDbDictionary
281
1
  3
Normal
350
F
100
AcDbDictionaryWithDefault
340
F
  0
DICTIONARY
  5
17
102
{ACAD_REACTORS
330
C
102
}
100
AcDbDictionary
280
0
281
1
  3
Standard
350
18
  0
DICTIONARY
  5
19
102
{ACAD_REACTORS
330
C
102
}
100
AcDbDictionary
281
1
  0
DICTIONARY
  5
1A
102
{ACAD_REACTORS
330
C
102
}
100
AcDbDictionary
281
1
  3
Model
350
267
  3
Layout1
350
268
  0
ACDBPLACEHOLDER
  5
F
102
{ACAD_REACTORS
330
E
102
}
  0
MLINESTYLE
  5
18
102
{ACAD_REACTORS
330
17
102
}
100
AcDbMlineStyle
  2
STANDARD
 70
0
  3

 62
256
 51
90.0
 52
90.0
 71
2
 49
0.5
 62
256
  6
BYLAYER
 49
-0.5
 62
256
  6
BYLAYER
  0
LAYOUT
  5
267
102
{ACAD_REACTORS
330
1A
102
}
100
AcDbPlotSettings
  1

  2
none_device
  4

  6

 40
0.0
 41
0.0
 42
0.0
 43
0.0
 44
210.0
 45
297.0
 46
0.0
 47
0.0
 48
0.0
 49
0.0
140
0.0
141
0.0
142
1.0
143
1.0
 70
1024
 72
1
 73
0
 74
0
  7

 75
0
147
1.0
148
0.0
149
0.0
100
AcDbLayout
  1
Model
 70
0
 71
0
 10
0.0
 20
0.0
 11
210.0
 21
297.0
 12
0.0
 22
0.0
 32
0.0
 14
0.0
 24
0.0
 34
0.0
 15
0.0
 25
0.0
 35
0.0
146
0.0
 13
0.0
 23
0.0
 33
0.0
 16
1.0
 26
0.0
 36
0.0
 17
0.0
 27
1.0
 37
0.0
 76
0
330
210
345
0
346
0
  0
LAYOUT
  5
268
102
{ACAD_REACTORS
330
1A
102
}
100
AcDbPlotSettings
  1

  2
none_device
  4

  6

 40
0.0
 41
0.0
 42
0.0
 43
0.0
 44
210.0
 45
297.0
 46
0.0
 47
0.0
 48
0.0
 49
0.0
140
0.0
141
0.0
142
1.0
143
1.0
 70
0
 72
1
 73
0
 74
0
  7

 75
0
147
1.0
148
0.0
149
0.0
100
AcDbLayout
  1
Layout1
 70
0
 71
1
 10
0.0
 20
0.0
 11
210.0
 21
297.0
 12
0.0
 22
0.0
 32
0.0
 14
0.0
 24
0.0
 34
0.0
 15
0.0
 25
0.0
 35
0.0
146
0.0
 13
0.0
 23
0.0
 33
0.0
 16
1.0
 26
0.0
 36
0.0
 17
0.0
 27
1.0
 37
0.0
 76
0
330
211
345
0
346
0
  0
ENDSEC
  0
EOF
