999
DXF file: C:\Users\sesa63760\Dev\_Creo\CAD\MCADID0002970_3D-CAD\drw0001_1.dxf
999
Pro/ENGINEER 2019471 by Parametric Technology Corporation
  0
SECTION
  2
HEADER
  9
$ACADVER
  1
AC1024
  9
$DWGCODEPAGE
  3
ANSI_1252
  9
$EXTMAX
 10
98.4698057413
 20
139.2644395484
 30
0.0
  9
$EXTMIN
 10
0.0
 20
0.0
 30
0.0
  9
$LIMMIN
 10
0.0
 20
0.0
  9
$LIMMAX
 10
98.4698057413
 20
139.2644395484
  9
$VIEWCTR
 10
49.2349028707
 20
69.6322197742
  9
$VIEWSIZE
 40
139.2644395484
  9
$CLAYER
  8
0
  9
$LTSCALE
 40
9.0779782817
  9
$CELTYPE
  6
BYLAYER
  9
$DIMSCALE
 40
1.0
  9
$DIMASZ
 40
1.1722595922
  9
$DIMEXO
 40
1.0
  9
$DIMDLI
 40
6.2720577219
  9
$DIMEXE
 40
1.0
  9
$DIMCEN
 40
1.4854873552
  9
$DIMLFAC
 40
1.0
  9
$DIMBLK
  1
_FILLED
  9
$DIMALT
 70
0
  9
$DIMALTF
 40
0.0393700787
  9
$DIMTXT
 40
1.641163429
  9
$DIMTOL
 70
1
  9
$DIMLIM
 70
0
  9
$DIMTFAC
 40
1.0
  9
$DIMTP
 40
0.01
  9
$DIMTM
 40
0.01
  9
$DIMGAP
 40
0.625
  9
$DIMDSEP
 70
46
  9
$AUNITS
 70
0
  9
$PDMODE
 70
3
  9
$PDSIZE
 40
0.3125
  9
$HANDSEED
  5
251
  9
$TILEMODE
 70
1
  9
$MEASUREMENT
 70
1
  9
$INSUNITS
 70
4
  0
ENDSEC
  0
SECTION
  2
CLASSES
  0
CLASS
  1
ACDBDICTIONARYWDFLT
  2
AcDbDictionaryWithDefault
  3
AutoCAD 2000
 90
0
 91
1
280
0
281
0
  0
CLASS
  1
ACDBPLACEHOLDER
  2
AcDbPlaceHolder
  3
AutoCAD 2000
 90
0
 91
1
280
0
281
0
  0
CLASS
  1
LAYOUT
  2
AcDbLayout
  3
AutoCAD 2000
 90
0
 91
0
280
0
281
0
  0
ENDSEC
  0
SECTION
  2
TABLES
  0
TABLE
  2
VPORT
  5
8
100
AcDbSymbolTable
 70
2
  0
VPORT
  5
1F4
100
AcDbSymbolTableRecord
100
AcDbViewportTableRecord
  2
*ACTIVE
 70
0
 10
0.0
 20
0.0
 11
1.0
 21
1.0
 12
49.2349028707
 22
69.6322197742
 13
0.0
 23
0.0
 14
1.0
 24
1.0
 15
0.0
 25
0.0
 16
0.0
 26
0.0
 36
1.0
 17
0.0
 27
0.0
 37
0.0
 40
139.2644395484
 41
0.7070707071
 42
50.0
 43
0.0
 44
0.0
 50
0.0
 51
0.0
 71
0
 72
100
 73
1
 74
1
 75
0
 76
0
 77
0
 78
0
  0
ENDTAB
  0
TABLE
  2
LTYPE
  5
5
100
AcDbSymbolTable
 70
6
  0
LTYPE
  5
14
100
AcDbSymbolTableRecord
100
AcDbLinetypeTableRecord
  2
BYBLOCK
 70
0
  3

 72
65
 73
0
 40
0.0
  0
LTYPE
  5
15
100
AcDbSymbolTableRecord
100
AcDbLinetypeTableRecord
  2
BYLAYER
 70
0
  3

 72
65
 73
0
 40
0.0
  0
LTYPE
  5
16
100
AcDbSymbolTableRecord
100
AcDbLinetypeTableRecord
  2
CONTINUOUS
 70
64
  3
Solid line
 72
65
 73
0
 40
0.0
  0
LTYPE
  5
1F5
100
AcDbSymbolTableRecord
100
AcDbLinetypeTableRecord
  2
CENTER
 70
64
  3
____ _ ____ _ ____ _ ____ _ ____ _ ____ _ ____
 72
65
 73
4
 40
0.6
 49
0.375
 74
0
 49
-0.075
 74
0
 49
0.075
 74
0
 49
-0.075
 74
0
  0
LTYPE
  5
1F6
100
AcDbSymbolTableRecord
100
AcDbLinetypeTableRecord
  2
HIDDEN
 70
64
  3
- - - - - - - - - - - - - - - - - - - -
 72
65
 73
2
 40
0.2
 49
0.1
 74
0
 49
-0.1
 74
0
  0
LTYPE
  5
1F7
100
AcDbSymbolTableRecord
100
AcDbLinetypeTableRecord
  2
PHANTOM
 70
64
  3
_____ _ _ _____ _ _ _____ _ _ _____
 72
65
 73
6
 40
0.8
 49
0.45
 74
0
 49
-0.05
 74
0
 49
0.1
 74
0
 49
-0.05
 74
0
 49
0.1
 74
0
 49
-0.05
 74
0
  0
LTYPE
  5
1F8
100
AcDbSymbolTableRecord
100
AcDbLinetypeTableRecord
  2
DOT
 70
64
  3
. . . . . . . . . . . . . . . . . . . .
 72
65
 73
2
 40
0.2
 49
0.1
 74
0
 49
-0.1
 74
0
  0
LTYPE
  5
1F9
100
AcDbSymbolTableRecord
100
AcDbLinetypeTableRecord
  2
DASHED
 70
64
  3
- - - - - - - - - - - - - - - - - - - -
 72
65
 73
2
 40
0.2
 49
0.1
 74
0
 49
-0.1
 74
0
  0
ENDTAB
  0
TABLE
  2
LAYER
  5
2
100
AcDbSymbolTable
 70
36
  0
LAYER
  5
10
100
AcDbSymbolTableRecord
100
AcDbLayerTableRecord
  2
0
 70
0
 62
7
  6
CONTINUOUS
370
-3
390
F
  0
LAYER
  5
1FA
100
AcDbSymbolTableRecord
100
AcDbLayerTableRecord
  2
DEFAULT_1
 70
0
 62
7
  6
CENTER
370
-3
390
F
  0
LAYER
  5
1FB
100
AcDbSymbolTableRecord
100
AcDbLayerTableRecord
  2
DEFAULT_2
 70
0
 62
7
  6
HIDDEN
370
-3
390
F
  0
LAYER
  5
1FC
100
AcDbSymbolTableRecord
100
AcDbLayerTableRecord
  2
DEFAULT_3
 70
0
 62
7
  6
PHANTOM
370
-3
390
F
  0
LAYER
  5
1FD
100
AcDbSymbolTableRecord
100
AcDbLayerTableRecord
  2
00_COMPONENTS
 70
0
 62
7
  6
CONTINUOUS
370
-3
390
F
  0
LAYER
  5
1FE
100
AcDbSymbolTableRecord
100
AcDbLayerTableRecord
  2
01_1_DEFAULT_DATUMS
 70
0
 62
7
  6
CONTINUOUS
370
-3
390
F
  0
LAYER
  5
1FF
100
AcDbSymbolTableRecord
100
AcDbLayerTableRecord
  2
01_PLANES
 70
0
 62
7
  6
CONTINUOUS
370
-3
390
F
  0
LAYER
  5
200
100
AcDbSymbolTableRecord
100
AcDbLayerTableRecord
  2
02_COORD_SYS
 70
0
 62
7
  6
CONTINUOUS
370
-3
390
F
  0
LAYER
  5
201
100
AcDbSymbolTableRecord
100
AcDbLayerTableRecord
  2
03_AXES
 70
0
 62
7
  6
CONTINUOUS
370
-3
390
F
  0
LAYER
  5
202
100
AcDbSymbolTableRecord
100
AcDbLayerTableRecord
  2
04_POINTS
 70
0
 62
7
  6
CONTINUOUS
370
-3
390
F
  0
LAYER
  5
203
100
AcDbSymbolTableRecord
100
AcDbLayerTableRecord
  2
05_CURVES
 70
0
 62
7
  6
CONTINUOUS
370
-3
390
F
  0
LAYER
  5
204
100
AcDbSymbolTableRecord
100
AcDbLayerTableRecord
  2
06_SURFS
 70
0
 62
7
  6
CONTINUOUS
370
-3
390
F
  0
LAYER
  5
205
100
AcDbSymbolTableRecord
100
AcDbLayerTableRecord
  2
07_COSMETICS
 70
0
 62
7
  6
CONTINUOUS
370
-3
390
F
  0
LAYER
  5
206
100
AcDbSymbolTableRecord
100
AcDbLayerTableRecord
  2
10_NOTES
 70
0
 62
7
  6
CONTINUOUS
370
-3
390
F
  0
LAYER
  5
207
100
AcDbSymbolTableRecord
100
AcDbLayerTableRecord
  2
11_NOTES_PUB
 70
0
 62
7
  6
CONTINUOUS
370
-3
390
F
  0
LAYER
  5
208
100
AcDbSymbolTableRecord
100
AcDbLayerTableRecord
  2
13_REF_GTOL
 70
0
 62
7
  6
CONTINUOUS
370
-3
390
F
  0
LAYER
  5
209
100
AcDbSymbolTableRecord
100
AcDbLayerTableRecord
  2
16_MISC
 70
0
 62
7
  6
CONTINUOUS
370
-3
390
F
  0
LAYER
  5
20A
100
AcDbSymbolTableRecord
100
AcDbLayerTableRecord
  2
17_NO_PRINT
 70
0
 62
7
  6
CONTINUOUS
370
-3
390
F
  0
LAYER
  5
20B
100
AcDbSymbolTableRecord
100
AcDbLayerTableRecord
  2
18_DATUM_CAMS_JOINTS
 70
0
 62
7
  6
CONTINUOUS
370
-3
390
F
  0
LAYER
  5
20C
100
AcDbSymbolTableRecord
100
AcDbLayerTableRecord
  2
19_DATUM_FUNCTIONAL
 70
0
 62
7
  6
CONTINUOUS
370
-3
390
F
  0
LAYER
  5
20D
100
AcDbSymbolTableRecord
100
AcDbLayerTableRecord
  2
20_DATUM_KINEMATIC_SCHEME
 70
0
 62
7
  6
CONTINUOUS
370
-3
390
F
  0
ENDTAB
  0
TABLE
  2
STYLE
  5
3
100
AcDbSymbolTable
 70
1
  0
STYLE
  5
11
100
AcDbSymbolTableRecord
100
AcDbTextStyleTableRecord
  2
STANDARD
 70
0
 40
0.0
 41
1.0
 50
0.0
 71
0
 42
0.2
  3
ARIAL.TTF
  4

  0
STYLE
  5
20E
100
AcDbSymbolTableRecord
100
AcDbTextStyleTableRecord
  2
TEXTSTYLE_1
 70
0
 40
0.0
 41
0.8
 50
0.0
 71
0
 42
0.2
  3
gdt
  4

  0
ENDTAB
  0
TABLE
  2
VIEW
  5
6
100
AcDbSymbolTable
 70
0
  0
ENDTAB
  0
TABLE
  2
UCS
  5
7
100
AcDbSymbolTable
 70
0
  0
ENDTAB
  0
TABLE
  2
APPID
  5
9
100
AcDbSymbolTable
 70
1
  0
APPID
  5
20F
100
AcDbSymbolTableRecord
100
AcDbRegAppTableRecord
  2
ACAD
 70
0
  0
ENDTAB
  0
TABLE
  2
BLOCK_RECORD
  5
1
100
AcDbSymbolTable
 70
0
  0
BLOCK_RECORD
  5
210
100
AcDbSymbolTableRecord
100
AcDbBlockTableRecord
  2
*Model_Space
  0
BLOCK_RECORD
  5
211
100
AcDbSymbolTableRecord
100
AcDbBlockTableRecord
  2
*Paper_Space
  0
BLOCK_RECORD
  5
212
100
AcDbSymbolTableRecord
100
AcDbBlockTableRecord
  2
_FILLED
  0
ENDTAB
  0
TABLE
  2
DIMSTYLE
  5
A
100
AcDbSymbolTable
 70
1
100
AcDbDimStyleTable
 71
0
  0
DIMSTYLE
105
213
100
AcDbSymbolTableRecord
100
AcDbDimStyleTableRecord
  2
STANDARD
 70
0
  3

  4

 40
1.0
 41
1.1722595922
 42
1.0
 43
0.38
 44
1.0
 45
0.0
 46
0.0
 47
0.01
 48
0.01
140
1.641163429
141
0.09
142
0.0
143
25.4
144
1.0
145
0.0
146
1.0
147
0.625
 71
1
 72
0
 73
0
 74
0
 75
0
 76
0
 77
1
 78
8
 79
2
170
0
171
1
172
0
173
0
174
0
175
0
176
0
177
0
178
0
270
2
179
2
271
2
272
2
273
2
274
2
275
0
280
0
281
0
282
0
283
1
284
8
285
0
286
0
287
3
288
0
340
11
278
46
341
212
342
212
343
212
344
212
  0
ENDTAB
  0
ENDSEC
  0
SECTION
  2
BLOCKS
  0
BLOCK
  5
20
100
AcDbEntity
  8
0
100
AcDbBlockBegin
  2
*Model_Space
 70
0
 10
0.0
 20
0.0
 30
0.0
  3
*Model_Space
  1

  0
ENDBLK
  5
21
100
AcDbEntity
  8
0
100
AcDbBlockEnd
  0
BLOCK
  5
1C
100
AcDbEntity
  8
0
100
AcDbBlockBegin
  2
*Paper_Space
 70
0
 10
0.0
 20
0.0
 30
0.0
  3
*Paper_Space
  1

  0
ENDBLK
  5
1D
100
AcDbEntity
  8
0
100
AcDbBlockEnd
  0
BLOCK
  5
214
100
AcDbEntity
  8
0
100
AcDbBlockBegin
  2
_FILLED
 70
64
 10
0.0
 20
0.0
  3
_FILLED
  1

  0
SOLID
  5
215
100
AcDbEntity
  8
0
  6
BYBLOCK
 62
0
100
AcDbTrace
 10
0.0
 20
0.0
 11
-1.0
 21
0.25
 12
-1.0
 22
-0.25
 13
-1.0
 23
-0.25
  0
ENDBLK
  5
216
100
AcDbEntity
  8
0
  6
BYBLOCK
 62
0
100
AcDbBlockEnd
  0
ENDSEC
  0
SECTION
  2
ENTITIES
  0
LINE
  5
217
100
AcDbEntity
  8
0
100
AcDbLine
 62
7
  6
BYLAYER
 10
13.7052739072
 20
48.4431821011
 11
24.9306407939
 21
41.9623601231
  0
LINE
  5
218
100
AcDbEntity
  8
0
100
AcDbLine
 62
7
  6
BYLAYER
 10
36.7265991861
 20
54.0846606917
 11
29.6301641795
 21
58.1816966657
  0
LINE
  5
219
100
AcDbEntity
  8
0
100
AcDbLine
 62
7
  6
BYLAYER
 10
29.8014353045
 20
58.3201439046
 11
36.7525256017
 21
54.3070208393
  0
LINE
  5
21A
100
AcDbEntity
  8
0
100
AcDbLine
 62
7
  6
BYLAYER
 10
35.1921687644
 20
64.1103271521
 11
35.1921687644
 21
63.0733690824
  0
LINE
  5
21B
100
AcDbEntity
  8
0
100
AcDbLine
 62
7
  6
BYLAYER
 10
24.8810842837
 20
67.8006914044
 11
36.1064511704
 21
61.3198694264
  0
LINE
  5
21C
100
AcDbEntity
  8
0
100
AcDbLine
 62
7
  6
BYLAYER
 10
39.7641687644
 20
64.1103271521
 11
39.7641687644
 21
63.0733690824
  0
LINE
  5
21D
100
AcDbEntity
  8
0
100
AcDbLine
 62
7
  6
BYLAYER
 10
43.3876771379
 20
74.7173645498
 11
56.8580052368
 21
82.4944156811
  0
LINE
  5
21E
100
AcDbEntity
  8
0
100
AcDbLine
 62
7
  6
BYLAYER
 10
86.9591672512
 20
98.1220381613
 11
60.0185110534
 21
82.5679358988
  0
LINE
  5
21F
100
AcDbEntity
  8
0
100
AcDbLine
 62
7
  6
BYLAYER
 10
41.743725927
 20
72.016950901
 11
29.6610352779
 21
65.0410478427
  0
LINE
  5
220
100
AcDbEntity
  8
0
100
AcDbLine
 62
7
  6
BYLAYER
 10
50.2750271939
 20
61.9068025572
 11
50.09541822
 21
62.0104975007
  0
LINE
  5
221
100
AcDbEntity
  8
0
100
AcDbLine
 62
7
  6
BYLAYER
 10
88.5756200829
 20
97.1887997965
 11
61.6349638851
 21
81.634697534
  0
LINE
  5
222
100
AcDbEntity
  8
0
100
AcDbLine
 62
7
  6
BYLAYER
 10
50.2750271939
 20
60.0402780316
 11
50.2750271939
 21
61.9068025572
  0
LINE
  5
223
100
AcDbEntity
  8
0
100
AcDbLine
 62
7
  6
BYLAYER
 10
52.9690928137
 20
65.536128923
 11
41.743725927
 21
72.016950901
  0
LINE
  5
224
100
AcDbEntity
  8
0
100
AcDbLine
 62
7
  6
BYLAYER
 10
52.9690928137
 20
63.6696043974
 11
52.9690928137
 21
65.536128923
  0
LINE
  5
225
100
AcDbEntity
  8
0
100
AcDbLine
 62
7
  6
BYLAYER
 10
52.9690928137
 20
65.536128923
 11
38.3797004087
 21
57.11298957
  0
LINE
  5
226
100
AcDbEntity
  8
0
100
AcDbLine
 62
7
  6
BYLAYER
 10
52.9690928137
 20
63.6696043974
 11
36.7525256017
 21
54.3070208393
  0
LINE
  5
227
100
AcDbEntity
  8
0
100
AcDbLine
 62
7
  6
BYLAYER
 10
88.5756200829
 20
84.2268239246
 11
66.2615436473
 21
71.3438627886
  0
LINE
  5
228
100
AcDbEntity
  8
0
100
AcDbLine
 62
7
  6
BYLAYER
 10
36.7265991861
 20
54.0846606917
 11
50.2750271939
 21
61.9068025572
  0
LINE
  5
229
100
AcDbEntity
  8
0
100
AcDbLine
 62
7
  6
BYLAYER
 10
51.3251416027
 20
60.9691907485
 11
64.7954697016
 21
68.7462418798
  0
LINE
  5
22A
100
AcDbEntity
  8
0
100
AcDbLine
 62
7
  6
BYLAYER
 10
50.2750271939
 20
60.0402780316
 11
37.9796973647
 21
52.9416084183
  0
LINE
  5
22B
100
AcDbEntity
  8
0
100
AcDbLine
 62
7
  6
BYLAYER
 10
60.0185110534
 20
82.5003890186
 11
60.0185110534
 21
82.5679358988
  0
LINE
  5
22C
100
AcDbEntity
  8
0
100
AcDbLine
 62
7
  6
BYLAYER
 10
61.6349638851
 20
81.634697534
 11
61.6349638851
 21
81.5671506537
  0
LINE
  5
22D
100
AcDbEntity
  8
0
100
AcDbLine
 62
7
  6
BYLAYER
 10
60.0060698475
 20
82.5027640247
 11
60.0185110534
 21
82.5003890186
  0
LINE
  5
22E
100
AcDbEntity
  8
0
100
AcDbLine
 62
7
  6
BYLAYER
 10
60.0057313688
 20
82.5056024202
 11
60.0185110534
 21
82.5003890186
  0
LINE
  5
22F
100
AcDbEntity
  8
0
100
AcDbLine
 62
7
  6
BYLAYER
 10
60.0185110534
 20
82.5679358988
 11
61.6349638851
 21
81.634697534
  0
LINE
  5
230
100
AcDbEntity
  8
0
100
AcDbLine
 62
7
  6
BYLAYER
 10
88.5756200829
 20
84.2268239246
 11
88.5756200829
 21
97.1887997965
  0
LINE
  5
231
100
AcDbEntity
  8
0
100
AcDbLine
 62
7
  6
BYLAYER
 10
88.5756200829
 20
97.1887997965
 11
86.9591672512
 21
98.1220381613
  0
ARC
  5
232
100
AcDbEntity
  8
0
100
AcDbCircle
 62
7
  6
BYLAYER
 10
47.6399771678
 20
71.1897837261
 40
5.8914215548
100
AcDbArc
 50
172.0654363439
 51
172.2604928031
  0
ARC
  5
233
100
AcDbEntity
  8
0
100
AcDbCircle
 62
7
  6
BYLAYER
 10
47.1353585694
 20
64.4879770146
 40
5.8282890547
100
AcDbArc
 50
351.4312312252
 51
352.0662266063
  0
SPLINE
  5
234
100
AcDbEntity
  8
0
100
AcDbSpline
 62
7
  6
BYLAYER
 70
0
 71
3
 72
14
 73
10
 74
0
 42
0.0000001
 43
0.0000001
 44
0.0000000001
 40
0.0
 40
0.0
 40
0.0
 40
0.0
 40
0.2892804844
 40
0.4225485722
 40
0.548495028
 40
0.6678928031
 40
0.7818693811
 40
0.8919539123
 40
1.0
 40
1.0
 40
1.0
 40
1.0
 10
66.4394209126
 20
72.3799177914
 30
0.0
 10
66.4394209126
 20
71.9775873784
 30
0.0
 10
66.3924522325
 20
71.3870184655
 30
0.0
 10
66.2108904029
 20
70.6447526426
 30
0.0
 10
66.0261704602
 20
70.1501461505
 30
0.0
 10
65.7907546555
 20
69.7075361668
 30
0.0
 10
65.5064139197
 20
69.3213606264
 30
0.0
 10
65.1758158921
 20
68.9959783316
 30
0.0
 10
64.9255965449
 20
68.821395945
 30
0.0
 10
64.7954563465
 20
68.7462650441
 30
0.0
  0
SPLINE
  5
235
100
AcDbEntity
  8
0
100
AcDbSpline
 62
7
  6
BYLAYER
 70
0
 71
3
 72
15
 73
11
 74
0
 42
0.0000001
 43
0.0000001
 44
0.0000000001
 40
0.0
 40
0.0
 40
0.0
 40
0.0
 40
0.119455183
 40
0.2456266131
 40
0.3761307346
 40
0.5082899038
 40
0.6393191804
 40
0.7665064823
 40
0.8873976921
 40
1.0
 40
1.0
 40
1.0
 40
1.0
 10
61.6349638851
 20
81.5671506537
 30
0.0
 10
61.9763345555
 20
81.3127046211
 30
0.0
 10
62.6424883996
 20
80.7403866882
 30
0.0
 10
63.551746074
 20
79.7517357094
 30
0.0
 10
64.3765369252
 20
78.6347669307
 30
0.0
 10
65.0910686109
 20
77.4242803328
 30
0.0
 10
65.6732501055
 20
76.1578059603
 30
0.0
 10
66.1050170657
 20
74.874457421
 30
0.0
 10
66.372988622
 20
73.6141865077
 30
0.0
 10
66.4394209126
 20
72.7812585888
 30
0.0
 10
66.4394209126
 20
72.3799177914
 30
0.0
  0
SPLINE
  5
236
100
AcDbEntity
  8
0
100
AcDbSpline
 62
7
  6
BYLAYER
 70
0
 71
3
 72
17
 73
13
 74
0
 42
0.0000001
 43
0.0000001
 44
0.0000000001
 40
0.0
 40
0.0
 40
0.0
 40
0.0
 40
0.0428584629
 40
0.08748393
 40
0.135317815
 40
0.1872795469
 40
0.3045398917
 40
0.4382057949
 40
0.5825481992
 40
0.7297130515
 40
0.8713063844
 40
1.0
 40
1.0
 40
1.0
 40
1.0
 10
39.7641609713
 20
64.1103271565
 30
0.0
 10
39.7641658974
 20
64.1754016686
 30
0.0
 10
39.7467225777
 20
64.3087935824
 30
0.0
 10
39.6702604726
 20
64.5014214139
 30
0.0
 10
39.5460967395
 20
64.6840231743
 30
0.0
 10
39.3124037095
 20
64.9185760669
 30
0.0
 10
38.9141782952
 20
65.1609782869
 30
0.0
 10
38.3416042225
 20
65.3522395044
 30
0.0
 10
37.6990299161
 20
65.4425528753
 30
0.0
 10
37.0385560041
 20
65.4242695637
 30
0.0
 10
36.4140882832
 20
65.2993588303
 30
0.0
 10
36.0309401886
 20
65.1412666035
 30
0.0
 10
35.8617159327
 20
65.043565517
 30
0.0
  0
SPLINE
  5
237
100
AcDbEntity
  8
0
100
AcDbSpline
 62
7
  6
BYLAYER
 70
0
 71
3
 72
15
 73
11
 74
0
 42
0.0000001
 43
0.0000001
 44
0.0000000001
 40
0.0
 40
0.0
 40
0.0
 40
0.0
 40
0.1485432058
 40
0.2895064252
 40
0.4227352762
 40
0.5486400701
 40
0.6679974412
 40
0.7819390031
 40
0.891988378
 40
1.0
 40
1.0
 40
1.0
 40
1.0
 10
19.2931790954
 20
67.2471677666
 30
0.0
 10
19.5451629848
 20
67.3926498646
 30
0.0
 10
20.0483754427
 20
67.655997175
 30
0.0
 10
20.8158807177
 20
67.9702645603
 30
0.0
 10
21.5698325825
 20
68.1900202013
 30
0.0
 10
22.3028803291
 20
68.3129948257
 30
0.0
 10
23.0083007785
 20
68.3374922549
 30
0.0
 10
23.6793414784
 20
68.2627022522
 30
0.0
 10
24.3088073142
 20
68.0886098453
 30
0.0
 10
24.6978464484
 20
67.9064592169
 30
0.0
 10
24.8810671163
 20
67.8006617498
 30
0.0
  0
SPLINE
  5
238
100
AcDbEntity
  8
0
100
AcDbSpline
 62
7
  6
BYLAYER
 70
0
 71
3
 72
15
 73
11
 74
0
 42
0.0000001
 43
0.0000001
 44
0.0000000001
 40
0.0
 40
0.0
 40
0.0
 40
0.0
 40
0.1080108411
 40
0.2180577271
 40
0.3319986277
 40
0.45135546
 40
0.5772609558
 40
0.7104924407
 40
0.8514583542
 40
1.0
 40
1.0
 40
1.0
 40
1.0
 10
24.9306567276
 20
41.9623873748
 30
0.0
 10
25.1138737409
 20
41.8565863517
 30
0.0
 10
25.502908939
 20
41.6744419275
 30
0.0
 10
26.1323642323
 20
41.5003371845
 30
0.0
 10
26.8034003032
 20
41.4255668484
 30
0.0
 10
27.5088201717
 20
41.4500429748
 30
0.0
 10
28.2418736533
 20
41.5730255131
 30
0.0
 10
28.9958379106
 20
41.7927815579
 30
0.0
 10
29.7633483207
 20
42.1070578121
 30
0.0
 10
30.2665645687
 20
42.3704030925
 30
0.0
 10
30.5185459821
 20
42.5158837609
 30
0.0
  0
SPLINE
  5
239
100
AcDbEntity
  8
0
100
AcDbSpline
 62
7
  6
BYLAYER
 70
0
 71
3
 72
24
 73
20
 74
0
 42
0.0000001
 43
0.0000001
 44
0.0000000001
 40
0.0
 40
0.0
 40
0.0
 40
0.0
 40
0.021334057
 40
0.0428963365
 40
0.087475148
 40
0.1352546991
 40
0.187159826
 40
0.2436014828
 40
0.3045536628
 40
0.3696463602
 40
0.4382486569
 40
0.5095398959
 40
0.5825694564
 40
0.6563064866
 40
0.7296874193
 40
0.8016700736
 40
0.8712630038
 40
0.9376185058
 40
1.0
 40
1.0
 40
1.0
 40
1.0
 10
13.7052901072
 20
48.4432097372
 30
0.0
 10
13.5679888802
 20
48.5224961693
 30
0.0
 10
13.3018129599
 20
48.6998317857
 30
0.0
 10
12.8094537884
 20
49.1265349159
 30
0.0
 10
12.2785555928
 20
49.7970444543
 30
0.0
 10
11.8093004397
 20
50.7688620131
 30
0.0
 10
11.5050621911
 20
51.8944252307
 30
0.0
 10
11.3696845065
 20
53.1496406825
 30
0.0
 10
11.4042539492
 20
54.5088292544
 30
0.0
 10
11.6074056963
 20
55.943911107
 30
0.0
 10
11.9745477271
 20
57.4249038141
 30
0.0
 10
12.4978017674
 20
58.9205637186
 30
0.0
 10
13.166030235
 20
60.3991368233
 30
0.0
 10
13.9649873241
 20
61.8291102067
 30
0.0
 10
14.8776522367
 20
63.1799943695
 30
0.0
 10
15.8845594894
 20
64.4228941777
 30
0.0
 10
16.9643405251
 20
65.531653573
 30
0.0
 10
18.0940064585
 20
66.4822356784
 30
0.0
 10
18.8916854614
 20
67.0153666926
 30
0.0
 10
19.2931790954
 20
67.2471677666
 30
0.0
  0
SPLINE
  5
23A
100
AcDbEntity
  8
0
100
AcDbSpline
 62
7
  6
BYLAYER
 70
0
 71
3
 72
23
 73
19
 74
0
 42
0.0000001
 43
0.0000001
 44
0.0000000001
 40
0.0
 40
0.0
 40
0.0
 40
0.0
 40
0.0428147943
 40
0.087397292
 40
0.1351800715
 40
0.187089232
 40
0.2435364611
 40
0.3044939262
 40
0.369591107
 40
0.4381986218
 40
0.5094963552
 40
0.5825324005
 40
0.6562746498
 40
0.7296626077
 40
0.8016521996
 40
0.8712498302
 40
0.9376165025
 40
1.0
 40
1.0
 40
1.0
 40
1.0
 10
26.0736260582
 20
43.9421134464
 30
0.0
 10
25.8544511969
 20
44.06865814
 30
0.0
 10
25.4389843879
 20
44.3866774077
 30
0.0
 10
24.9390104698
 20
45.0189215345
 30
0.0
 10
24.5653858856
 20
45.7921078143
 30
0.0
 10
24.3234502478
 20
46.6873820835
 30
0.0
 10
24.215770293
 20
47.6858726783
 30
0.0
 10
24.2432988033
 20
48.7670360514
 30
0.0
 10
24.4048679209
 20
49.908572056
 30
0.0
 10
24.6968796887
 20
51.0866348551
 30
0.0
 10
25.1131179709
 20
52.2763604385
 30
0.0
 10
25.6446818551
 20
53.4524857007
 30
0.0
 10
26.2802046984
 20
54.5899686171
 30
0.0
 10
27.0061731717
 20
55.6645490608
 30
0.0
 10
27.8071244014
 20
56.6532189877
 30
0.0
 10
28.666056641
 20
57.5352138299
 30
0.0
 10
29.5646781721
 20
58.2913374626
 30
0.0
 10
30.1991932012
 20
58.7154439496
 30
0.0
 10
30.5185459821
 20
58.899821263
 30
0.0
  0
SPLINE
  5
23B
100
AcDbEntity
  8
0
100
AcDbSpline
 62
7
  6
BYLAYER
 70
0
 71
3
 72
12
 73
8
 74
0
 42
0.0000001
 43
0.0000001
 44
0.0000000001
 40
0.0
 40
0.0
 40
0.0
 40
0.0
 40
0.1125180469
 40
0.2264518664
 40
0.4632338525
 40
0.7194197664
 40
1.0
 40
1.0
 40
1.0
 40
1.0
 10
56.8580185919
 20
82.4943925168
 30
0.0
 10
56.9637602833
 20
82.5554379788
 30
0.0
 10
57.1854309626
 20
82.6636617554
 30
0.0
 10
57.6643018952
 20
82.8207646
 30
0.0
 10
58.3261100625
 20
82.8976040974
 30
0.0
 10
59.1655823506
 20
82.7988723067
 30
0.0
 10
59.7236839008
 20
82.6202772998
 30
0.0
 10
60.0057313688
 20
82.5056024202
 30
0.0
  0
SPLINE
  5
23C
100
AcDbEntity
  8
0
100
AcDbSpline
 62
7
  6
BYLAYER
 70
0
 71
3
 72
13
 73
9
 74
0
 42
0.0000001
 43
0.0000001
 44
0.0000000001
 40
0.0
 40
0.0
 40
0.0
 40
0.0
 40
0.1124960123
 40
0.2264058008
 40
0.3430382029
 40
0.4635556468
 40
0.719625173
 40
1.0
 40
1.0
 40
1.0
 40
1.0
 10
43.3876895348
 20
74.7173430864
 30
0.0
 10
43.2821175195
 20
74.6564003905
 30
0.0
 10
43.077882915
 20
74.5188131165
 30
0.0
 10
42.800147872
 20
74.2701628532
 30
0.0
 10
42.5517538219
 20
73.9806396642
 30
0.0
 10
42.2561733201
 20
73.5339269479
 30
0.0
 10
41.9714049845
 20
72.8750863911
 30
0.0
 10
41.8468970244
 20
72.3039499375
 30
0.0
 10
41.8049579052
 20
72.003047608
 30
0.0
  0
SPLINE
  5
23D
100
AcDbEntity
  8
0
100
AcDbSpline
 62
7
  6
BYLAYER
 70
0
 71
3
 72
14
 73
10
 74
0
 42
0.0000001
 43
0.0000001
 44
0.0000000001
 40
0.0
 40
0.0
 40
0.0
 40
0.0
 40
0.2892765119
 40
0.4225523912
 40
0.5484966467
 40
0.6678896241
 40
0.7818689993
 40
0.8919532551
 40
1.0
 40
1.0
 40
1.0
 40
1.0
 10
30.5185459821
 20
58.899821263
 30
0.0
 10
30.9087657302
 20
59.1251133948
 30
0.0
 10
31.5078723707
 20
59.4102680907
 30
0.0
 10
32.3294770065
 20
59.649812312
 30
0.0
 10
32.912639702
 20
59.7476533518
 30
0.0
 10
33.4737513087
 20
59.7671018325
 30
0.0
 10
34.0075402122
 20
59.7076528018
 30
0.0
 10
34.5082413392
 20
59.5691296965
 30
0.0
 10
34.8177169171
 20
59.4242655533
 30
0.0
 10
34.9634589755
 20
59.3401041228
 30
0.0
  0
SPLINE
  5
23E
100
AcDbEntity
  8
0
100
AcDbSpline
 62
7
  6
BYLAYER
 70
0
 71
3
 72
15
 73
11
 74
0
 42
0.0000001
 43
0.0000001
 44
0.0000000001
 40
0.0
 40
0.0
 40
0.0
 40
0.0
 40
0.1112785235
 40
0.2299004866
 40
0.3544362
 40
0.4831721106
 40
0.6141521434
 40
0.745308362
 40
0.8745955239
 40
1.0
 40
1.0
 40
1.0
 40
1.0
 10
30.5185459821
 20
42.5158837609
 30
0.0
 10
30.9400951845
 20
42.7592638536
 30
0.0
 10
31.776971516
 20
43.3224676122
 30
0.0
 10
32.9575474852
 20
44.3317405796
 30
0.0
 10
34.0808561526
 20
45.5121201526
 30
0.0
 10
35.1206365895
 20
46.8357382857
 30
0.0
 10
36.0526181451
 20
48.2718727675
 30
0.0
 10
36.8551640483
 20
49.7869223678
 30
0.0
 10
37.509220921
 20
51.3452325198
 30
0.0
 10
37.8429757926
 20
52.4103667426
 30
0.0
 10
37.9796973647
 20
52.9416084183
 30
0.0
  0
SPLINE
  5
23F
100
AcDbEntity
  8
0
100
AcDbSpline
 62
7
  6
BYLAYER
 70
0
 71
3
 72
13
 73
9
 74
0
 42
0.0000001
 43
0.0000001
 44
0.0000000001
 40
0.0
 40
0.0
 40
0.0
 40
0.0
 40
0.2832770143
 40
0.5401627938
 40
0.660317499
 40
0.7761277141
 40
0.8888613272
 40
1.0
 40
1.0
 40
1.0
 40
1.0
 10
38.3797004087
 20
57.11298957
 30
0.0
 10
38.335898305
 20
57.5796564413
 30
0.0
 10
38.1830813738
 20
58.4655428564
 30
0.0
 10
37.7849334138
 20
59.4934609635
 30
0.0
 10
37.3543915289
 20
60.1884203497
 30
0.0
 10
36.9878422166
 20
60.636350362
 30
0.0
 10
36.5731753291
 20
61.0184827689
 30
0.0
 10
36.2656844994
 20
61.2278834412
 30
0.0
 10
36.1064339993
 20
61.3198397654
 30
0.0
  0
SPLINE
  5
240
100
AcDbEntity
  8
0
100
AcDbSpline
 62
7
  6
BYLAYER
 70
0
 71
3
 72
9
 73
5
 74
0
 42
0.0000001
 43
0.0000001
 44
0.0000000001
 40
0.0
 40
0.0
 40
0.0
 40
0.0
 40
0.5064921884
 40
1.0
 40
1.0
 40
1.0
 40
1.0
 10
50.302012948
 20
60.6259723613
 30
0.0
 10
50.4834500371
 20
60.6503993132
 30
0.0
 10
50.8383446701
 20
60.7308631293
 30
0.0
 10
51.1706410334
 20
60.8800320852
 30
0.0
 10
51.3251292058
 20
60.969212212
 30
0.0
  0
SPLINE
  5
241
100
AcDbEntity
  8
0
100
AcDbSpline
 62
7
  6
BYLAYER
 70
0
 71
3
 72
11
 73
7
 74
0
 42
0.0000001
 43
0.0000001
 44
0.0000000001
 40
0.0
 40
0.0
 40
0.0
 40
0.0
 40
0.2897031353
 40
0.5490914015
 40
0.7822201129
 40
1.0
 40
1.0
 40
1.0
 40
1.0
 10
35.8617159327
 20
65.043565517
 30
0.0
 10
35.7614097781
 20
64.9856540773
 30
0.0
 10
35.5794280872
 20
64.8603109625
 30
0.0
 10
35.3619304746
 20
64.6317382901
 30
0.0
 10
35.2243514715
 20
64.3788748282
 30
0.0
 10
35.1921831485
 20
64.1973956098
 30
0.0
 10
35.1921765575
 20
64.1103271477
 30
0.0
  0
SPLINE
  5
242
100
AcDbEntity
  8
0
100
AcDbSpline
 62
7
  6
BYLAYER
 70
0
 71
3
 72
14
 73
10
 74
0
 42
0.0000001
 43
0.0000001
 44
0.0000000001
 40
0.0
 40
0.0
 40
0.0
 40
0.0
 40
0.2892719121
 40
0.4225553504
 40
0.5485001381
 40
0.6678899904
 40
0.7818707805
 40
0.8919537937
 40
1.0
 40
1.0
 40
1.0
 40
1.0
 10
30.5185459821
 20
44.3824082865
 30
0.0
 10
30.128332248
 20
44.1571196268
 30
0.0
 10
29.5292199176
 20
43.8719646432
 30
0.0
 10
28.7076116971
 20
43.6324170373
 30
0.0
 10
28.1244421348
 20
43.5345558448
 30
0.0
 10
27.5633319863
 20
43.5151473154
 30
0.0
 10
27.0295439857
 20
43.5745615571
 30
0.0
 10
26.5288479732
 20
43.7131088153
 30
0.0
 10
26.2193737557
 20
43.857963295
 30
0.0
 10
26.0736260582
 20
43.9421134464
 30
0.0
  0
SPLINE
  5
243
100
AcDbEntity
  8
0
100
AcDbSpline
 62
7
  6
BYLAYER
 70
0
 71
3
 72
15
 73
11
 74
0
 42
0.0000001
 43
0.0000001
 44
0.0000000001
 40
0.0
 40
0.0
 40
0.0
 40
0.0
 40
0.1199120205
 40
0.2463321787
 40
0.3768993141
 40
0.5089771822
 40
0.6398335369
 40
0.7668134735
 40
0.8875179329
 40
1.0
 40
1.0
 40
1.0
 40
1.0
 10
36.7265991861
 20
54.0846606917
 30
0.0
 10
36.6665121993
 20
53.6139254385
 30
0.0
 10
36.4772729554
 20
52.654572536
 30
0.0
 10
36.0209638433
 20
51.2315628057
 30
0.0
 10
35.3969402763
 20
49.820873741
 30
0.0
 10
34.6242431463
 20
48.4657532547
 30
0.0
 10
33.7264288493
 20
47.2073993349
 30
0.0
 10
32.7306752881
 20
46.0840469362
 30
0.0
 10
31.6674487113
 20
45.1299763167
 30
0.0
 10
30.9040581494
 20
44.6049825114
 30
0.0
 10
30.5185459821
 20
44.3824082865
 30
0.0
  0
SPLINE
  5
244
100
AcDbEntity
  8
0
100
AcDbSpline
 62
7
  6
BYLAYER
 70
0
 71
3
 72
17
 73
13
 74
0
 42
0.0000001
 43
0.0000001
 44
0.0000000001
 40
0.0
 40
0.0
 40
0.0
 40
0.0
 40
0.0428584629
 40
0.08748393
 40
0.135317815
 40
0.1872795469
 40
0.3045398917
 40
0.4382057949
 40
0.5825481992
 40
0.7297130515
 40
0.8713063844
 40
1.0
 40
1.0
 40
1.0
 40
1.0
 10
35.1921765575
 20
64.1103271477
 30
0.0
 10
35.1921716315
 20
64.0452526356
 30
0.0
 10
35.2096149511
 20
63.9118607218
 30
0.0
 10
35.2860770563
 20
63.7192328903
 30
0.0
 10
35.4102407894
 20
63.5366311299
 30
0.0
 10
35.6439338194
 20
63.3020782373
 30
0.0
 10
36.0421592337
 20
63.0596760173
 30
0.0
 10
36.6147333064
 20
62.8684147999
 30
0.0
 10
37.2573076128
 20
62.778101429
 30
0.0
 10
37.9177815247
 20
62.7963847406
 30
0.0
 10
38.5422492457
 20
62.921295474
 30
0.0
 10
38.9253973402
 20
63.0793877008
 30
0.0
 10
39.0946215961
 20
63.1770887873
 30
0.0
  0
SPLINE
  5
245
100
AcDbEntity
  8
0
100
AcDbSpline
 62
7
  6
BYLAYER
 70
0
 71
3
 72
24
 73
20
 74
0
 42
0.0000001
 43
0.0000001
 44
0.0000000001
 40
0.0
 40
0.0
 40
0.0
 40
0.0
 40
0.0623808292
 40
0.1287351478
 40
0.1983277841
 40
0.2703103927
 40
0.3436917874
 40
0.4174298216
 40
0.4904606291
 40
0.5617530827
 40
0.6303562872
 40
0.695449381
 40
0.756401498
 40
0.8128427637
 40
0.8647472486
 40
0.9125260298
 40
0.9571041549
 40
0.9786661643
 40
1.0
 40
1.0
 40
1.0
 40
1.0
 10
30.5185459821
 20
60.7663457886
 30
0.0
 10
30.1170566206
 20
60.5345471813
 30
0.0
 10
29.3193871793
 20
60.0014266318
 30
0.0
 10
28.1897334728
 20
59.0508546874
 30
0.0
 10
27.1099565145
 20
57.9421072352
 30
0.0
 10
26.1030461196
 20
56.699208692
 30
0.0
 10
25.1903714306
 20
55.3483183712
 30
0.0
 10
24.3914023189
 20
53.9183284136
 30
0.0
 10
23.7231642176
 20
52.4397312532
 30
0.0
 10
23.1999039667
 20
50.9440469085
 30
0.0
 10
22.8327608424
 20
49.4630350097
 30
0.0
 10
22.6296153199
 20
48.027942782
 30
0.0
 10
22.5950547791
 20
46.6687543632
 30
0.0
 10
22.7304394763
 20
45.4135479254
 30
0.0
 10
23.0346814281
 20
44.2879994613
 30
0.0
 10
23.5039377594
 20
43.3162000755
 30
0.0
 10
24.0348305236
 20
42.6457028637
 30
0.0
 10
24.5271848872
 20
42.2190077753
 30
0.0
 10
24.793356891
 20
42.0416729331
 30
0.0
 10
24.9306567276
 20
41.9623873748
 30
0.0
  0
SPLINE
  5
246
100
AcDbEntity
  8
0
100
AcDbSpline
 62
7
  6
BYLAYER
 70
0
 71
3
 72
11
 73
7
 74
0
 42
0.0000001
 43
0.0000001
 44
0.0000000001
 40
0.0
 40
0.0
 40
0.0
 40
0.0
 40
0.2177827477
 40
0.4509152641
 40
0.7103063952
 40
1.0
 40
1.0
 40
1.0
 40
1.0
 10
39.7641582538
 20
63.0733691085
 30
0.0
 10
39.764146357
 20
62.9862995778
 30
0.0
 10
39.7319888653
 20
62.8048170341
 30
0.0
 10
39.5943998344
 20
62.5519523762
 30
0.0
 10
39.3769040861
 20
62.3233816154
 30
0.0
 10
39.1949243651
 20
62.1980402025
 30
0.0
 10
39.0946215961
 20
62.1401307175
 30
0.0
  0
SPLINE
  5
247
100
AcDbEntity
  8
0
100
AcDbSpline
 62
7
  6
BYLAYER
 70
0
 71
3
 72
15
 73
11
 74
0
 42
0.0000001
 43
0.0000001
 44
0.0000000001
 40
0.0
 40
0.0
 40
0.0
 40
0.0
 40
0.1043249867
 40
0.2112935542
 40
0.3232353498
 40
0.4419549092
 40
0.5686184315
 40
0.703854312
 40
0.8478237071
 40
1.0
 40
1.0
 40
1.0
 40
1.0
 10
34.9634589755
 20
59.3401041228
 30
0.0
 10
35.1332529178
 20
59.2420534899
 30
0.0
 10
35.4581275219
 20
59.0083985433
 30
0.0
 10
35.8755487839
 20
58.5623308955
 30
0.0
 10
36.2207505323
 20
58.0261440882
 30
0.0
 10
36.4895403581
 20
57.4079225079
 30
0.0
 10
36.679715439
 20
56.7161477664
 30
0.0
 10
36.7893097111
 20
55.9595049423
 30
0.0
 10
36.8172485117
 20
55.1478639406
 30
0.0
 10
36.7825161235
 20
54.5914482996
 30
0.0
 10
36.7525256017
 20
54.3070208393
 30
0.0
  0
SPLINE
  5
248
100
AcDbEntity
  8
0
100
AcDbSpline
 62
7
  6
BYLAYER
 70
0
 71
3
 72
12
 73
8
 74
0
 42
0.0000001
 43
0.0000001
 44
0.0000000001
 40
0.0
 40
0.0
 40
0.0
 40
0.0
 40
0.112866616
 40
0.2271047665
 40
0.4642018731
 40
0.7201758639
 40
1.0
 40
1.0
 40
1.0
 40
1.0
 10
51.3251292058
 20
60.969212212
 30
0.0
 10
51.4289032476
 20
61.0291170064
 30
0.0
 10
51.6297564463
 20
61.1641066087
 30
0.0
 10
51.9990728521
 20
61.4922643491
 30
0.0
 10
52.3918936765
 20
62.0126840369
 30
0.0
 10
52.7263165006
 20
62.7681208712
 30
0.0
 10
52.8543236829
 20
63.3258282117
 30
0.0
 10
52.8985907698
 20
63.619583147
 30
0.0
  0
SPLINE
  5
249
100
AcDbEntity
  8
0
100
AcDbSpline
 62
7
  6
BYLAYER
 70
0
 71
3
 72
9
 73
5
 74
0
 42
0.0000001
 43
0.0000001
 44
0.0000000001
 40
0.0
 40
0.0
 40
0.0
 40
0.0
 40
0.2428330039
 40
1.0
 40
1.0
 40
1.0
 40
1.0
 10
60.0185110534
 20
82.5003890186
 30
0.0
 10
60.086064776
 20
82.4727386998
 30
0.0
 10
60.3621458534
 20
82.3537505419
 30
0.0
 10
60.6296309375
 20
82.2151136511
 30
0.0
 10
60.8267374692
 20
82.1013167164
 30
0.0
  0
SPLINE
  5
24A
100
AcDbEntity
  8
0
100
AcDbSpline
 62
7
  6
BYLAYER
 70
0
 71
3
 72
15
 73
11
 74
0
 42
0.0000001
 43
0.0000001
 44
0.0000000001
 40
0.0
 40
0.0
 40
0.0
 40
0.0
 40
0.108011627
 40
0.218061006
 40
0.3320025693
 40
0.451359944
 40
0.5772647389
 40
0.7104935837
 40
0.8514567929
 40
1.0
 40
1.0
 40
1.0
 40
1.0
 10
36.1064339993
 20
61.3198397654
 30
0.0
 10
35.9232133217
 20
61.4256372356
 30
0.0
 10
35.5341741824
 20
61.6077878989
 30
0.0
 10
34.9047083137
 20
61.7818802673
 30
0.0
 10
34.2336676006
 20
61.8566703063
 30
0.0
 10
33.5282471389
 20
61.8321728288
 30
0.0
 10
32.7951993952
 20
61.7091982135
 30
0.0
 10
32.041247563
 20
61.489442565
 30
0.0
 10
31.2737423101
 20
61.1751752032
 30
0.0
 10
30.7705298739
 20
60.9118278879
 30
0.0
 10
30.5185459821
 20
60.7663457886
 30
0.0
  0
SPLINE
  5
24B
100
AcDbEntity
  8
0
100
AcDbSpline
 62
7
  6
BYLAYER
 70
0
 71
3
 72
9
 73
5
 74
0
 42
0.0000001
 43
0.0000001
 44
0.0000000001
 40
0.0
 40
0.0
 40
0.0
 40
0.0
 40
0.2437463931
 40
1.0
 40
1.0
 40
1.0
 40
1.0
 10
60.8267374692
 20
82.1013167164
 30
0.0
 10
60.8949278307
 20
82.0619478835
 30
0.0
 10
61.1721285877
 20
81.896020922
 30
0.0
 10
61.4390909839
 20
81.713147621
 30
0.0
 10
61.6349638851
 20
81.5671506537
 30
0.0
  0
SPLINE
  5
24C
100
AcDbEntity
  8
0
100
AcDbSpline
 62
7
  6
BYLAYER
 70
0
 71
3
 72
17
 73
13
 74
0
 42
0.0000001
 43
0.0000001
 44
0.0000000001
 40
0.0
 40
0.0
 40
0.0
 40
0.0
 40
0.1286926208
 40
0.2702795078
 40
0.4174383051
 40
0.5617803148
 40
0.6954501289
 40
0.8127134773
 40
0.8646759206
 40
0.9125113962
 40
0.9571388332
 40
1.0
 40
1.0
 40
1.0
 40
1.0
 10
39.0946215961
 20
62.1401307175
 30
0.0
 10
38.9253986664
 20
62.0424303967
 30
0.0
 10
38.5422615711
 20
61.8843416008
 30
0.0
 10
37.9178149338
 20
61.7594320299
 30
0.0
 10
37.2573614273
 20
61.7411403953
 30
0.0
 10
36.6147890914
 20
61.8314427122
 30
0.0
 10
36.0422040112
 20
62.0226975525
 30
0.0
 10
35.6439581714
 20
62.2650930488
 30
0.0
 10
35.4102639823
 20
62.4996545469
 30
0.0
 10
35.2860829845
 20
62.6822532768
 30
0.0
 10
35.209624214
 20
62.8748922259
 30
0.0
 10
35.1921703831
 20
63.008290446
 30
0.0
 10
35.1921792751
 20
63.0733690563
 30
0.0
  0
SPLINE
  5
24D
100
AcDbEntity
  8
0
100
AcDbSpline
 62
7
  6
BYLAYER
 70
0
 71
3
 72
22
 73
18
 74
0
 42
0.0000001
 43
0.0000001
 44
0.0000000001
 40
0.0
 40
0.0
 40
0.0
 40
0.0
 40
0.0661563294
 40
0.1354575595
 40
0.2070950533
 40
0.2802492396
 40
0.4272852721
 40
0.499429555
 40
0.5694367274
 40
0.6365213226
 40
0.7000310112
 40
0.7594929971
 40
0.8146721157
 40
0.8656432864
 40
0.9128617175
 40
0.9572139755
 40
1.0
 40
1.0
 40
1.0
 40
1.0
 10
52.910595674
 20
65.5699014983
 30
0.0
 10
52.8723527867
 20
65.8954456315
 30
0.0
 10
52.7582397759
 20
66.5581571603
 30
0.0
 10
52.4899996216
 20
67.549870399
 30
0.0
 10
52.1248947724
 20
68.5472681191
 30
0.0
 10
51.5176827321
 20
69.8607516735
 30
0.0
 10
50.7543282933
 20
71.1004617835
 30
0.0
 10
49.8598713815
 20
72.2214202971
 30
0.0
 10
49.1456269835
 20
72.9747655104
 30
0.0
 10
48.3975908509
 20
73.6314918605
 30
0.0
 10
47.6295459244
 20
74.1794123661
 30
0.0
 10
46.8555384444
 20
74.6082203432
 30
0.0
 10
46.0894017513
 20
74.9096149786
 30
0.0
 10
45.3446891305
 20
75.0773112343
 30
0.0
 10
44.6345124524
 20
75.1064978926
 30
0.0
 10
43.9730448572
 20
74.9942327724
 30
0.0
 10
43.5712857943
 20
74.8233262011
 30
0.0
 10
43.3876895348
 20
74.7173430864
 30
0.0
  0
SPLINE
  5
24E
100
AcDbEntity
  8
0
100
AcDbSpline
 62
7
  6
BYLAYER
 70
0
 71
3
 72
11
 73
7
 74
0
 42
0.0000001
 43
0.0000001
 44
0.0000000001
 40
0.0
 40
0.0
 40
0.0
 40
0.0
 40
0.2897031353
 40
0.5490914015
 40
0.7822201129
 40
1.0
 40
1.0
 40
1.0
 40
1.0
 10
39.0946215961
 20
63.1770887873
 30
0.0
 10
39.1949277507
 20
63.235000227
 30
0.0
 10
39.3769094417
 20
63.3603433418
 30
0.0
 10
39.5944070542
 20
63.5889160141
 30
0.0
 10
39.7319860574
 20
63.841779476
 30
0.0
 10
39.7641543804
 20
64.0232586945
 30
0.0
 10
39.7641609713
 20
64.1103271565
 30
0.0
  0
ENDSEC
  0
SECTION
  2
OBJECTS
  0
DICTIONARY
  5
C
100
AcDbDictionary
280
0
281
1
  3
ACAD_GROUP
350
D
  3
ACAD_MLINESTYLE
350
17
  3
ACAD_LAYOUT
350
1A
  3
ACAD_PLOTSETTINGS
350
19
  3
ACAD_PLOTSTYLENAME
350
E
  0
DICTIONARY
  5
D
102
{ACAD_REACTORS
330
C
102
}
100
AcDbDictionary
280
0
281
1
  0
ACDBDICTIONARYWDFLT
  5
E
102
{ACAD_REACTORS
330
C
102
}
100
AcDbDictionary
281
1
  3
Normal
350
F
100
AcDbDictionaryWithDefault
340
F
  0
DICTIONARY
  5
17
102
{ACAD_REACTORS
330
C
102
}
100
AcDbDictionary
280
0
281
1
  3
Standard
350
18
  0
DICTIONARY
  5
19
102
{ACAD_REACTORS
330
C
102
}
100
AcDbDictionary
281
1
  0
DICTIONARY
  5
1A
102
{ACAD_REACTORS
330
C
102
}
100
AcDbDictionary
281
1
  3
Model
350
24F
  3
Layout1
350
250
  0
ACDBPLACEHOLDER
  5
F
102
{ACAD_REACTORS
330
E
102
}
  0
MLINESTYLE
  5
18
102
{ACAD_REACTORS
330
17
102
}
100
AcDbMlineStyle
  2
STANDARD
 70
0
  3

 62
256
 51
90.0
 52
90.0
 71
2
 49
0.5
 62
256
  6
BYLAYER
 49
-0.5
 62
256
  6
BYLAYER
  0
LAYOUT
  5
24F
102
{ACAD_REACTORS
330
1A
102
}
100
AcDbPlotSettings
  1

  2
none_device
  4

  6

 40
0.0
 41
0.0
 42
0.0
 43
0.0
 44
210.0
 45
297.0
 46
0.0
 47
0.0
 48
0.0
 49
0.0
140
0.0
141
0.0
142
1.0
143
1.0
 70
1024
 72
1
 73
0
 74
0
  7

 75
0
147
1.0
148
0.0
149
0.0
100
AcDbLayout
  1
Model
 70
0
 71
0
 10
0.0
 20
0.0
 11
210.0
 21
297.0
 12
0.0
 22
0.0
 32
0.0
 14
0.0
 24
0.0
 34
0.0
 15
0.0
 25
0.0
 35
0.0
146
0.0
 13
0.0
 23
0.0
 33
0.0
 16
1.0
 26
0.0
 36
0.0
 17
0.0
 27
1.0
 37
0.0
 76
0
330
210
345
0
346
0
  0
LAYOUT
  5
250
102
{ACAD_REACTORS
330
1A
102
}
100
AcDbPlotSettings
  1

  2
none_device
  4

  6

 40
0.0
 41
0.0
 42
0.0
 43
0.0
 44
210.0
 45
297.0
 46
0.0
 47
0.0
 48
0.0
 49
0.0
140
0.0
141
0.0
142
1.0
143
1.0
 70
0
 72
1
 73
0
 74
0
  7

 75
0
147
1.0
148
0.0
149
0.0
100
AcDbLayout
  1
Layout1
 70
0
 71
1
 10
0.0
 20
0.0
 11
210.0
 21
297.0
 12
0.0
 22
0.0
 32
0.0
 14
0.0
 24
0.0
 34
0.0
 15
0.0
 25
0.0
 35
0.0
146
0.0
 13
0.0
 23
0.0
 33
0.0
 16
1.0
 26
0.0
 36
0.0
 17
0.0
 27
1.0
 37
0.0
 76
0
330
211
345
0
346
0
  0
ENDSEC
  0
EOF
