999
DXF file: C:\Users\sesa63760\Dev\_Creo\CAD\MCADID0002948_3D-CAD\drw0001_1.dxf
999
Pro/ENGINEER 2019471 by Parametric Technology Corporation
  0
SECTION
  2
HEADER
  9
$ACADVER
  1
AC1024
  9
$DWGCODEPAGE
  3
ANSI_1252
  9
$EXTMAX
 10
89.0265752152
 20
125.9090135186
 30
0.0
  9
$EXTMIN
 10
0.0
 20
0.0
 30
0.0
  9
$LIMMIN
 10
0.0
 20
0.0
  9
$LIMMAX
 10
89.0265752152
 20
125.9090135186
  9
$VIEWCTR
 10
44.5132876076
 20
62.9545067593
  9
$VIEWSIZE
 40
125.9090135186
  9
$CLAYER
  8
0
  9
$LTSCALE
 40
8.2074023627
  9
$CELTYPE
  6
BYLAYER
  9
$DIMSCALE
 40
1.0
  9
$DIMASZ
 40
1.0598401811
  9
$DIMEXO
 40
1.0
  9
$DIMDLI
 40
5.6705689051
  9
$DIMEXE
 40
1.0
  9
$DIMCEN
 40
1.3430294775
  9
$DIMLFAC
 40
1.0
  9
$DIMBLK
  1
_FILLED
  9
$DIMALT
 70
0
  9
$DIMALTF
 40
0.0393700787
  9
$DIMTXT
 40
1.4837762536
  9
$DIMTOL
 70
1
  9
$DIMLIM
 70
0
  9
$DIMTFAC
 40
1.0
  9
$DIMTP
 40
0.01
  9
$DIMTM
 40
0.01
  9
$DIMGAP
 40
0.625
  9
$DIMDSEP
 70
46
  9
$AUNITS
 70
0
  9
$PDMODE
 70
3
  9
$PDSIZE
 40
0.3125
  9
$HANDSEED
  5
252
  9
$TILEMODE
 70
1
  9
$MEASUREMENT
 70
1
  9
$INSUNITS
 70
4
  0
ENDSEC
  0
SECTION
  2
CLASSES
  0
CLASS
  1
ACDBDICTIONARYWDFLT
  2
AcDbDictionaryWithDefault
  3
AutoCAD 2000
 90
0
 91
1
280
0
281
0
  0
CLASS
  1
ACDBPLACEHOLDER
  2
AcDbPlaceHolder
  3
AutoCAD 2000
 90
0
 91
1
280
0
281
0
  0
CLASS
  1
LAYOUT
  2
AcDbLayout
  3
AutoCAD 2000
 90
0
 91
0
280
0
281
0
  0
ENDSEC
  0
SECTION
  2
TABLES
  0
TABLE
  2
VPORT
  5
8
100
AcDbSymbolTable
 70
2
  0
VPORT
  5
1F4
100
AcDbSymbolTableRecord
100
AcDbViewportTableRecord
  2
*ACTIVE
 70
0
 10
0.0
 20
0.0
 11
1.0
 21
1.0
 12
44.5132876076
 22
62.9545067593
 13
0.0
 23
0.0
 14
1.0
 24
1.0
 15
0.0
 25
0.0
 16
0.0
 26
0.0
 36
1.0
 17
0.0
 27
0.0
 37
0.0
 40
125.9090135186
 41
0.7070707071
 42
50.0
 43
0.0
 44
0.0
 50
0.0
 51
0.0
 71
0
 72
100
 73
1
 74
1
 75
0
 76
0
 77
0
 78
0
  0
ENDTAB
  0
TABLE
  2
LTYPE
  5
5
100
AcDbSymbolTable
 70
6
  0
LTYPE
  5
14
100
AcDbSymbolTableRecord
100
AcDbLinetypeTableRecord
  2
BYBLOCK
 70
0
  3

 72
65
 73
0
 40
0.0
  0
LTYPE
  5
15
100
AcDbSymbolTableRecord
100
AcDbLinetypeTableRecord
  2
BYLAYER
 70
0
  3

 72
65
 73
0
 40
0.0
  0
LTYPE
  5
16
100
AcDbSymbolTableRecord
100
AcDbLinetypeTableRecord
  2
CONTINUOUS
 70
64
  3
Solid line
 72
65
 73
0
 40
0.0
  0
LTYPE
  5
1F5
100
AcDbSymbolTableRecord
100
AcDbLinetypeTableRecord
  2
CENTER
 70
64
  3
____ _ ____ _ ____ _ ____ _ ____ _ ____ _ ____
 72
65
 73
4
 40
0.6
 49
0.375
 74
0
 49
-0.075
 74
0
 49
0.075
 74
0
 49
-0.075
 74
0
  0
LTYPE
  5
1F6
100
AcDbSymbolTableRecord
100
AcDbLinetypeTableRecord
  2
HIDDEN
 70
64
  3
- - - - - - - - - - - - - - - - - - - -
 72
65
 73
2
 40
0.2
 49
0.1
 74
0
 49
-0.1
 74
0
  0
LTYPE
  5
1F7
100
AcDbSymbolTableRecord
100
AcDbLinetypeTableRecord
  2
PHANTOM
 70
64
  3
_____ _ _ _____ _ _ _____ _ _ _____
 72
65
 73
6
 40
0.8
 49
0.45
 74
0
 49
-0.05
 74
0
 49
0.1
 74
0
 49
-0.05
 74
0
 49
0.1
 74
0
 49
-0.05
 74
0
  0
LTYPE
  5
1F8
100
AcDbSymbolTableRecord
100
AcDbLinetypeTableRecord
  2
DOT
 70
64
  3
. . . . . . . . . . . . . . . . . . . .
 72
65
 73
2
 40
0.2
 49
0.1
 74
0
 49
-0.1
 74
0
  0
LTYPE
  5
1F9
100
AcDbSymbolTableRecord
100
AcDbLinetypeTableRecord
  2
DASHED
 70
64
  3
- - - - - - - - - - - - - - - - - - - -
 72
65
 73
2
 40
0.2
 49
0.1
 74
0
 49
-0.1
 74
0
  0
ENDTAB
  0
TABLE
  2
LAYER
  5
2
100
AcDbSymbolTable
 70
36
  0
LAYER
  5
10
100
AcDbSymbolTableRecord
100
AcDbLayerTableRecord
  2
0
 70
0
 62
7
  6
CONTINUOUS
370
-3
390
F
  0
LAYER
  5
1FA
100
AcDbSymbolTableRecord
100
AcDbLayerTableRecord
  2
DEFAULT_1
 70
0
 62
7
  6
CENTER
370
-3
390
F
  0
LAYER
  5
1FB
100
AcDbSymbolTableRecord
100
AcDbLayerTableRecord
  2
DEFAULT_2
 70
0
 62
7
  6
HIDDEN
370
-3
390
F
  0
LAYER
  5
1FC
100
AcDbSymbolTableRecord
100
AcDbLayerTableRecord
  2
DEFAULT_3
 70
0
 62
7
  6
PHANTOM
370
-3
390
F
  0
LAYER
  5
1FD
100
AcDbSymbolTableRecord
100
AcDbLayerTableRecord
  2
00_COMPONENTS
 70
0
 62
7
  6
CONTINUOUS
370
-3
390
F
  0
LAYER
  5
1FE
100
AcDbSymbolTableRecord
100
AcDbLayerTableRecord
  2
01_1_DEFAULT_DATUMS
 70
0
 62
7
  6
CONTINUOUS
370
-3
390
F
  0
LAYER
  5
1FF
100
AcDbSymbolTableRecord
100
AcDbLayerTableRecord
  2
01_PLANES
 70
0
 62
7
  6
CONTINUOUS
370
-3
390
F
  0
LAYER
  5
200
100
AcDbSymbolTableRecord
100
AcDbLayerTableRecord
  2
02_COORD_SYS
 70
0
 62
7
  6
CONTINUOUS
370
-3
390
F
  0
LAYER
  5
201
100
AcDbSymbolTableRecord
100
AcDbLayerTableRecord
  2
03_AXES
 70
0
 62
7
  6
CONTINUOUS
370
-3
390
F
  0
LAYER
  5
202
100
AcDbSymbolTableRecord
100
AcDbLayerTableRecord
  2
04_POINTS
 70
0
 62
7
  6
CONTINUOUS
370
-3
390
F
  0
LAYER
  5
203
100
AcDbSymbolTableRecord
100
AcDbLayerTableRecord
  2
05_CURVES
 70
0
 62
7
  6
CONTINUOUS
370
-3
390
F
  0
LAYER
  5
204
100
AcDbSymbolTableRecord
100
AcDbLayerTableRecord
  2
06_SURFS
 70
0
 62
7
  6
CONTINUOUS
370
-3
390
F
  0
LAYER
  5
205
100
AcDbSymbolTableRecord
100
AcDbLayerTableRecord
  2
07_COSMETICS
 70
0
 62
7
  6
CONTINUOUS
370
-3
390
F
  0
LAYER
  5
206
100
AcDbSymbolTableRecord
100
AcDbLayerTableRecord
  2
10_NOTES
 70
0
 62
7
  6
CONTINUOUS
370
-3
390
F
  0
LAYER
  5
207
100
AcDbSymbolTableRecord
100
AcDbLayerTableRecord
  2
11_NOTES_PUB
 70
0
 62
7
  6
CONTINUOUS
370
-3
390
F
  0
LAYER
  5
208
100
AcDbSymbolTableRecord
100
AcDbLayerTableRecord
  2
13_REF_GTOL
 70
0
 62
7
  6
CONTINUOUS
370
-3
390
F
  0
LAYER
  5
209
100
AcDbSymbolTableRecord
100
AcDbLayerTableRecord
  2
16_MISC
 70
0
 62
7
  6
CONTINUOUS
370
-3
390
F
  0
LAYER
  5
20A
100
AcDbSymbolTableRecord
100
AcDbLayerTableRecord
  2
17_NO_PRINT
 70
0
 62
7
  6
CONTINUOUS
370
-3
390
F
  0
LAYER
  5
20B
100
AcDbSymbolTableRecord
100
AcDbLayerTableRecord
  2
18_DATUM_CAMS_JOINTS
 70
0
 62
7
  6
CONTINUOUS
370
-3
390
F
  0
LAYER
  5
20C
100
AcDbSymbolTableRecord
100
AcDbLayerTableRecord
  2
19_DATUM_FUNCTIONAL
 70
0
 62
7
  6
CONTINUOUS
370
-3
390
F
  0
LAYER
  5
20D
100
AcDbSymbolTableRecord
100
AcDbLayerTableRecord
  2
20_DATUM_KINEMATIC_SCHEME
 70
0
 62
7
  6
CONTINUOUS
370
-3
390
F
  0
ENDTAB
  0
TABLE
  2
STYLE
  5
3
100
AcDbSymbolTable
 70
1
  0
STYLE
  5
11
100
AcDbSymbolTableRecord
100
AcDbTextStyleTableRecord
  2
STANDARD
 70
0
 40
0.0
 41
1.0
 50
0.0
 71
0
 42
0.2
  3
ARIAL.TTF
  4

  0
STYLE
  5
20E
100
AcDbSymbolTableRecord
100
AcDbTextStyleTableRecord
  2
TEXTSTYLE_1
 70
0
 40
0.0
 41
0.8
 50
0.0
 71
0
 42
0.2
  3
gdt
  4

  0
ENDTAB
  0
TABLE
  2
VIEW
  5
6
100
AcDbSymbolTable
 70
0
  0
ENDTAB
  0
TABLE
  2
UCS
  5
7
100
AcDbSymbolTable
 70
0
  0
ENDTAB
  0
TABLE
  2
APPID
  5
9
100
AcDbSymbolTable
 70
1
  0
APPID
  5
20F
100
AcDbSymbolTableRecord
100
AcDbRegAppTableRecord
  2
ACAD
 70
0
  0
ENDTAB
  0
TABLE
  2
BLOCK_RECORD
  5
1
100
AcDbSymbolTable
 70
0
  0
BLOCK_RECORD
  5
210
100
AcDbSymbolTableRecord
100
AcDbBlockTableRecord
  2
*Model_Space
  0
BLOCK_RECORD
  5
211
100
AcDbSymbolTableRecord
100
AcDbBlockTableRecord
  2
*Paper_Space
  0
BLOCK_RECORD
  5
212
100
AcDbSymbolTableRecord
100
AcDbBlockTableRecord
  2
_FILLED
  0
ENDTAB
  0
TABLE
  2
DIMSTYLE
  5
A
100
AcDbSymbolTable
 70
1
100
AcDbDimStyleTable
 71
0
  0
DIMSTYLE
105
213
100
AcDbSymbolTableRecord
100
AcDbDimStyleTableRecord
  2
STANDARD
 70
0
  3

  4

 40
1.0
 41
1.0598401811
 42
1.0
 43
0.38
 44
1.0
 45
0.0
 46
0.0
 47
0.01
 48
0.01
140
1.4837762536
141
0.09
142
0.0
143
25.4
144
1.0
145
0.0
146
1.0
147
0.625
 71
1
 72
0
 73
0
 74
0
 75
0
 76
0
 77
1
 78
8
 79
2
170
0
171
1
172
0
173
0
174
0
175
0
176
0
177
0
178
0
270
2
179
2
271
2
272
2
273
2
274
2
275
0
280
0
281
0
282
0
283
1
284
8
285
0
286
0
287
3
288
0
340
11
278
46
341
212
342
212
343
212
344
212
  0
ENDTAB
  0
ENDSEC
  0
SECTION
  2
BLOCKS
  0
BLOCK
  5
20
100
AcDbEntity
  8
0
100
AcDbBlockBegin
  2
*Model_Space
 70
0
 10
0.0
 20
0.0
 30
0.0
  3
*Model_Space
  1

  0
ENDBLK
  5
21
100
AcDbEntity
  8
0
100
AcDbBlockEnd
  0
BLOCK
  5
1C
100
AcDbEntity
  8
0
100
AcDbBlockBegin
  2
*Paper_Space
 70
0
 10
0.0
 20
0.0
 30
0.0
  3
*Paper_Space
  1

  0
ENDBLK
  5
1D
100
AcDbEntity
  8
0
100
AcDbBlockEnd
  0
BLOCK
  5
214
100
AcDbEntity
  8
0
100
AcDbBlockBegin
  2
_FILLED
 70
64
 10
0.0
 20
0.0
  3
_FILLED
  1

  0
SOLID
  5
215
100
AcDbEntity
  8
0
  6
BYBLOCK
 62
0
100
AcDbTrace
 10
0.0
 20
0.0
 11
-1.0
 21
0.25
 12
-1.0
 22
-0.25
 13
-1.0
 23
-0.25
  0
ENDBLK
  5
216
100
AcDbEntity
  8
0
  6
BYBLOCK
 62
0
100
AcDbBlockEnd
  0
ENDSEC
  0
SECTION
  2
ENTITIES
  0
LINE
  5
217
100
AcDbEntity
  8
0
100
AcDbLine
 62
7
  6
BYLAYER
 10
10.3281050374
 20
47.4114709631
 11
10.3281050374
 21
60.373446835
  0
LINE
  5
218
100
AcDbEntity
  8
0
100
AcDbLine
 62
7
  6
BYLAYER
 10
13.5031050374
 20
43.3932584428
 11
13.5031050374
 21
43.8429801387
  0
LINE
  5
219
100
AcDbEntity
  8
0
100
AcDbLine
 62
7
  6
BYLAYER
 10
13.5031050374
 20
60.373446835
 11
13.5031050374
 21
62.3177432158
  0
LINE
  5
21A
100
AcDbEntity
  8
0
100
AcDbLine
 62
7
  6
BYLAYER
 10
21.4899746432
 20
41.8233585028
 11
21.4899746432
 21
43.2499475359
  0
LINE
  5
21B
100
AcDbEntity
  8
0
100
AcDbLine
 62
7
  6
BYLAYER
 10
23.0281050374
 20
60.373446835
 11
23.0281050374
 21
62.3177432158
  0
LINE
  5
21C
100
AcDbEntity
  8
0
100
AcDbLine
 62
7
  6
BYLAYER
 10
26.2031050374
 20
47.4114709631
 11
26.2031050374
 21
60.373446835
  0
LINE
  5
21D
100
AcDbEntity
  8
0
100
AcDbLine
 62
7
  6
BYLAYER
 10
61.9457734036
 20
80.1824607346
 11
58.1925694922
 21
77.8269632897
  0
LINE
  5
21E
100
AcDbEntity
  8
0
100
AcDbLine
 62
7
  6
BYLAYER
 10
56.8479265852
 20
75.362823193
 11
26.2031050374
 21
56.1289538426
  0
LINE
  5
21F
100
AcDbEntity
  8
0
100
AcDbLine
 62
7
  6
BYLAYER
 10
58.1925694922
 20
77.8269632897
 11
56.8479265852
 21
75.362823193
  0
LINE
  5
220
100
AcDbEntity
  8
0
100
AcDbLine
 62
7
  6
BYLAYER
 10
68.7020915795
 20
71.7594251496
 11
77.5208667761
 21
76.4432579162
  0
LINE
  5
221
100
AcDbEntity
  8
0
100
AcDbLine
 62
7
  6
BYLAYER
 10
26.2031050374
 20
47.5670928961
 11
67.2404161326
 21
69.3628522927
  0
LINE
  5
222
100
AcDbEntity
  8
0
100
AcDbLine
 62
7
  6
BYLAYER
 10
67.2404161326
 20
66.1223583247
 11
21.4899746432
 21
41.8233585028
  0
LINE
  5
223
100
AcDbEntity
  8
0
100
AcDbLine
 62
7
  6
BYLAYER
 10
77.5208667761
 20
69.9622699802
 11
68.7020915795
 21
65.2784372137
  0
LINE
  5
224
100
AcDbEntity
  8
0
100
AcDbLine
 62
7
  6
BYLAYER
 10
59.0500295266
 20
78.365102162
 11
59.0500093863
 21
81.1579807938
  0
LINE
  5
225
100
AcDbEntity
  8
0
100
AcDbLine
 62
7
  6
BYLAYER
 10
68.7020915795
 20
65.2784372137
 11
67.2404161326
 21
66.1223583247
  0
LINE
  5
226
100
AcDbEntity
  8
0
100
AcDbLine
 62
7
  6
BYLAYER
 10
67.2404161326
 20
69.3628522927
 11
68.7020915795
 21
71.7594251496
  0
LINE
  5
227
100
AcDbEntity
  8
0
100
AcDbLine
 62
7
  6
BYLAYER
 10
67.2404161326
 20
69.3628522927
 11
56.8479265852
 21
75.362823193
  0
LINE
  5
228
100
AcDbEntity
  8
0
100
AcDbLine
 62
7
  6
BYLAYER
 10
63.0187593862
 20
84.3985033817
 11
63.0187845019
 21
80.9156876734
  0
LINE
  5
229
100
AcDbEntity
  8
0
100
AcDbLine
 62
7
  6
BYLAYER
 10
66.590926865
 20
79.8158729792
 11
66.6270697677
 21
80.182471987
  0
LINE
  5
22A
100
AcDbEntity
  8
0
100
AcDbLine
 62
7
  6
BYLAYER
 10
66.6270697677
 20
80.182471987
 11
61.9457734036
 21
80.1824607346
  0
LINE
  5
22B
100
AcDbEntity
  8
0
100
AcDbLine
 62
7
  6
BYLAYER
 10
63.0187845019
 20
80.9156876734
 11
66.9274373961
 21
80.9156970687
  0
LINE
  5
22C
100
AcDbEntity
  8
0
100
AcDbLine
 62
7
  6
BYLAYER
 10
68.7020915795
 20
71.7594251496
 11
58.1925694922
 21
77.8269632897
  0
LINE
  5
22D
100
AcDbEntity
  8
0
100
AcDbLine
 62
7
  6
BYLAYER
 10
66.6270697677
 20
79.6767367795
 11
66.6270697677
 21
80.182471987
  0
LINE
  5
22E
100
AcDbEntity
  8
0
100
AcDbLine
 62
7
  6
BYLAYER
 10
66.9274373961
 20
80.9156970687
 11
66.9274373961
 21
78.7777571723
  0
LINE
  5
22F
100
AcDbEntity
  8
0
100
AcDbLine
 62
7
  6
BYLAYER
 10
72.1468843861
 20
84.398525323
 11
63.0187593862
 21
84.3985033817
  0
LINE
  5
230
100
AcDbEntity
  8
0
100
AcDbLine
 62
7
  6
BYLAYER
 10
77.5208667761
 20
76.4432579162
 11
77.5208667761
 21
69.9622699802
  0
LINE
  5
231
100
AcDbEntity
  8
0
100
AcDbLine
 62
7
  6
BYLAYER
 10
80.0844174331
 20
73.3348851393
 11
80.0844174331
 21
79.8158730753
  0
ARC
  5
232
100
AcDbEntity
  8
0
100
AcDbCircle
 62
7
  6
BYLAYER
 10
73.9772247941
 20
83.1211403412
 40
7.5598619153
100
AcDbArc
 50
297.95281545
 51
302.0468883622
  0
ARC
  5
233
100
AcDbEntity
  8
0
100
AcDbCircle
 62
7
  6
BYLAYER
 10
74.0551970259
 20
76.5050997321
 40
7.404018367
100
AcDbArc
 50
297.9097094586
 51
302.0899943537
  0
SPLINE
  5
234
100
AcDbEntity
  8
0
100
AcDbSpline
 62
7
  6
BYLAYER
 70
0
 71
3
 72
13
 73
9
 74
0
 42
0.0000001
 43
0.0000001
 44
0.0000000001
 40
0.0
 40
0.0
 40
0.0
 40
0.0
 40
0.2893762987
 40
0.548313423
 40
0.6677432565
 40
0.7817680366
 40
0.891906806
 40
1.0
 40
1.0
 40
1.0
 40
1.0
 10
14.8979949714
 20
64.2619898092
 30
0.0
 10
14.6889707053
 20
64.1413103133
 30
0.0
 10
14.309913294
 20
63.8804532157
 30
0.0
 10
13.9222590231
 20
63.4726464507
 30
0.0
 10
13.7040223339
 20
63.1232578383
 30
0.0
 10
13.5887127275
 20
62.8596622099
 30
0.0
 10
13.5187440576
 20
62.5902948677
 30
0.0
 10
13.5031373387
 20
62.4079004997
 30
0.0
 10
13.5031380757
 20
62.3177432157
 30
0.0
  0
SPLINE
  5
235
100
AcDbEntity
  8
0
100
AcDbSpline
 62
7
  6
BYLAYER
 70
0
 71
3
 72
14
 73
10
 74
0
 42
0.0000001
 43
0.0000001
 44
0.0000000001
 40
0.0
 40
0.0
 40
0.0
 40
0.0
 40
0.2892736437
 40
0.4225574321
 40
0.5485023407
 40
0.6678920766
 40
0.7818724577
 40
0.8919547525
 40
1.0
 40
1.0
 40
1.0
 40
1.0
 10
12.652921594
 20
63.613857824
 30
0.0
 10
12.3045135039
 20
63.4127055201
 30
0.0
 10
11.81655461
 20
63.0767515182
 30
0.0
 10
11.2645313842
 20
62.5483943893
 30
0.0
 10
10.9285145581
 20
62.1411545297
 30
0.0
 10
10.6630096492
 20
61.7159482562
 30
0.0
 10
10.4706522215
 20
61.2766801219
 30
0.0
 10
10.3542588423
 20
60.8276732161
 30
0.0
 10
10.3281099009
 20
60.5237104282
 30
0.0
 10
10.3281133573
 20
60.3734468405
 30
0.0
  0
SPLINE
  5
236
100
AcDbEntity
  8
0
100
AcDbSpline
 62
7
  6
BYLAYER
 70
0
 71
3
 72
23
 73
19
 74
0
 42
0.0000001
 43
0.0000001
 44
0.0000000001
 40
0.0
 40
0.0
 40
0.0
 40
0.0
 40
0.0623831647
 40
0.1287487283
 40
0.1983461439
 40
0.2703358348
 40
0.3437243072
 40
0.4174675961
 40
0.4905050202
 40
0.5618043007
 40
0.630412944
 40
0.695510621
 40
0.756467994
 40
0.812914647
 40
0.8648229086
 40
0.9126046422
 40
0.9571860828
 40
1.0
 40
1.0
 40
1.0
 40
1.0
 10
23.8782884807
 20
44.1710599741
 30
0.0
 10
23.5931556745
 20
44.0064394543
 30
0.0
 10
22.9819666953
 20
43.7051476854
 30
0.0
 10
21.9961485315
 20
43.3478626081
 30
0.0
 10
20.9307209465
 20
43.0774516374
 30
0.0
 10
19.8086848347
 20
42.8994894307
 30
0.0
 10
18.6536868505
 20
42.8178576591
 30
0.0
 10
17.4904203222
 20
42.8342430736
 30
0.0
 10
16.3436780622
 20
42.9482650863
 30
0.0
 10
15.2379022872
 20
43.1575318755
 30
0.0
 10
14.1966068672
 20
43.4576512881
 30
0.0
 10
13.2417956148
 20
43.8423250191
 30
0.0
 10
12.393512856
 20
44.303688655
 30
0.0
 10
11.6695213118
 20
44.8326897929
 30
0.0
 10
11.0852763
 20
45.419418747
 30
0.0
 10
10.6542207977
 20
46.0534689063
 30
0.0
 10
10.3885538429
 20
46.7222972901
 30
0.0
 10
10.3281163435
 20
47.1855099727
 30
0.0
 10
10.3281143747
 20
47.4114709639
 30
0.0
  0
SPLINE
  5
237
100
AcDbEntity
  8
0
100
AcDbSpline
 62
7
  6
BYLAYER
 70
0
 71
3
 72
11
 73
7
 74
0
 42
0.0000001
 43
0.0000001
 44
0.0000000001
 40
0.0
 40
0.0
 40
0.0
 40
0.0
 40
0.2435023186
 40
0.4898032869
 40
0.7413586172
 40
1.0
 40
1.0
 40
1.0
 40
1.0
 10
59.0500221837
 20
81.1579807941
 30
0.0
 10
59.0500230443
 20
81.3242818433
 30
0.0
 10
59.0818587645
 20
81.6596268416
 30
0.0
 10
59.2234901951
 20
82.1485984727
 30
0.0
 10
59.4551319659
 20
82.6133415892
 30
0.0
 10
59.6627922693
 20
82.8954869338
 30
0.0
 10
59.7784234155
 20
83.0290206342
 30
0.0
  0
SPLINE
  5
238
100
AcDbEntity
  8
0
100
AcDbSpline
 62
7
  6
BYLAYER
 70
0
 71
3
 72
11
 73
7
 74
0
 42
0.0000001
 43
0.0000001
 44
0.0000000001
 40
0.0
 40
0.0
 40
0.0
 40
0.0
 40
0.2361458429
 40
0.483342085
 40
0.7392669117
 40
1.0
 40
1.0
 40
1.0
 40
1.0
 10
59.7784234155
 20
83.0290206342
 30
0.0
 10
59.9648557645
 20
83.2443173105
 30
0.0
 10
60.4045316199
 20
83.6370531682
 30
0.0
 10
61.1919453056
 20
84.069179659
 30
0.0
 10
62.0794698366
 20
84.3379793087
 30
0.0
 10
62.7043089605
 20
84.3985026258
 30
0.0
 10
63.0187593862
 20
84.3985033817
 30
0.0
  0
SPLINE
  5
239
100
AcDbEntity
  8
0
100
AcDbSpline
 62
7
  6
BYLAYER
 70
0
 71
3
 72
14
 73
10
 74
0
 42
0.0000001
 43
0.0000001
 44
0.0000000001
 40
0.0
 40
0.0
 40
0.0
 40
0.0
 40
0.1080438484
 40
0.2181283996
 40
0.3321078204
 40
0.451490306
 40
0.5774361345
 40
0.7107374038
 40
1.0
 40
1.0
 40
1.0
 40
1.0
 10
77.703145346
 20
79.815873076
 30
0.0
 10
77.7031348682
 20
79.7106901335
 30
0.0
 10
77.6848862008
 20
79.49791086
 30
0.0
 10
77.6033483472
 20
79.1836197469
 30
0.0
 10
77.4687380343
 20
78.8761261323
 30
0.0
 10
77.2828876879
 20
78.5784861897
 30
0.0
 10
77.0476737068
 20
78.2934072586
 30
0.0
 10
76.6612364404
 20
77.9235699015
 30
0.0
 10
76.3196717143
 20
77.6883863422
 30
0.0
 10
76.0757958434
 20
77.547585383
 30
0.0
  0
SPLINE
  5
23A
100
AcDbEntity
  8
0
100
AcDbSpline
 62
7
  6
BYLAYER
 70
0
 71
3
 72
9
 73
5
 74
0
 42
0.0000001
 43
0.0000001
 44
0.0000000001
 40
0.0
 40
0.0
 40
0.0
 40
0.0
 40
0.4892231985
 40
1.0
 40
1.0
 40
1.0
 40
1.0
 10
59.994800099
 20
79.0405536218
 30
0.0
 10
60.2043594167
 20
79.2418629907
 30
0.0
 10
60.684900168
 20
79.6012496141
 30
0.0
 10
61.231347703
 20
79.846229298
 30
0.0
 10
61.5191713657
 20
79.9421582749
 30
0.0
  0
SPLINE
  5
23B
100
AcDbEntity
  8
0
100
AcDbSpline
 62
7
  6
BYLAYER
 70
0
 71
3
 72
18
 73
14
 74
0
 42
0.0000001
 43
0.0000001
 44
0.0000000001
 40
0.0
 40
0.0
 40
0.0
 40
0.0
 40
0.0450701401
 40
0.0909900934
 40
0.1385332537
 40
0.1883372849
 40
0.2408806637
 40
0.2964699737
 40
0.4171363959
 40
0.5502080184
 40
0.6937926453
 40
0.8449278218
 40
1.0
 40
1.0
 40
1.0
 40
1.0
 10
80.0844010702
 20
79.8158730959
 30
0.0
 10
80.0844126535
 20
79.9661392688
 30
0.0
 10
80.0582573185
 20
80.2701093171
 30
0.0
 10
79.9418445355
 20
80.7191072995
 30
0.0
 10
79.7495302393
 20
81.1583983012
 30
0.0
 10
79.4839651356
 20
81.5836103304
 30
0.0
 10
79.1479467283
 20
81.9908176966
 30
0.0
 10
78.5958070655
 20
82.5192861862
 30
0.0
 10
77.7407104727
 20
83.1081038581
 30
0.0
 10
76.535487672
 20
83.6691823645
 30
0.0
 10
75.1668221993
 20
84.0852751445
 30
0.0
 10
73.6858030164
 20
84.3411839635
 30
0.0
 10
72.6639030319
 20
84.3985265658
 30
0.0
 10
72.1468843861
 20
84.398525323
 30
0.0
  0
SPLINE
  5
23C
100
AcDbEntity
  8
0
100
AcDbSpline
 62
7
  6
BYLAYER
 70
0
 71
3
 72
14
 73
10
 74
0
 42
0.0000001
 43
0.0000001
 44
0.0000000001
 40
0.0
 40
0.0
 40
0.0
 40
0.0
 40
0.109278773
 40
0.2204101148
 40
0.3350985734
 40
0.4547578243
 40
0.5805025302
 40
0.7131335153
 40
1.0
 40
1.0
 40
1.0
 40
1.0
 10
80.0844010604
 20
73.33488516
 30
0.0
 10
80.084390091
 20
73.1926234584
 30
0.0
 10
80.061032543
 20
72.9051732195
 30
0.0
 10
79.9567752103
 20
72.4798421813
 30
0.0
 10
79.784332946
 20
72.0627043463
 30
0.0
 10
79.5459203867
 20
71.6574824469
 30
0.0
 10
79.2436503138
 20
71.2675372844
 30
0.0
 10
78.7466514613
 20
70.7591447737
 30
0.0
 10
78.3049014594
 20
70.4308246218
 30
0.0
 10
77.9885865017
 20
70.2323064778
 30
0.0
  0
SPLINE
  5
23D
100
AcDbEntity
  8
0
100
AcDbSpline
 62
7
  6
BYLAYER
 70
0
 71
3
 72
10
 73
6
 74
0
 42
0.0000001
 43
0.0000001
 44
0.0000000001
 40
0.0
 40
0.0
 40
0.0
 40
0.0
 40
0.4651901678
 40
0.7240713431
 40
1.0
 40
1.0
 40
1.0
 40
1.0
 10
22.7547970942
 20
42.4752414431
 30
0.0
 10
22.6173177368
 20
42.2510576883
 30
0.0
 10
22.3383863054
 20
41.9404561366
 30
0.0
 10
21.8881831011
 20
41.5980904438
 30
0.0
 10
21.6277372389
 20
41.4428578935
 30
0.0
 10
21.4899746432
 20
41.3696893473
 30
0.0
  0
SPLINE
  5
23E
100
AcDbEntity
  8
0
100
AcDbSpline
 62
7
  6
BYLAYER
 70
0
 71
3
 72
16
 73
12
 74
0
 42
0.0000001
 43
0.0000001
 44
0.0000000001
 40
0.0
 40
0.0
 40
0.0
 40
0.0
 40
0.0476649572
 40
0.0959236439
 40
0.1961937708
 40
0.3046098116
 40
0.4233059065
 40
0.5530154619
 40
0.6933274336
 40
0.8429603357
 40
1.0
 40
1.0
 40
1.0
 40
1.0
 10
26.2030967175
 20
60.3734468295
 30
0.0
 10
26.2030939215
 20
60.4950009239
 30
0.0
 10
26.1860543282
 20
60.7399632223
 30
0.0
 10
26.083713028
 20
61.231033518
 30
0.0
 10
25.8216720656
 20
61.8398573354
 30
0.0
 10
25.3207075882
 20
62.5151724581
 30
0.0
 10
24.6454452332
 20
63.1320995338
 30
0.0
 10
23.8135074972
 20
63.677552074
 30
0.0
 10
22.8451882584
 20
64.1398246215
 30
0.0
 10
21.7641313101
 20
64.5082220054
 30
0.0
 10
21.0000646167
 20
64.6821448702
 30
0.0
 10
20.6057921524
 20
64.7523776926
 30
0.0
  0
SPLINE
  5
23F
100
AcDbEntity
  8
0
100
AcDbSpline
 62
7
  6
BYLAYER
 70
0
 71
3
 72
9
 73
5
 74
0
 42
0.0000001
 43
0.0000001
 44
0.0000000001
 40
0.0
 40
0.0
 40
0.0
 40
0.0
 40
0.2539734206
 40
1.0
 40
1.0
 40
1.0
 40
1.0
 10
16.1122810414
 20
64.7842164251
 30
0.0
 10
15.9990513377
 20
64.7657881262
 30
0.0
 10
15.5542251857
 20
64.6872290743
 30
0.0
 10
15.1136016437
 20
64.5844436048
 30
0.0
 10
14.7892104617
 20
64.4931995622
 30
0.0
  0
SPLINE
  5
240
100
AcDbEntity
  8
0
100
AcDbSpline
 62
7
  6
BYLAYER
 70
0
 71
3
 72
9
 73
5
 74
0
 42
0.0000001
 43
0.0000001
 44
0.0000000001
 40
0.0
 40
0.0
 40
0.0
 40
0.0
 40
0.5169025042
 40
1.0
 40
1.0
 40
1.0
 40
1.0
 10
14.7892104617
 20
64.4931995622
 30
0.0
 10
14.4052972481
 20
64.3852132926
 30
0.0
 10
13.6729695958
 20
64.136652469
 30
0.0
 10
12.9757151076
 20
63.8002216335
 30
0.0
 10
12.652921594
 20
63.613857824
 30
0.0
  0
SPLINE
  5
241
100
AcDbEntity
  8
0
100
AcDbSpline
 62
7
  6
BYLAYER
 70
0
 71
3
 72
14
 73
10
 74
0
 42
0.0000001
 43
0.0000001
 44
0.0000000001
 40
0.0
 40
0.0
 40
0.0
 40
0.0
 40
0.108043954
 40
0.2181255066
 40
0.3321055412
 40
0.4514947118
 40
0.5774398712
 40
0.7107252824
 40
1.0
 40
1.0
 40
1.0
 40
1.0
 10
26.2030957001
 20
47.4114709623
 30
0.0
 10
26.2030970094
 20
47.2612092075
 30
0.0
 10
26.1769517354
 20
46.9572493285
 30
0.0
 10
26.0605584214
 20
46.5082456047
 30
0.0
 10
25.8682034125
 20
46.0689793377
 30
0.0
 10
25.6027022143
 20
45.6437718924
 30
0.0
 10
25.2666846878
 20
45.2365302609
 30
0.0
 10
24.7146589789
 20
44.7081701074
 30
0.0
 10
24.2266977855
 20
44.3722129793
 30
0.0
 10
23.8782884807
 20
44.1710599741
 30
0.0
  0
SPLINE
  5
242
100
AcDbEntity
  8
0
100
AcDbSpline
 62
7
  6
BYLAYER
 70
0
 71
3
 72
22
 73
18
 74
0
 42
0.0000001
 43
0.0000001
 44
0.0000000001
 40
0.0
 40
0.0
 40
0.0
 40
0.0
 40
0.0623871269
 40
0.1287648445
 40
0.1983684117
 40
0.2703655538
 40
0.4173807268
 40
0.4904254811
 40
0.561731537
 40
0.6303474011
 40
0.6954539807
 40
0.7564196071
 40
0.8128726382
 40
0.864789358
 40
0.9125784759
 40
0.9571619824
 40
1.0
 40
1.0
 40
1.0
 40
1.0
 10
76.0757958434
 20
77.547585383
 30
0.0
 10
75.8762169142
 20
77.4323591223
 30
0.0
 10
75.4483793994
 20
77.2214680845
 30
0.0
 10
74.7583447732
 20
76.9713597829
 30
0.0
 10
74.0124948254
 20
76.7820424762
 30
0.0
 10
72.9584677525
 20
76.6149646354
 30
0.0
 10
71.8737297185
 20
76.5851002185
 30
0.0
 10
70.8017474767
 20
76.6915827469
 30
0.0
 10
70.0276650074
 20
76.8381023398
 30
0.0
 10
69.2987878843
 20
77.0481566194
 30
0.0
 10
68.6304040002
 20
77.3173841022
 30
0.0
 10
68.0366005698
 20
77.6403227037
 30
0.0
 10
67.5298067939
 20
78.0106259198
 30
0.0
 10
67.1208107936
 20
78.421315622
 30
0.0
 10
66.8190142067
 20
78.8650993708
 30
0.0
 10
66.6329518229
 20
79.3333154073
 30
0.0
 10
66.5907235618
 20
79.6576324297
 30
0.0
 10
66.5907277847
 20
79.815872981
 30
0.0
  0
SPLINE
  5
243
100
AcDbEntity
  8
0
100
AcDbSpline
 62
7
  6
BYLAYER
 70
0
 71
3
 72
22
 73
18
 74
0
 42
0.0000001
 43
0.0000001
 44
0.0000000001
 40
0.0
 40
0.0
 40
0.0
 40
0.0
 40
0.0428176916
 40
0.087405277
 40
0.135194775
 40
0.187109476
 40
0.2435639548
 40
0.3045294925
 40
0.3696345656
 40
0.438252191
 40
0.509559456
 40
0.5826042647
 40
0.7296232071
 40
0.8016213069
 40
0.8712287102
 40
0.9376187991
 40
1.0
 40
1.0
 40
1.0
 40
1.0
 10
23.028071999
 20
62.3177432159
 30
0.0
 10
23.0280708908
 20
62.4533133726
 30
0.0
 10
22.9918434169
 20
62.731237442
 30
0.0
 10
22.8324481652
 20
63.1325411123
 30
0.0
 10
22.5737790069
 20
63.5129477552
 30
0.0
 10
22.223254562
 20
63.8650077746
 30
0.0
 10
21.7888576158
 20
64.1824080621
 30
0.0
 10
21.2798871626
 20
64.4592103399
 30
0.0
 10
20.7070133761
 20
64.6900415802
 30
0.0
 10
20.0822530587
 20
64.870082087
 30
0.0
 10
19.4187444358
 20
64.9956511232
 30
0.0
 10
18.4998958048
 20
65.0870149125
 30
0.0
 10
17.5701080684
 20
65.0613384193
 30
0.0
 10
16.6666210735
 20
64.9182046668
 30
0.0
 10
16.0272668448
 20
64.7559170309
 30
0.0
 10
15.4357937369
 20
64.5414922023
 30
0.0
 10
15.0690460664
 20
64.3607456155
 30
0.0
 10
14.8979949714
 20
64.2619898092
 30
0.0
  0
SPLINE
  5
244
100
AcDbEntity
  8
0
100
AcDbSpline
 62
7
  6
BYLAYER
 70
0
 71
3
 72
20
 73
16
 74
0
 42
0.0000001
 43
0.0000001
 44
0.0000000001
 40
0.0
 40
0.0
 40
0.0
 40
0.0
 40
0.0635096332
 40
0.1307965496
 40
0.2732810424
 40
0.4203825655
 40
0.5640031747
 40
0.6321869254
 40
0.6968325381
 40
0.7573604168
 40
0.8134379687
 40
0.8650706879
 40
0.9126864156
 40
0.9571975749
 40
1.0
 40
1.0
 40
1.0
 40
1.0
 10
21.4899746432
 20
41.3696893473
 30
0.0
 10
21.3154861324
 20
41.2770149128
 30
0.0
 10
20.9440697778
 20
41.108286983
 30
0.0
 10
20.136368584
 20
40.8393280642
 30
0.0
 10
19.0370712467
 20
40.6423654545
 30
0.0
 10
17.684080439
 20
40.6267632704
 30
0.0
 10
16.5743412896
 20
40.7981489318
 30
0.0
 10
15.7499829073
 20
41.0473441041
 30
0.0
 10
15.1938418144
 20
41.2796456031
 30
0.0
 10
14.700593351
 20
41.555734114
 30
0.0
 10
14.2802413557
 20
41.8705375045
 30
0.0
 10
13.9414485226
 20
42.2182662769
 30
0.0
 10
13.6917112726
 20
42.5929198693
 30
0.0
 10
13.5380765745
 20
42.9873649742
 30
0.0
 10
13.5031220133
 20
43.2601042918
 30
0.0
 10
13.5031353361
 20
43.3932584395
 30
0.0
  0
SPLINE
  5
245
100
AcDbEntity
  8
0
100
AcDbSpline
 62
7
  6
BYLAYER
 70
0
 71
3
 72
19
 73
15
 74
0
 42
0.0000001
 43
0.0000001
 44
0.0000000001
 40
0.0
 40
0.0
 40
0.0
 40
0.0
 40
0.0552164343
 40
0.1112956131
 40
0.1687399738
 40
0.227940345
 40
0.351685341
 40
0.4820713301
 40
0.6159847064
 40
0.749247702
 40
0.8144974202
 40
0.8781839036
 40
0.940050763
 40
1.0
 40
1.0
 40
1.0
 40
1.0
 10
59.8487995581
 20
83.1368276208
 30
0.0
 10
59.8581619227
 20
83.2719734981
 30
0.0
 10
59.9032623624
 20
83.5432501873
 30
0.0
 10
60.047181113
 20
83.9338016854
 30
0.0
 10
60.263713606
 20
84.3006776129
 30
0.0
 10
60.6465425833
 20
84.7524748637
 30
0.0
 10
61.2799837466
 20
85.2102787044
 30
0.0
 10
62.1863605377
 20
85.5357426926
 30
0.0
 10
63.1681807133
 20
85.6222824958
 30
0.0
 10
63.9825774439
 20
85.4872790099
 30
0.0
 10
64.585387497
 20
85.2579361328
 30
0.0
 10
64.9972553294
 20
85.0319934172
 30
0.0
 10
65.3614898162
 20
84.7564243623
 30
0.0
 10
65.5700009414
 20
84.5401712399
 30
0.0
 10
65.6628656332
 20
84.4261138621
 30
0.0
  0
SPLINE
  5
246
100
AcDbEntity
  8
0
100
AcDbSpline
 62
7
  6
BYLAYER
 70
0
 71
3
 72
22
 73
18
 74
0
 42
0.0000001
 43
0.0000001
 44
0.0000000001
 40
0.0
 40
0.0
 40
0.0
 40
0.0
 40
0.0623871651
 40
0.1287679906
 40
0.1983734549
 40
0.2703725324
 40
0.4173892747
 40
0.4904364401
 40
0.5617446889
 40
0.630362581
 40
0.6954704738
 40
0.7564356301
 40
0.8128887377
 40
0.8648050838
 40
0.9125941108
 40
0.9571810614
 40
1.0
 40
1.0
 40
1.0
 40
1.0
 10
68.2180390227
 20
82.0841607676
 30
0.0
 10
68.4176179201
 20
82.1993870099
 30
0.0
 10
68.8454677439
 20
82.4102784582
 30
0.0
 10
69.5355174748
 20
82.6603973722
 30
0.0
 10
70.2813926503
 20
82.8497196207
 30
0.0
 10
71.335441622
 20
83.0167799886
 30
0.0
 10
72.4202002359
 20
83.0466509764
 30
0.0
 10
73.4922032401
 20
82.9401474157
 30
0.0
 10
74.2663056324
 20
82.7936056238
 30
0.0
 10
74.99519974
 20
82.5835395602
 30
0.0
 10
75.6635895089
 20
82.3142972333
 30
0.0
 10
76.2573764298
 20
81.9913205485
 30
0.0
 10
76.7641482826
 20
81.6209957052
 30
0.0
 10
77.1731484042
 20
81.2103147518
 30
0.0
 10
77.4749122575
 20
80.7664806256
 30
0.0
 10
77.6608172278
 20
80.2982830592
 30
0.0
 10
77.7031611022
 20
79.9740430281
 30
0.0
 10
77.703145346
 20
79.815873076
 30
0.0
  0
SPLINE
  5
247
100
AcDbEntity
  8
0
100
AcDbSpline
 62
7
  6
BYLAYER
 70
0
 71
3
 72
10
 73
6
 74
0
 42
0.0000001
 43
0.0000001
 44
0.0000000001
 40
0.0
 40
0.0
 40
0.0
 40
0.0
 40
0.2274774992
 40
0.5960404846
 40
1.0
 40
1.0
 40
1.0
 40
1.0
 10
66.9274373961
 20
80.9156970687
 30
0.0
 10
66.9985768426
 20
81.0282303184
 30
0.0
 10
67.2083760043
 20
81.3086642392
 30
0.0
 10
67.6360879759
 20
81.7131206597
 30
0.0
 10
68.0132916562
 20
81.965950526
 30
0.0
 10
68.2180390227
 20
82.0841607676
 30
0.0
  0
SPLINE
  5
248
100
AcDbEntity
  8
0
100
AcDbSpline
 62
7
  6
BYLAYER
 70
0
 71
3
 72
14
 73
10
 74
0
 42
0.0000001
 43
0.0000001
 44
0.0000000001
 40
0.0
 40
0.0
 40
0.0
 40
0.0
 40
0.2868664832
 40
0.4194974618
 40
0.5452421676
 40
0.6649014213
 40
0.7795898817
 40
0.8907212247
 40
1.0
 40
1.0
 40
1.0
 40
1.0
 10
77.9885865017
 20
76.7132944138
 30
0.0
 10
78.304901458
 20
76.9118125569
 30
0.0
 10
78.746651458
 20
77.2401326962
 30
0.0
 10
79.2436502984
 20
77.7485252048
 30
0.0
 10
79.5459203746
 20
78.1384703594
 30
0.0
 10
79.7843329382
 20
78.5436922626
 30
0.0
 10
79.9567752233
 20
78.9608300991
 30
0.0
 10
80.0610325355
 20
79.3861611491
 30
0.0
 10
80.0843901039
 20
79.6736113911
 30
0.0
 10
80.0844010702
 20
79.8158730959
 30
0.0
  0
SPLINE
  5
249
100
AcDbEntity
  8
0
100
AcDbSpline
 62
7
  6
BYLAYER
 70
0
 71
3
 72
23
 73
19
 74
0
 42
0.0000001
 43
0.0000001
 44
0.0000000001
 40
0.0
 40
0.0
 40
0.0
 40
0.0
 40
0.0428141584
 40
0.0873961188
 40
0.1351784724
 40
0.1870872652
 40
0.2435341831
 40
0.304491425
 40
0.3695885014
 40
0.4381960613
 40
0.5094939994
 40
0.5825302533
 40
0.6562727884
 40
0.7296612196
 40
0.8016513302
 40
0.8712493778
 40
0.937616302
 40
1.0
 40
1.0
 40
1.0
 40
1.0
 10
10.3281133573
 20
60.3734468405
 30
0.0
 10
10.3281185548
 20
60.147484577
 30
0.0
 10
10.388550503
 20
59.6842674866
 30
0.0
 10
10.6542273705
 20
59.0154340105
 30
0.0
 10
11.0852896091
 20
58.381378372
 30
0.0
 10
11.6695429464
 20
57.7946467416
 30
0.0
 10
12.3935401967
 20
57.2656475895
 30
0.0
 10
13.2418225238
 20
56.8042884415
 30
0.0
 10
14.1966259425
 20
56.4196210168
 30
0.0
 10
15.2379064176
 20
56.1195078605
 30
0.0
 10
16.3436631525
 20
55.9102429892
 30
0.0
 10
17.4903881329
 20
55.7962214299
 30
0.0
 10
18.6536441871
 20
55.7798341355
 30
0.0
 10
19.8086404487
 20
55.861461342
 30
0.0
 10
20.930682664
 20
56.0394191817
 30
0.0
 10
21.9961235224
 20
56.3098302374
 30
0.0
 10
22.9819541258
 20
56.6671200201
 30
0.0
 10
23.5931532374
 20
56.9684139192
 30
0.0
 10
23.8782884807
 20
57.133035846
 30
0.0
  0
SPLINE
  5
24A
100
AcDbEntity
  8
0
100
AcDbSpline
 62
7
  6
BYLAYER
 70
0
 71
3
 72
13
 73
9
 74
0
 42
0.0000001
 43
0.0000001
 44
0.0000000001
 40
0.0
 40
0.0
 40
0.0
 40
0.0
 40
0.2893762987
 40
0.548313423
 40
0.6677432565
 40
0.7817680366
 40
0.891906806
 40
1.0
 40
1.0
 40
1.0
 40
1.0
 10
21.6332151034
 20
60.3734966224
 30
0.0
 10
21.8422393694
 20
60.4941761183
 30
0.0
 10
22.2212967808
 20
60.7550332159
 30
0.0
 10
22.6089510517
 20
61.1628399809
 30
0.0
 10
22.8271877409
 20
61.5122285933
 30
0.0
 10
22.9424973472
 20
61.7758242217
 30
0.0
 10
23.0124660171
 20
62.0451915639
 30
0.0
 10
23.028072736
 20
62.227585932
 30
0.0
 10
23.028071999
 20
62.3177432159
 30
0.0
  0
SPLINE
  5
24B
100
AcDbEntity
  8
0
100
AcDbSpline
 62
7
  6
BYLAYER
 70
0
 71
3
 72
13
 73
9
 74
0
 42
0.0000001
 43
0.0000001
 44
0.0000000001
 40
0.0
 40
0.0
 40
0.0
 40
0.0
 40
0.1080926814
 40
0.2182317973
 40
0.3322562457
 40
0.4516863925
 40
0.7106264382
 40
1.0
 40
1.0
 40
1.0
 40
1.0
 10
23.0280698712
 20
60.3734468302
 30
0.0
 10
23.0280719317
 20
60.2832900228
 30
0.0
 10
23.0124657034
 20
60.1008954432
 30
0.0
 10
22.9424924103
 20
59.8315302694
 30
0.0
 10
22.8271896843
 20
59.5679315974
 30
0.0
 10
22.6089473812
 20
59.2185433575
 30
0.0
 10
22.2212946025
 20
58.8107360723
 30
0.0
 10
21.8422372789
 20
58.5498785306
 30
0.0
 10
21.6332151034
 20
58.4292002416
 30
0.0
  0
SPLINE
  5
24C
100
AcDbEntity
  8
0
100
AcDbSpline
 62
7
  6
BYLAYER
 70
0
 71
3
 72
22
 73
18
 74
0
 42
0.0000001
 43
0.0000001
 44
0.0000000001
 40
0.0
 40
0.0
 40
0.0
 40
0.0
 40
0.0428176916
 40
0.087405277
 40
0.135194775
 40
0.187109476
 40
0.2435639548
 40
0.3045294925
 40
0.3696345656
 40
0.438252191
 40
0.509559456
 40
0.5826042647
 40
0.7296232071
 40
0.8016213069
 40
0.8712287102
 40
0.9376187991
 40
1.0
 40
1.0
 40
1.0
 40
1.0
 10
13.5031380757
 20
62.3177432157
 30
0.0
 10
13.503139184
 20
62.182173059
 30
0.0
 10
13.5393666579
 20
61.9042489896
 30
0.0
 10
13.6987619095
 20
61.5029453193
 30
0.0
 10
13.9574310679
 20
61.1225386764
 30
0.0
 10
14.3079555128
 20
60.770478657
 30
0.0
 10
14.742352459
 20
60.4530783696
 30
0.0
 10
15.2513229121
 20
60.1762760917
 30
0.0
 10
15.8241966987
 20
59.9454448514
 30
0.0
 10
16.448957016
 20
59.7654043446
 30
0.0
 10
17.112465639
 20
59.6398353084
 30
0.0
 10
18.03131427
 20
59.5484715191
 30
0.0
 10
18.9611020064
 20
59.5741480123
 30
0.0
 10
19.8645890013
 20
59.7172817648
 30
0.0
 10
20.5039432299
 20
59.8795694007
 30
0.0
 10
21.0954163379
 20
60.0939942293
 30
0.0
 10
21.4621640083
 20
60.2747408161
 30
0.0
 10
21.6332151034
 20
60.3734966224
 30
0.0
  0
SPLINE
  5
24D
100
AcDbEntity
  8
0
100
AcDbSpline
 62
7
  6
BYLAYER
 70
0
 71
3
 72
14
 73
10
 74
0
 42
0.0000001
 43
0.0000001
 44
0.0000000001
 40
0.0
 40
0.0
 40
0.0
 40
0.0
 40
0.2892736437
 40
0.4225574321
 40
0.5485023407
 40
0.6678920766
 40
0.7818724577
 40
0.8919547525
 40
1.0
 40
1.0
 40
1.0
 40
1.0
 10
23.8782884807
 20
57.133035846
 30
0.0
 10
24.2266965709
 20
57.3341881499
 30
0.0
 10
24.7146554647
 20
57.6701421518
 30
0.0
 10
25.2666786905
 20
58.1984992807
 30
0.0
 10
25.6026955166
 20
58.6057391404
 30
0.0
 10
25.8682004255
 20
59.0309454138
 30
0.0
 10
26.0605578533
 20
59.4702135481
 30
0.0
 10
26.1769512324
 20
59.9192204539
 30
0.0
 10
26.2031001738
 20
60.2231832418
 30
0.0
 10
26.2030967175
 20
60.3734468295
 30
0.0
  0
SPLINE
  5
24E
100
AcDbEntity
  8
0
100
AcDbSpline
 62
7
  6
BYLAYER
 70
0
 71
3
 72
22
 73
18
 74
0
 42
0.0000001
 43
0.0000001
 44
0.0000000001
 40
0.0
 40
0.0
 40
0.0
 40
0.0
 40
0.0623810246
 40
0.1287694912
 40
0.198375209
 40
0.270372067
 40
0.4173894672
 40
0.4904351155
 40
0.5617436628
 40
0.6303628718
 40
0.6954690744
 40
0.7564351283
 40
0.8128899069
 40
0.8648045004
 40
0.9125937652
 40
0.957181624
 40
1.0
 40
1.0
 40
1.0
 40
1.0
 10
21.6332151034
 20
58.4292002416
 30
0.0
 10
21.4621644922
 20
58.3304447147
 30
0.0
 10
21.0954226727
 20
58.1496991675
 30
0.0
 10
20.5039597477
 20
57.935278519
 30
0.0
 10
19.8646202146
 20
57.7729923865
 30
0.0
 10
18.9611484772
 20
57.6298524993
 30
0.0
 10
18.0313670637
 20
57.6041730703
 30
0.0
 10
17.1125157419
 20
57.6955292463
 30
0.0
 10
16.4489956097
 20
57.8211004282
 30
0.0
 10
15.8242212501
 20
58.0011376828
 30
0.0
 10
15.2513372754
 20
58.2319717839
 30
0.0
 10
14.7423622389
 20
58.5087782836
 30
0.0
 10
14.307960994
 20
58.826176044
 30
0.0
 10
13.9574351205
 20
59.1782355858
 30
0.0
 10
13.6987712406
 20
59.5586442663
 30
0.0
 10
13.5393636159
 20
59.9599462731
 30
0.0
 10
13.503143302
 20
60.2378745164
 30
0.0
 10
13.5031402035
 20
60.3734468398
 30
0.0
  0
SPLINE
  5
24F
100
AcDbEntity
  8
0
100
AcDbSpline
 62
7
  6
BYLAYER
 70
0
 71
3
 72
13
 73
9
 74
0
 42
0.0000001
 43
0.0000001
 44
0.0000000001
 40
0.0
 40
0.0
 40
0.0
 40
0.0
 40
0.2679206764
 40
0.5265640761
 40
0.6507345198
 40
0.7708021297
 40
0.8869948745
 40
1.0
 40
1.0
 40
1.0
 40
1.0
 10
63.0187845019
 20
80.9156876734
 30
0.0
 10
62.5826968084
 20
80.9156866252
 30
0.0
 10
61.7212586165
 20
80.8003763778
 30
0.0
 10
60.7357479086
 20
80.3698066853
 30
0.0
 10
60.0797311984
 20
79.8749838078
 30
0.0
 10
59.6740396753
 20
79.4470837987
 30
0.0
 10
59.360219165
 20
78.9694485336
 30
0.0
 10
59.2167666274
 20
78.6220480361
 30
0.0
 10
59.1639228212
 20
78.4458667969
 30
0.0
  0
ENDSEC
  0
SECTION
  2
OBJECTS
  0
DICTIONARY
  5
C
100
AcDbDictionary
280
0
281
1
  3
ACAD_GROUP
350
D
  3
ACAD_MLINESTYLE
350
17
  3
ACAD_LAYOUT
350
1A
  3
ACAD_PLOTSETTINGS
350
19
  3
ACAD_PLOTSTYLENAME
350
E
  0
DICTIONARY
  5
D
102
{ACAD_REACTORS
330
C
102
}
100
AcDbDictionary
280
0
281
1
  0
ACDBDICTIONARYWDFLT
  5
E
102
{ACAD_REACTORS
330
C
102
}
100
AcDbDictionary
281
1
  3
Normal
350
F
100
AcDbDictionaryWithDefault
340
F
  0
DICTIONARY
  5
17
102
{ACAD_REACTORS
330
C
102
}
100
AcDbDictionary
280
0
281
1
  3
Standard
350
18
  0
DICTIONARY
  5
19
102
{ACAD_REACTORS
330
C
102
}
100
AcDbDictionary
281
1
  0
DICTIONARY
  5
1A
102
{ACAD_REACTORS
330
C
102
}
100
AcDbDictionary
281
1
  3
Model
350
250
  3
Layout1
350
251
  0
ACDBPLACEHOLDER
  5
F
102
{ACAD_REACTORS
330
E
102
}
  0
MLINESTYLE
  5
18
102
{ACAD_REACTORS
330
17
102
}
100
AcDbMlineStyle
  2
STANDARD
 70
0
  3

 62
256
 51
90.0
 52
90.0
 71
2
 49
0.5
 62
256
  6
BYLAYER
 49
-0.5
 62
256
  6
BYLAYER
  0
LAYOUT
  5
250
102
{ACAD_REACTORS
330
1A
102
}
100
AcDbPlotSettings
  1

  2
none_device
  4

  6

 40
0.0
 41
0.0
 42
0.0
 43
0.0
 44
210.0
 45
297.0
 46
0.0
 47
0.0
 48
0.0
 49
0.0
140
0.0
141
0.0
142
1.0
143
1.0
 70
1024
 72
1
 73
0
 74
0
  7

 75
0
147
1.0
148
0.0
149
0.0
100
AcDbLayout
  1
Model
 70
0
 71
0
 10
0.0
 20
0.0
 11
210.0
 21
297.0
 12
0.0
 22
0.0
 32
0.0
 14
0.0
 24
0.0
 34
0.0
 15
0.0
 25
0.0
 35
0.0
146
0.0
 13
0.0
 23
0.0
 33
0.0
 16
1.0
 26
0.0
 36
0.0
 17
0.0
 27
1.0
 37
0.0
 76
0
330
210
345
0
346
0
  0
LAYOUT
  5
251
102
{ACAD_REACTORS
330
1A
102
}
100
AcDbPlotSettings
  1

  2
none_device
  4

  6

 40
0.0
 41
0.0
 42
0.0
 43
0.0
 44
210.0
 45
297.0
 46
0.0
 47
0.0
 48
0.0
 49
0.0
140
0.0
141
0.0
142
1.0
143
1.0
 70
0
 72
1
 73
0
 74
0
  7

 75
0
147
1.0
148
0.0
149
0.0
100
AcDbLayout
  1
Layout1
 70
0
 71
1
 10
0.0
 20
0.0
 11
210.0
 21
297.0
 12
0.0
 22
0.0
 32
0.0
 14
0.0
 24
0.0
 34
0.0
 15
0.0
 25
0.0
 35
0.0
146
0.0
 13
0.0
 23
0.0
 33
0.0
 16
1.0
 26
0.0
 36
0.0
 17
0.0
 27
1.0
 37
0.0
 76
0
330
211
345
0
346
0
  0
ENDSEC
  0
EOF
