999
DXF file: C:\Users\sesa63760\Dev\_Creo\CAD\MCADID0002945_3D-CAD\drw0001_1.dxf
999
Pro/ENGINEER 2019471 by Parametric Technology Corporation
  0
SECTION
  2
HEADER
  9
$ACADVER
  1
AC1024
  9
$DWGCODEPAGE
  3
ANSI_1252
  9
$EXTMAX
 10
111.1934230247
 20
157.2592697063
 30
0.0
  9
$EXTMIN
 10
0.0
 20
0.0
 30
0.0
  9
$LIMMIN
 10
0.0
 20
0.0
  9
$LIMMAX
 10
111.1934230247
 20
157.2592697063
  9
$VIEWCTR
 10
55.5967115123
 20
78.6296348532
  9
$VIEWSIZE
 40
157.2592697063
  9
$CLAYER
  8
0
  9
$LTSCALE
 40
10.2509746179
  9
$CELTYPE
  6
BYLAYER
  9
$DIMSCALE
 40
1.0
  9
$DIMASZ
 40
1.3237312265
  9
$DIMEXO
 40
1.0
  9
$DIMDLI
 40
7.0824915542
  9
$DIMEXE
 40
1.0
  9
$DIMCEN
 40
1.6774322102
  9
$DIMLFAC
 40
1.0
  9
$DIMBLK
  1
_FILLED
  9
$DIMALT
 70
0
  9
$DIMALTF
 40
0.0393700787
  9
$DIMTXT
 40
1.8532237171
  9
$DIMTOL
 70
1
  9
$DIMLIM
 70
0
  9
$DIMTFAC
 40
1.0
  9
$DIMTP
 40
0.01
  9
$DIMTM
 40
0.01
  9
$DIMGAP
 40
0.625
  9
$DIMDSEP
 70
46
  9
$AUNITS
 70
0
  9
$PDMODE
 70
3
  9
$PDSIZE
 40
0.3125
  9
$HANDSEED
  5
2A5
  9
$TILEMODE
 70
1
  9
$MEASUREMENT
 70
1
  9
$INSUNITS
 70
4
  0
ENDSEC
  0
SECTION
  2
CLASSES
  0
CLASS
  1
ACDBDICTIONARYWDFLT
  2
AcDbDictionaryWithDefault
  3
AutoCAD 2000
 90
0
 91
1
280
0
281
0
  0
CLASS
  1
ACDBPLACEHOLDER
  2
AcDbPlaceHolder
  3
AutoCAD 2000
 90
0
 91
1
280
0
281
0
  0
CLASS
  1
LAYOUT
  2
AcDbLayout
  3
AutoCAD 2000
 90
0
 91
0
280
0
281
0
  0
ENDSEC
  0
SECTION
  2
TABLES
  0
TABLE
  2
VPORT
  5
8
100
AcDbSymbolTable
 70
2
  0
VPORT
  5
1F4
100
AcDbSymbolTableRecord
100
AcDbViewportTableRecord
  2
*ACTIVE
 70
0
 10
0.0
 20
0.0
 11
1.0
 21
1.0
 12
55.5967115123
 22
78.6296348532
 13
0.0
 23
0.0
 14
1.0
 24
1.0
 15
0.0
 25
0.0
 16
0.0
 26
0.0
 36
1.0
 17
0.0
 27
0.0
 37
0.0
 40
157.2592697063
 41
0.7070707071
 42
50.0
 43
0.0
 44
0.0
 50
0.0
 51
0.0
 71
0
 72
100
 73
1
 74
1
 75
0
 76
0
 77
0
 78
0
  0
ENDTAB
  0
TABLE
  2
LTYPE
  5
5
100
AcDbSymbolTable
 70
6
  0
LTYPE
  5
14
100
AcDbSymbolTableRecord
100
AcDbLinetypeTableRecord
  2
BYBLOCK
 70
0
  3

 72
65
 73
0
 40
0.0
  0
LTYPE
  5
15
100
AcDbSymbolTableRecord
100
AcDbLinetypeTableRecord
  2
BYLAYER
 70
0
  3

 72
65
 73
0
 40
0.0
  0
LTYPE
  5
16
100
AcDbSymbolTableRecord
100
AcDbLinetypeTableRecord
  2
CONTINUOUS
 70
64
  3
Solid line
 72
65
 73
0
 40
0.0
  0
LTYPE
  5
1F5
100
AcDbSymbolTableRecord
100
AcDbLinetypeTableRecord
  2
CENTER
 70
64
  3
____ _ ____ _ ____ _ ____ _ ____ _ ____ _ ____
 72
65
 73
4
 40
0.6
 49
0.375
 74
0
 49
-0.075
 74
0
 49
0.075
 74
0
 49
-0.075
 74
0
  0
LTYPE
  5
1F6
100
AcDbSymbolTableRecord
100
AcDbLinetypeTableRecord
  2
HIDDEN
 70
64
  3
- - - - - - - - - - - - - - - - - - - -
 72
65
 73
2
 40
0.2
 49
0.1
 74
0
 49
-0.1
 74
0
  0
LTYPE
  5
1F7
100
AcDbSymbolTableRecord
100
AcDbLinetypeTableRecord
  2
PHANTOM
 70
64
  3
_____ _ _ _____ _ _ _____ _ _ _____
 72
65
 73
6
 40
0.8
 49
0.45
 74
0
 49
-0.05
 74
0
 49
0.1
 74
0
 49
-0.05
 74
0
 49
0.1
 74
0
 49
-0.05
 74
0
  0
LTYPE
  5
1F8
100
AcDbSymbolTableRecord
100
AcDbLinetypeTableRecord
  2
DOT
 70
64
  3
. . . . . . . . . . . . . . . . . . . .
 72
65
 73
2
 40
0.2
 49
0.1
 74
0
 49
-0.1
 74
0
  0
LTYPE
  5
1F9
100
AcDbSymbolTableRecord
100
AcDbLinetypeTableRecord
  2
DASHED
 70
64
  3
- - - - - - - - - - - - - - - - - - - -
 72
65
 73
2
 40
0.2
 49
0.1
 74
0
 49
-0.1
 74
0
  0
ENDTAB
  0
TABLE
  2
LAYER
  5
2
100
AcDbSymbolTable
 70
36
  0
LAYER
  5
10
100
AcDbSymbolTableRecord
100
AcDbLayerTableRecord
  2
0
 70
0
 62
7
  6
CONTINUOUS
370
-3
390
F
  0
LAYER
  5
1FA
100
AcDbSymbolTableRecord
100
AcDbLayerTableRecord
  2
DEFAULT_1
 70
0
 62
7
  6
CENTER
370
-3
390
F
  0
LAYER
  5
1FB
100
AcDbSymbolTableRecord
100
AcDbLayerTableRecord
  2
DEFAULT_2
 70
0
 62
7
  6
HIDDEN
370
-3
390
F
  0
LAYER
  5
1FC
100
AcDbSymbolTableRecord
100
AcDbLayerTableRecord
  2
DEFAULT_3
 70
0
 62
7
  6
PHANTOM
370
-3
390
F
  0
LAYER
  5
1FD
100
AcDbSymbolTableRecord
100
AcDbLayerTableRecord
  2
00_COMPONENTS
 70
0
 62
7
  6
CONTINUOUS
370
-3
390
F
  0
LAYER
  5
1FE
100
AcDbSymbolTableRecord
100
AcDbLayerTableRecord
  2
01_1_DEFAULT_DATUMS
 70
0
 62
7
  6
CONTINUOUS
370
-3
390
F
  0
LAYER
  5
1FF
100
AcDbSymbolTableRecord
100
AcDbLayerTableRecord
  2
01_PLANES
 70
0
 62
7
  6
CONTINUOUS
370
-3
390
F
  0
LAYER
  5
200
100
AcDbSymbolTableRecord
100
AcDbLayerTableRecord
  2
02_COORD_SYS
 70
0
 62
7
  6
CONTINUOUS
370
-3
390
F
  0
LAYER
  5
201
100
AcDbSymbolTableRecord
100
AcDbLayerTableRecord
  2
03_AXES
 70
0
 62
7
  6
CONTINUOUS
370
-3
390
F
  0
LAYER
  5
202
100
AcDbSymbolTableRecord
100
AcDbLayerTableRecord
  2
04_POINTS
 70
0
 62
7
  6
CONTINUOUS
370
-3
390
F
  0
LAYER
  5
203
100
AcDbSymbolTableRecord
100
AcDbLayerTableRecord
  2
05_CURVES
 70
0
 62
7
  6
CONTINUOUS
370
-3
390
F
  0
LAYER
  5
204
100
AcDbSymbolTableRecord
100
AcDbLayerTableRecord
  2
06_SURFS
 70
0
 62
7
  6
CONTINUOUS
370
-3
390
F
  0
LAYER
  5
205
100
AcDbSymbolTableRecord
100
AcDbLayerTableRecord
  2
07_COSMETICS
 70
0
 62
7
  6
CONTINUOUS
370
-3
390
F
  0
LAYER
  5
206
100
AcDbSymbolTableRecord
100
AcDbLayerTableRecord
  2
10_NOTES
 70
0
 62
7
  6
CONTINUOUS
370
-3
390
F
  0
LAYER
  5
207
100
AcDbSymbolTableRecord
100
AcDbLayerTableRecord
  2
11_NOTES_PUB
 70
0
 62
7
  6
CONTINUOUS
370
-3
390
F
  0
LAYER
  5
208
100
AcDbSymbolTableRecord
100
AcDbLayerTableRecord
  2
13_REF_GTOL
 70
0
 62
7
  6
CONTINUOUS
370
-3
390
F
  0
LAYER
  5
209
100
AcDbSymbolTableRecord
100
AcDbLayerTableRecord
  2
16_MISC
 70
0
 62
7
  6
CONTINUOUS
370
-3
390
F
  0
LAYER
  5
20A
100
AcDbSymbolTableRecord
100
AcDbLayerTableRecord
  2
17_NO_PRINT
 70
0
 62
7
  6
CONTINUOUS
370
-3
390
F
  0
LAYER
  5
20B
100
AcDbSymbolTableRecord
100
AcDbLayerTableRecord
  2
18_DATUM_CAMS_JOINTS
 70
0
 62
7
  6
CONTINUOUS
370
-3
390
F
  0
LAYER
  5
20C
100
AcDbSymbolTableRecord
100
AcDbLayerTableRecord
  2
19_DATUM_FUNCTIONAL
 70
0
 62
7
  6
CONTINUOUS
370
-3
390
F
  0
LAYER
  5
20D
100
AcDbSymbolTableRecord
100
AcDbLayerTableRecord
  2
20_DATUM_KINEMATIC_SCHEME
 70
0
 62
7
  6
CONTINUOUS
370
-3
390
F
  0
ENDTAB
  0
TABLE
  2
STYLE
  5
3
100
AcDbSymbolTable
 70
1
  0
STYLE
  5
11
100
AcDbSymbolTableRecord
100
AcDbTextStyleTableRecord
  2
STANDARD
 70
0
 40
0.0
 41
1.0
 50
0.0
 71
0
 42
0.2
  3
ARIAL.TTF
  4

  0
STYLE
  5
20E
100
AcDbSymbolTableRecord
100
AcDbTextStyleTableRecord
  2
TEXTSTYLE_1
 70
0
 40
0.0
 41
0.8
 50
0.0
 71
0
 42
0.2
  3
gdt
  4

  0
ENDTAB
  0
TABLE
  2
VIEW
  5
6
100
AcDbSymbolTable
 70
0
  0
ENDTAB
  0
TABLE
  2
UCS
  5
7
100
AcDbSymbolTable
 70
0
  0
ENDTAB
  0
TABLE
  2
APPID
  5
9
100
AcDbSymbolTable
 70
1
  0
APPID
  5
20F
100
AcDbSymbolTableRecord
100
AcDbRegAppTableRecord
  2
ACAD
 70
0
  0
ENDTAB
  0
TABLE
  2
BLOCK_RECORD
  5
1
100
AcDbSymbolTable
 70
0
  0
BLOCK_RECORD
  5
210
100
AcDbSymbolTableRecord
100
AcDbBlockTableRecord
  2
*Model_Space
  0
BLOCK_RECORD
  5
211
100
AcDbSymbolTableRecord
100
AcDbBlockTableRecord
  2
*Paper_Space
  0
BLOCK_RECORD
  5
212
100
AcDbSymbolTableRecord
100
AcDbBlockTableRecord
  2
_FILLED
  0
ENDTAB
  0
TABLE
  2
DIMSTYLE
  5
A
100
AcDbSymbolTable
 70
1
100
AcDbDimStyleTable
 71
0
  0
DIMSTYLE
105
213
100
AcDbSymbolTableRecord
100
AcDbDimStyleTableRecord
  2
STANDARD
 70
0
  3

  4

 40
1.0
 41
1.3237312265
 42
1.0
 43
0.38
 44
1.0
 45
0.0
 46
0.0
 47
0.01
 48
0.01
140
1.8532237171
141
0.09
142
0.0
143
25.4
144
1.0
145
0.0
146
1.0
147
0.625
 71
1
 72
0
 73
0
 74
0
 75
0
 76
0
 77
1
 78
8
 79
2
170
0
171
1
172
0
173
0
174
0
175
0
176
0
177
0
178
0
270
2
179
2
271
2
272
2
273
2
274
2
275
0
280
0
281
0
282
0
283
1
284
8
285
0
286
0
287
3
288
0
340
11
278
46
341
212
342
212
343
212
344
212
  0
ENDTAB
  0
ENDSEC
  0
SECTION
  2
BLOCKS
  0
BLOCK
  5
20
100
AcDbEntity
  8
0
100
AcDbBlockBegin
  2
*Model_Space
 70
0
 10
0.0
 20
0.0
 30
0.0
  3
*Model_Space
  1

  0
ENDBLK
  5
21
100
AcDbEntity
  8
0
100
AcDbBlockEnd
  0
BLOCK
  5
1C
100
AcDbEntity
  8
0
100
AcDbBlockBegin
  2
*Paper_Space
 70
0
 10
0.0
 20
0.0
 30
0.0
  3
*Paper_Space
  1

  0
ENDBLK
  5
1D
100
AcDbEntity
  8
0
100
AcDbBlockEnd
  0
BLOCK
  5
214
100
AcDbEntity
  8
0
100
AcDbBlockBegin
  2
_FILLED
 70
64
 10
0.0
 20
0.0
  3
_FILLED
  1

  0
SOLID
  5
215
100
AcDbEntity
  8
0
  6
BYBLOCK
 62
0
100
AcDbTrace
 10
0.0
 20
0.0
 11
-1.0
 21
0.25
 12
-1.0
 22
-0.25
 13
-1.0
 23
-0.25
  0
ENDBLK
  5
216
100
AcDbEntity
  8
0
  6
BYBLOCK
 62
0
100
AcDbBlockEnd
  0
ENDSEC
  0
SECTION
  2
ENTITIES
  0
LINE
  5
217
100
AcDbEntity
  8
0
100
AcDbLine
 62
7
  6
BYLAYER
 10
12.8522178632
 20
62.5944906801
 11
12.8522178632
 21
57.4097003314
  0
LINE
  5
218
100
AcDbEntity
  8
0
100
AcDbLine
 62
7
  6
BYLAYER
 10
20.7897178632
 20
62.5944906801
 11
20.7897178632
 21
63.8906882673
  0
LINE
  5
219
100
AcDbEntity
  8
0
100
AcDbLine
 62
7
  6
BYLAYER
 10
21.7422178632
 20
64.5387870609
 11
21.7422178632
 21
63.8906882673
  0
LINE
  5
21A
100
AcDbEntity
  8
0
100
AcDbLine
 62
7
  6
BYLAYER
 10
28.627482632
 20
60.4949848055
 11
28.627482632
 21
61.7911823927
  0
LINE
  5
21B
100
AcDbEntity
  8
0
100
AcDbLine
 62
7
  6
BYLAYER
 10
29.3622178632
 20
64.5387870609
 11
29.3622178632
 21
63.8906882673
  0
LINE
  5
21C
100
AcDbEntity
  8
0
100
AcDbLine
 62
7
  6
BYLAYER
 10
38.2522178632
 20
62.5944906801
 11
38.2522178632
 21
57.4097003314
  0
LINE
  5
21D
100
AcDbEntity
  8
0
100
AcDbLine
 62
7
  6
BYLAYER
 10
78.0863887095
 20
106.4570643718
 11
79.164005309
 21
107.0792443943
  0
LINE
  5
21E
100
AcDbEntity
  8
0
100
AcDbLine
 62
7
  6
BYLAYER
 10
47.5537070226
 20
84.3702516626
 11
47.5537070226
 21
83.0947932368
  0
LINE
  5
21F
100
AcDbEntity
  8
0
100
AcDbLine
 62
7
  6
BYLAYER
 10
46.4319933284
 20
82.4038939923
 11
21.9156894236
 21
65.6661503448
  0
LINE
  5
220
100
AcDbEntity
  8
0
100
AcDbLine
 62
7
  6
BYLAYER
 10
77.9652320832
 20
101.9282490357
 11
77.0082117598
 21
101.3757163925
  0
LINE
  5
221
100
AcDbEntity
  8
0
100
AcDbLine
 62
7
  6
BYLAYER
 10
70.6334818713
 20
97.6952863446
 11
47.5537070226
 21
84.3702516626
  0
LINE
  5
222
100
AcDbEntity
  8
0
100
AcDbLine
 62
7
  6
BYLAYER
 10
47.5626873161
 20
83.0792388193
 11
46.8801906177
 21
82.6852015188
  0
LINE
  5
223
100
AcDbEntity
  8
0
100
AcDbLine
 62
7
  6
BYLAYER
 10
75.5046518485
 20
97.2671804846
 11
75.5126603226
 21
97.2709627634
  0
LINE
  5
224
100
AcDbEntity
  8
0
100
AcDbLine
 62
7
  6
BYLAYER
 10
82.8763300961
 20
99.0928894203
 11
82.5976419946
 21
98.9319897303
  0
LINE
  5
225
100
AcDbEntity
  8
0
100
AcDbLine
 62
7
  6
BYLAYER
 10
82.5976419946
 20
97.6565313045
 11
82.6608437406
 21
97.6930206317
  0
LINE
  5
226
100
AcDbEntity
  8
0
100
AcDbLine
 62
7
  6
BYLAYER
 10
82.660790524
 20
97.6722507459
 11
82.5976419946
 21
97.6357921431
  0
LINE
  5
227
100
AcDbEntity
  8
0
100
AcDbLine
 62
7
  6
BYLAYER
 10
75.5046518485
 20
97.2671804846
 11
75.5119397866
 21
97.2713803105
  0
LINE
  5
228
100
AcDbEntity
  8
0
100
AcDbLine
 62
7
  6
BYLAYER
 10
84.0008128554
 20
98.121886983
 11
84.279500957
 21
98.282786673
  0
LINE
  5
229
100
AcDbEntity
  8
0
100
AcDbLine
 62
7
  6
BYLAYER
 10
82.5976419946
 20
96.3395945559
 11
82.8763300961
 21
96.5004942459
  0
LINE
  5
22A
100
AcDbEntity
  8
0
100
AcDbLine
 62
7
  6
BYLAYER
 10
84.0008128554
 20
96.8256893959
 11
84.0136227381
 21
96.8330851409
  0
LINE
  5
22B
100
AcDbEntity
  8
0
100
AcDbLine
 62
7
  6
BYLAYER
 10
47.5537070226
 20
83.0947932368
 11
58.7790739093
 21
76.6139712588
  0
LINE
  5
22C
100
AcDbEntity
  8
0
100
AcDbLine
 62
7
  6
BYLAYER
 10
58.7790739093
 20
77.8894296846
 11
47.5537070226
 21
84.3702516626
  0
LINE
  5
22D
100
AcDbEntity
  8
0
100
AcDbLine
 62
7
  6
BYLAYER
 10
57.6183153424
 20
75.9456140721
 11
57.6183153424
 21
74.6494164849
  0
LINE
  5
22E
100
AcDbEntity
  8
0
100
AcDbLine
 62
7
  6
BYLAYER
 10
58.1055575044
 20
74.9081819536
 11
58.1055575044
 21
76.2043795408
  0
LINE
  5
22F
100
AcDbEntity
  8
0
100
AcDbLine
 62
7
  6
BYLAYER
 10
58.7790739093
 20
76.6139712588
 11
58.7790739093
 21
77.8894296846
  0
LINE
  5
230
100
AcDbEntity
  8
0
100
AcDbLine
 62
7
  6
BYLAYER
 10
88.8308964388
 20
95.2397539442
 11
88.2335786465
 21
94.8948944145
  0
LINE
  5
231
100
AcDbEntity
  8
0
100
AcDbLine
 62
7
  6
BYLAYER
 10
81.858848758
 20
91.2144643666
 11
58.7790739093
 21
77.8894296846
  0
LINE
  5
232
100
AcDbEntity
  8
0
100
AcDbLine
 62
7
  6
BYLAYER
 10
88.6383490901
 20
93.8531289183
 11
88.2335786465
 21
93.6194359887
  0
LINE
  5
233
100
AcDbEntity
  8
0
100
AcDbLine
 62
7
  6
BYLAYER
 10
81.858848758
 20
89.9390059408
 11
58.7790739093
 21
76.6139712588
  0
LINE
  5
234
100
AcDbEntity
  8
0
100
AcDbLine
 62
7
  6
BYLAYER
 10
58.1055575044
 20
76.2043795408
 11
81.858848758
 21
89.9182667794
  0
LINE
  5
235
100
AcDbEntity
  8
0
100
AcDbLine
 62
7
  6
BYLAYER
 10
88.2335786465
 20
93.5986968273
 11
88.6383011953
 21
93.832362105
  0
LINE
  5
236
100
AcDbEntity
  8
0
100
AcDbLine
 62
7
  6
BYLAYER
 10
28.627482632
 20
61.7911823927
 11
57.6183153424
 21
75.9456140721
  0
LINE
  5
237
100
AcDbEntity
  8
0
100
AcDbLine
 62
7
  6
BYLAYER
 10
85.8881162188
 20
91.272420155
 11
85.8977925982
 21
91.2790620173
  0
LINE
  5
238
100
AcDbEntity
  8
0
100
AcDbLine
 62
7
  6
BYLAYER
 10
85.8881162188
 20
91.272420155
 11
85.8986992277
 21
91.2785403106
  0
LINE
  5
239
100
AcDbEntity
  8
0
100
AcDbLine
 62
7
  6
BYLAYER
 10
88.8308964388
 20
92.6473587698
 11
88.2335786465
 21
92.3024992401
  0
LINE
  5
23A
100
AcDbEntity
  8
0
100
AcDbLine
 62
7
  6
BYLAYER
 10
81.858848758
 20
88.6220691922
 11
58.1055575044
 21
74.9081819536
  0
LINE
  5
23B
100
AcDbEntity
  8
0
100
AcDbLine
 62
7
  6
BYLAYER
 10
57.6183153424
 20
74.6494164849
 11
28.627482632
 21
60.4949848055
  0
LINE
  5
23C
100
AcDbEntity
  8
0
100
AcDbLine
 62
7
  6
BYLAYER
 10
93.7514740989
 20
91.0293537789
 11
93.6223942444
 21
90.9548273593
  0
LINE
  5
23D
100
AcDbEntity
  8
0
100
AcDbLine
 62
7
  6
BYLAYER
 10
75.7964814769
 20
101.2464224478
 11
75.7964725037
 21
102.4907454482
  0
LINE
  5
23E
100
AcDbEntity
  8
0
100
AcDbLine
 62
7
  6
BYLAYER
 10
81.858848758
 20
91.2144643666
 11
81.858848758
 21
89.9390059408
  0
LINE
  5
23F
100
AcDbEntity
  8
0
100
AcDbLine
 62
7
  6
BYLAYER
 10
81.858848758
 20
89.9182667794
 11
81.858848758
 21
88.6220691922
  0
LINE
  5
240
100
AcDbEntity
  8
0
100
AcDbLine
 62
7
  6
BYLAYER
 10
82.5976419946
 20
96.3395945559
 11
82.5976419946
 21
97.6357921431
  0
LINE
  5
241
100
AcDbEntity
  8
0
100
AcDbLine
 62
7
  6
BYLAYER
 10
82.5976419946
 20
97.6565313045
 11
82.5976419946
 21
98.9319897303
  0
LINE
  5
242
100
AcDbEntity
  8
0
100
AcDbLine
 62
7
  6
BYLAYER
 10
84.0008128554
 20
96.8256893959
 11
84.0008128554
 21
95.5294918087
  0
LINE
  5
243
100
AcDbEntity
  8
0
100
AcDbLine
 62
7
  6
BYLAYER
 10
84.0008128554
 20
98.121886983
 11
84.0008128554
 21
96.8464285572
  0
LINE
  5
244
100
AcDbEntity
  8
0
100
AcDbLine
 62
7
  6
BYLAYER
 10
89.6246736228
 20
91.652155576
 11
91.2411264544
 21
90.7189172112
  0
LINE
  5
245
100
AcDbEntity
  8
0
100
AcDbLine
 62
7
  6
BYLAYER
 10
83.5485257087
 20
95.7100648698
 11
82.2846445321
 21
96.4397504997
  0
LINE
  5
246
100
AcDbEntity
  8
0
100
AcDbLine
 62
7
  6
BYLAYER
 10
93.0807487467
 20
91.4165884811
 11
96.1115978061
 21
89.666766547
  0
LINE
  5
247
100
AcDbEntity
  8
0
100
AcDbLine
 62
7
  6
BYLAYER
 10
82.6428296266
 20
97.6826202403
 11
82.660790524
 21
97.6722507459
  0
LINE
  5
248
100
AcDbEntity
  8
0
100
AcDbLine
 62
7
  6
BYLAYER
 10
77.9652320832
 20
101.9282490357
 11
82.8763300961
 21
99.0928894203
  0
LINE
  5
249
100
AcDbEntity
  8
0
100
AcDbLine
 62
7
  6
BYLAYER
 10
84.279500957
 20
98.282786673
 11
88.968783733
 21
95.5754892472
  0
LINE
  5
24A
100
AcDbEntity
  8
0
100
AcDbLine
 62
7
  6
BYLAYER
 10
82.8763300961
 20
96.5004942459
 11
83.5486095313
 21
95.710209898
  0
LINE
  5
24B
100
AcDbEntity
  8
0
100
AcDbLine
 62
7
  6
BYLAYER
 10
88.2335786465
 20
92.3024992401
 11
88.2335786465
 21
93.5986968273
  0
LINE
  5
24C
100
AcDbEntity
  8
0
100
AcDbLine
 62
7
  6
BYLAYER
 10
88.2335786465
 20
93.6194359887
 11
88.2335786465
 21
94.8948944145
  0
LINE
  5
24D
100
AcDbEntity
  8
0
100
AcDbLine
 62
7
  6
BYLAYER
 10
96.319193799
 20
97.0258667451
 11
99.3500428584
 21
95.2760448111
  0
LINE
  5
24E
100
AcDbEntity
  8
0
100
AcDbLine
 62
7
  6
BYLAYER
 10
93.2315689032
 20
100.0182981288
 11
89.2378738446
 21
102.3240068838
  0
LINE
  5
24F
100
AcDbEntity
  8
0
100
AcDbLine
 62
7
  6
BYLAYER
 10
87.8347029838
 20
103.1341096311
 11
82.9236049709
 21
105.9694692464
  0
LINE
  5
250
100
AcDbEntity
  8
0
100
AcDbLine
 62
7
  6
BYLAYER
 10
83.1617259306
 20
106.3819161776
 11
81.5452730989
 21
107.3151545425
  0
LINE
  5
251
100
AcDbEntity
  8
0
100
AcDbLine
 62
7
  6
BYLAYER
 10
94.3870928173
 20
99.9010941996
 11
96.003545649
 21
98.9678558348
  0
LINE
  5
252
100
AcDbEntity
  8
0
100
AcDbLine
 62
7
  6
BYLAYER
 10
96.9899191511
 20
96.638632043
 11
96.9899180764
 21
96.7876493058
  0
ARC
  5
253
100
AcDbEntity
  8
0
100
AcDbCircle
 62
7
  6
BYLAYER
 10
54.0961143044
 20
83.1658475296
 40
8.0335341744
100
AcDbArc
 50
296.004217211
 51
299.9397030747
  0
ARC
  5
254
100
AcDbEntity
  8
0
100
AcDbCircle
 62
7
  6
BYLAYER
 10
54.1705722521
 20
81.7294494295
 40
7.8748840572
100
AcDbArc
 50
295.9645583184
 51
299.9793619674
  0
ARC
  5
255
100
AcDbEntity
  8
0
100
AcDbCircle
 62
7
  6
BYLAYER
 10
50.4254856537
 20
76.5389067014
 40
7.0954955341
100
AcDbArc
 50
119.9771330008
 51
124.2510987679
  0
ARC
  5
256
100
AcDbEntity
  8
0
100
AcDbCircle
 62
7
  6
BYLAYER
 10
95.5227327415
 20
93.4976630033
 40
6.9148791709
100
AcDbArc
 50
162.8136017181
 51
165.4080331741
  0
ARC
  5
257
100
AcDbEntity
  8
0
100
AcDbCircle
 62
7
  6
BYLAYER
 10
90.3912647354
 20
96.5228038611
 40
6.360125469
100
AcDbArc
 50
162.2397513126
 51
163.9353754476
  0
ARC
  5
258
100
AcDbEntity
  8
0
100
AcDbCircle
 62
7
  6
BYLAYER
 10
78.0998779896
 20
92.7928215244
 40
5.1904822364
100
AcDbArc
 50
119.9998090971
 51
120.1394307318
  0
ARC
  5
259
100
AcDbEntity
  8
0
100
AcDbCircle
 62
7
  6
BYLAYER
 10
93.1464785763
 20
93.8323482838
 40
4.508177381
100
AcDbArc
 50
179.7358917433
 51
179.9998243426
  0
ARC
  5
25A
100
AcDbEntity
  8
0
100
AcDbCircle
 62
7
  6
BYLAYER
 10
80.1247229045
 20
101.2455703201
 40
4.3282415115
100
AcDbArc
 50
179.9887198249
 51
181.8409386249
  0
ARC
  5
25B
100
AcDbEntity
  8
0
100
AcDbCircle
 62
7
  6
BYLAYER
 10
86.7199474533
 20
97.6722353897
 40
4.0591569293
100
AcDbArc
 50
179.7066110346
 51
179.9997832434
  0
ARC
  5
25C
100
AcDbEntity
  8
0
100
AcDbCircle
 62
7
  6
BYLAYER
 10
81.5150037909
 20
93.8635504887
 40
3.8828865908
100
AcDbArc
 50
49.9610923612
 51
50.1935521843
  0
ARC
  5
25D
100
AcDbEntity
  8
0
100
AcDbCircle
 62
7
  6
BYLAYER
 10
81.5162117037
 20
93.8442564694
 40
3.8810031149
100
AcDbArc
 50
49.922635156
 51
50.1935929027
  0
ARC
  5
25E
100
AcDbEntity
  8
0
100
AcDbCircle
 62
7
  6
BYLAYER
 10
81.5308751116
 20
93.8824347251
 40
3.8582185306
100
AcDbArc
 50
49.6889723181
 51
49.9611344261
  0
ARC
  5
25F
100
AcDbEntity
  8
0
100
AcDbCircle
 62
7
  6
BYLAYER
 10
84.8969349302
 20
95.2121917079
 40
3.6973047035
100
AcDbArc
 50
334.2238535761
 51
334.4824000412
  0
SPLINE
  5
260
100
AcDbEntity
  8
0
100
AcDbSpline
 62
7
  6
BYLAYER
 70
0
 71
3
 72
11
 73
7
 74
0
 42
0.0000001
 43
0.0000001
 44
0.0000000001
 40
0.0
 40
0.0
 40
0.0
 40
0.0
 40
0.289748151
 40
0.5490817913
 40
0.7822233645
 40
1.0
 40
1.0
 40
1.0
 40
1.0
 10
100.0207761091
 20
93.7935043713
 30
0.0
 10
100.0207761091
 20
93.957619399
 30
0.0
 10
99.9959337056
 20
94.2696834757
 30
0.0
 10
99.8695084915
 20
94.698437728
 30
0.0
 10
99.6567305077
 20
95.046316692
 30
0.0
 10
99.4568687548
 20
95.2143728079
 30
0.0
 10
99.3500335983
 20
95.2760287755
 30
0.0
  0
SPLINE
  5
261
100
AcDbEntity
  8
0
100
AcDbSpline
 62
7
  6
BYLAYER
 70
0
 71
3
 72
12
 73
8
 74
0
 42
0.0000001
 43
0.0000001
 44
0.0000000001
 40
0.0
 40
0.0
 40
0.0
 40
0.0
 40
0.2895525055
 40
0.5486476544
 40
0.7816290665
 40
0.891837163
 40
1.0
 40
1.0
 40
1.0
 40
1.0
 10
96.9899180764
 20
96.7876493058
 30
0.0
 10
96.9899180764
 20
97.0290167622
 30
0.0
 10
96.9533047304
 20
97.4879881491
 30
0.0
 10
96.7678095076
 20
98.118264387
 30
0.0
 10
96.5010132288
 20
98.5530498683
 30
0.0
 10
96.2317789297
 20
98.8180094074
 30
0.0
 10
96.0816165383
 20
98.9227521232
 30
0.0
 10
96.0035321256
 20
98.9678324109
 30
0.0
  0
SPLINE
  5
262
100
AcDbEntity
  8
0
100
AcDbSpline
 62
7
  6
BYLAYER
 70
0
 71
3
 72
19
 73
15
 74
0
 42
0.0000001
 43
0.0000001
 44
0.0000000001
 40
0.0
 40
0.0
 40
0.0
 40
0.0
 40
0.0428388124
 40
0.0874476646
 40
0.1352580075
 40
0.1872002886
 40
0.2436803294
 40
0.3046735606
 40
0.3698119872
 40
0.4384607186
 40
0.5827415066
 40
0.7298371791
 40
0.8713635881
 40
1.0
 40
1.0
 40
1.0
 40
1.0
 10
29.3621956071
 20
64.5387870597
 30
0.0
 10
29.362177022
 20
64.6472431993
 30
0.0
 10
29.3332305076
 20
64.8695865422
 30
0.0
 10
29.2056440033
 20
65.190590781
 30
0.0
 10
28.9988021678
 20
65.4949709092
 30
0.0
 10
28.7183249433
 20
65.7765617716
 30
0.0
 10
28.3708320784
 20
66.0304920385
 30
0.0
 10
27.9636874763
 20
66.2519731071
 30
0.0
 10
27.5053566549
 20
66.4365884758
 30
0.0
 10
26.8279382179
 20
66.6317937133
 30
0.0
 10
25.9201423868
 20
66.7591292538
 30
0.0
 10
24.8195401265
 20
66.7286923934
 30
0.0
 10
23.7787339735
 20
66.52049891
 30
0.0
 10
23.1401706012
 20
66.2570196901
 30
0.0
 10
22.8581298104
 20
66.0941843357
 30
0.0
  0
SPLINE
  5
263
100
AcDbEntity
  8
0
100
AcDbSpline
 62
7
  6
BYLAYER
 70
0
 71
3
 72
10
 73
6
 74
0
 42
0.0000001
 43
0.0000001
 44
0.0000000001
 40
0.0
 40
0.0
 40
0.0
 40
0.0
 40
0.2322951695
 40
0.4778513226
 40
1.0
 40
1.0
 40
1.0
 40
1.0
 10
85.8881162188
 20
91.2931593164
 30
0.0
 10
85.6017434597
 20
91.1278229138
 30
0.0
 10
84.9927175926
 20
90.8213508433
 30
0.0
 10
83.6630209397
 20
90.3090060049
 30
0.0
 10
82.5928977693
 20
90.0558059664
 30
0.0
 10
81.858848758
 20
89.9390059408
 30
0.0
  0
SPLINE
  5
264
100
AcDbEntity
  8
0
100
AcDbSpline
 62
7
  6
BYLAYER
 70
0
 71
3
 72
11
 73
7
 74
0
 42
0.0000001
 43
0.0000001
 44
0.0000000001
 40
0.0
 40
0.0
 40
0.0
 40
0.0
 40
0.2238033889
 40
0.4639424497
 40
0.7225064891
 40
1.0
 40
1.0
 40
1.0
 40
1.0
 10
88.22635741
 20
93.6043956944
 30
0.0
 10
88.1182306011
 20
93.3804858284
 30
0.0
 10
87.8469415606
 20
92.9381701984
 30
0.0
 10
87.3152485661
 20
92.3326329811
 30
0.0
 10
86.6555703569
 20
91.7731115819
 30
0.0
 10
86.1551133914
 20
91.4473092857
 30
0.0
 10
85.8881162188
 20
91.2931593164
 30
0.0
  0
SPLINE
  5
265
100
AcDbEntity
  8
0
100
AcDbSpline
 62
7
  6
BYLAYER
 70
0
 71
3
 72
11
 73
7
 74
0
 42
0.0000001
 43
0.0000001
 44
0.0000000001
 40
0.0
 40
0.0
 40
0.0
 40
0.0
 40
0.2812074422
 40
0.5405152446
 40
0.7788555472
 40
1.0
 40
1.0
 40
1.0
 40
1.0
 10
75.4937056526
 20
97.2815821102
 30
0.0
 10
75.3099347669
 20
97.1748846344
 30
0.0
 10
74.9685884417
 20
96.9479501201
 30
0.0
 10
74.5296943095
 20
96.5520862824
 30
0.0
 10
74.1938116188
 20
96.1213173258
 30
0.0
 10
74.0397891181
 20
95.8063255641
 30
0.0
 10
73.9850890826
 20
95.64841959
 30
0.0
  0
SPLINE
  5
266
100
AcDbEntity
  8
0
100
AcDbSpline
 62
7
  6
BYLAYER
 70
0
 71
3
 72
15
 73
11
 74
0
 42
0.0000001
 43
0.0000001
 44
0.0000000001
 40
0.0
 40
0.0
 40
0.0
 40
0.0
 40
0.1206368597
 40
0.2474660263
 40
0.3781222516
 40
0.5100668548
 40
0.6406451108
 40
0.767287714
 40
0.8877104158
 40
1.0
 40
1.0
 40
1.0
 40
1.0
 10
82.5976419946
 20
97.6565313045
 30
0.0
 10
82.3245591652
 20
97.7657555316
 30
0.0
 10
81.7492562578
 20
97.9531721782
 30
0.0
 10
80.8445920674
 20
98.1388569471
 30
0.0
 10
79.8980813501
 20
98.2322735772
 30
0.0
 10
78.9379199497
 20
98.2307529602
 30
0.0
 10
77.9924126344
 20
98.1342345034
 30
0.0
 10
77.0893514648
 20
97.9456455482
 30
0.0
 10
76.2555751891
 20
97.6704554956
 30
0.0
 10
75.7417396643
 20
97.4248015432
 30
0.0
 10
75.5046518485
 20
97.287919646
 30
0.0
  0
SPLINE
  5
267
100
AcDbEntity
  8
0
100
AcDbSpline
 62
7
  6
BYLAYER
 70
0
 71
3
 72
9
 73
5
 74
0
 42
0.0000001
 43
0.0000001
 44
0.0000000001
 40
0.0
 40
0.0
 40
0.0
 40
0.0
 40
0.5148363409
 40
1.0
 40
1.0
 40
1.0
 40
1.0
 10
88.4563798846
 20
102.452188796
 30
0.0
 10
88.3846077887
 20
102.5952807229
 30
0.0
 10
88.2106421019
 20
102.8582703518
 30
0.0
 10
87.9653384075
 20
103.0586637223
 30
0.0
 10
87.8346856481
 20
103.1340794827
 30
0.0
  0
SPLINE
  5
268
100
AcDbEntity
  8
0
100
AcDbSpline
 62
7
  6
BYLAYER
 70
0
 71
3
 72
12
 73
8
 74
0
 42
0.0000001
 43
0.0000001
 44
0.0000000001
 40
0.0
 40
0.0
 40
0.0
 40
0.0
 40
0.2895811354
 40
0.5486336487
 40
0.7816352378
 40
0.8918383291
 40
1.0
 40
1.0
 40
1.0
 40
1.0
 10
79.164005309
 20
107.0792443943
 30
0.0
 10
79.3730521572
 20
107.1999411169
 30
0.0
 10
79.7888135508
 20
107.3977487311
 30
0.0
 10
80.4274030641
 20
107.5521665843
 30
0.0
 10
80.9373101273
 20
107.5385827742
 30
0.0
 10
81.3013908849
 20
107.4378733318
 30
0.0
 10
81.4671770007
 20
107.3602103451
 30
0.0
 10
81.5452595755
 20
107.3151311185
 30
0.0
  0
SPLINE
  5
269
100
AcDbEntity
  8
0
100
AcDbSpline
 62
7
  6
BYLAYER
 70
0
 71
3
 72
10
 73
6
 74
0
 42
0.0000001
 43
0.0000001
 44
0.0000000001
 40
0.0
 40
0.0
 40
0.0
 40
0.0
 40
0.5184664513
 40
0.7618385161
 40
1.0
 40
1.0
 40
1.0
 40
1.0
 10
83.9297755055
 20
105.452998803
 30
0.0
 10
83.8503819194
 20
105.6492175565
 30
0.0
 10
83.6940221222
 20
105.9257485716
 30
0.0
 10
83.4074773357
 20
106.2189067506
 30
0.0
 10
83.2459150307
 20
106.3332695635
 30
0.0
 10
83.1617117551
 20
106.3818917065
 30
0.0
  0
SPLINE
  5
26A
100
AcDbEntity
  8
0
100
AcDbSpline
 62
7
  6
BYLAYER
 70
0
 71
3
 72
10
 73
6
 74
0
 42
0.0000001
 43
0.0000001
 44
0.0000000001
 40
0.0
 40
0.0
 40
0.0
 40
0.0
 40
0.2322951695
 40
0.4778513226
 40
1.0
 40
1.0
 40
1.0
 40
1.0
 10
85.8881162188
 20
89.9762225678
 30
0.0
 10
85.6017434597
 20
89.8108861652
 30
0.0
 10
84.9927175926
 20
89.5044140947
 30
0.0
 10
83.6630209397
 20
88.9920692563
 30
0.0
 10
82.5928977693
 20
88.7388692178
 30
0.0
 10
81.858848758
 20
88.6220691922
 30
0.0
  0
SPLINE
  5
26B
100
AcDbEntity
  8
0
100
AcDbSpline
 62
7
  6
BYLAYER
 70
0
 71
3
 72
11
 73
7
 74
0
 42
0.0000001
 43
0.0000001
 44
0.0000000001
 40
0.0
 40
0.0
 40
0.0
 40
0.0
 40
0.2236731136
 40
0.4637457506
 40
0.7223448659
 40
1.0
 40
1.0
 40
1.0
 40
1.0
 10
88.2335786465
 20
92.3024992401
 30
0.0
 10
88.1259918246
 20
92.0771159861
 30
0.0
 10
87.8550412058
 20
91.6317510354
 30
0.0
 10
87.3221366238
 20
91.0221089227
 30
0.0
 10
86.6596589719
 20
90.4589359114
 30
0.0
 10
86.1566011427
 20
90.1312314856
 30
0.0
 10
85.8881162188
 20
89.9762225678
 30
0.0
  0
SPLINE
  5
26C
100
AcDbEntity
  8
0
100
AcDbSpline
 62
7
  6
BYLAYER
 70
0
 71
3
 72
9
 73
5
 74
0
 42
0.0000001
 43
0.0000001
 44
0.0000000001
 40
0.0
 40
0.0
 40
0.0
 40
0.0
 40
0.2694394477
 40
1.0
 40
1.0
 40
1.0
 40
1.0
 10
75.5046518485
 20
95.9709828975
 30
0.0
 10
75.3897185098
 20
95.9046264995
 30
0.0
 10
74.9731289427
 20
95.6425160407
 30
0.0
 10
74.5956795103
 20
95.3106367804
 30
0.0
 10
74.3733847319
 20
95.0276702417
 30
0.0
  0
SPLINE
  5
26D
100
AcDbEntity
  8
0
100
AcDbSpline
 62
7
  6
BYLAYER
 70
0
 71
3
 72
15
 73
11
 74
0
 42
0.0000001
 43
0.0000001
 44
0.0000000001
 40
0.0
 40
0.0
 40
0.0
 40
0.0
 40
0.1206368597
 40
0.2474660263
 40
0.3781222516
 40
0.5100668548
 40
0.6406451108
 40
0.767287714
 40
0.8877104158
 40
1.0
 40
1.0
 40
1.0
 40
1.0
 10
82.5976419946
 20
96.3395945559
 30
0.0
 10
82.3245591652
 20
96.448818783
 30
0.0
 10
81.7492562578
 20
96.6362354296
 30
0.0
 10
80.8445920674
 20
96.8219201985
 30
0.0
 10
79.8980813501
 20
96.9153368286
 30
0.0
 10
78.9379199497
 20
96.9138162116
 30
0.0
 10
77.9924126344
 20
96.8172977548
 30
0.0
 10
77.0893514648
 20
96.6287087996
 30
0.0
 10
76.2555751891
 20
96.353518747
 30
0.0
 10
75.7417396643
 20
96.1078647946
 30
0.0
 10
75.5046518485
 20
95.9709828975
 30
0.0
  0
SPLINE
  5
26E
100
AcDbEntity
  8
0
100
AcDbSpline
 62
7
  6
BYLAYER
 70
0
 71
3
 72
10
 73
6
 74
0
 42
0.0000001
 43
0.0000001
 44
0.0000000001
 40
0.0
 40
0.0
 40
0.0
 40
0.0
 40
0.230485558
 40
0.4724697217
 40
1.0
 40
1.0
 40
1.0
 40
1.0
 10
84.9054842802
 20
95.5762196905
 30
0.0
 10
84.8708694429
 20
95.6897137688
 30
0.0
 10
84.7791027403
 20
95.9164657853
 30
0.0
 10
84.5118796623
 20
96.3583055607
 30
0.0
 10
84.2339856704
 20
96.6488025996
 30
0.0
 10
84.026897727
 20
96.824495454
 30
0.0
  0
SPLINE
  5
26F
100
AcDbEntity
  8
0
100
AcDbSpline
 62
7
  6
BYLAYER
 70
0
 71
3
 72
12
 73
8
 74
0
 42
0.0000001
 43
0.0000001
 44
0.0000000001
 40
0.0
 40
0.0
 40
0.0
 40
0.0
 40
0.1081614766
 40
0.2183612932
 40
0.4513606919
 40
0.7104172079
 40
1.0
 40
1.0
 40
1.0
 40
1.0
 10
84.9897714002
 20
96.2950903806
 30
0.0
 10
84.9897704452
 20
96.1899048971
 30
0.0
 10
84.9714503711
 20
95.9771148588
 30
0.0
 10
84.8609628416
 20
95.55049928
 30
0.0
 10
84.5771747044
 20
95.0274128868
 30
0.0
 10
84.0486781265
 20
94.4722907426
 30
0.0
 10
83.6062948714
 20
94.1676096112
 30
0.0
 10
83.3624086692
 20
94.0268026872
 30
0.0
  0
SPLINE
  5
270
100
AcDbEntity
  8
0
100
AcDbSpline
 62
7
  6
BYLAYER
 70
0
 71
3
 72
24
 73
20
 74
0
 42
0.0000001
 43
0.0000001
 44
0.0000000001
 40
0.0
 40
0.0
 40
0.0
 40
0.0
 40
0.0623835827
 40
0.1287342367
 40
0.1983290407
 40
0.2703117407
 40
0.3436936518
 40
0.4174321303
 40
0.4904633033
 40
0.5617560234
 40
0.6303587458
 40
0.6954512374
 40
0.7564034032
 40
0.8128449806
 40
0.8647493282
 40
0.9125273378
 40
0.9571046261
 40
0.9786665506
 40
1.0
 40
1.0
 40
1.0
 40
1.0
 10
34.5325113726
 20
52.225042749
 30
0.0
 10
34.0762564219
 20
51.9616254027
 30
0.0
 10
33.0984014425
 20
51.4795230714
 30
0.0
 10
31.5210646962
 20
50.90793986
 30
0.0
 10
29.8164442976
 20
50.4752637132
 30
0.0
 10
28.0211604913
 20
50.1905498471
 30
0.0
 10
26.173162699
 20
50.059918875
 30
0.0
 10
24.3119226436
 20
50.0860890227
 30
0.0
 10
22.4771257576
 20
50.2685528326
 30
0.0
 10
20.7078952036
 20
50.6034134069
 30
0.0
 10
19.0418176546
 20
51.0835856817
 30
0.0
 10
17.5141080881
 20
51.6990442366
 30
0.0
 10
16.1568569021
 20
52.4372500633
 30
0.0
 10
14.9984811138
 20
53.2836251433
 30
0.0
 10
14.0636673012
 20
54.222525418
 30
0.0
 10
13.3739271484
 20
55.2364775952
 30
0.0
 10
13.0158082696
 20
56.1398985526
 30
0.0
 10
12.8754938103
 20
56.8668322355
 30
0.0
 10
12.8522608045
 20
57.22953669
 30
0.0
 10
12.8522604748
 20
57.4097003013
 30
0.0
  0
SPLINE
  5
271
100
AcDbEntity
  8
0
100
AcDbSpline
 62
7
  6
BYLAYER
 70
0
 71
3
 72
9
 73
5
 74
0
 42
0.0000001
 43
0.0000001
 44
0.0000000001
 40
0.0
 40
0.0
 40
0.0
 40
0.0
 40
0.241434482
 40
1.0
 40
1.0
 40
1.0
 40
1.0
 10
84.4610094881
 20
95.0684575717
 30
0.0
 10
84.4278535286
 20
95.1091248433
 30
0.0
 10
84.2860356397
 20
95.2738875202
 30
0.0
 10
84.1274579555
 20
95.4239505163
 30
0.0
 10
84.0008128554
 20
95.5294918087
 30
0.0
  0
SPLINE
  5
272
100
AcDbEntity
  8
0
100
AcDbSpline
 62
7
  6
BYLAYER
 70
0
 71
3
 72
14
 73
10
 74
0
 42
0.0000001
 43
0.0000001
 44
0.0000000001
 40
0.0
 40
0.0
 40
0.0
 40
0.0
 40
0.2892812016
 40
0.4225475615
 40
0.5484960123
 40
0.6678953944
 40
0.7818699303
 40
0.8919528992
 40
1.0
 40
1.0
 40
1.0
 40
1.0
 10
16.5719243538
 20
67.7791482626
 30
0.0
 10
16.0144562086
 20
67.4572958
 30
0.0
 10
15.2337437547
 20
66.9197816181
 30
0.0
 10
14.3504952448
 20
66.0744299313
 30
0.0
 10
13.8129476769
 20
65.422804608
 30
0.0
 10
13.3879642297
 20
64.7425532766
 30
0.0
 10
13.0803696396
 20
64.0396393846
 30
0.0
 10
12.8939584724
 20
63.3212815091
 30
0.0
 10
12.8522605575
 20
62.8349167517
 30
0.0
 10
12.852260419
 20
62.5944906131
 30
0.0
  0
SPLINE
  5
273
100
AcDbEntity
  8
0
100
AcDbSpline
 62
7
  6
BYLAYER
 70
0
 71
3
 72
13
 73
9
 74
0
 42
0.0000001
 43
0.0000001
 44
0.0000000001
 40
0.0
 40
0.0
 40
0.0
 40
0.0
 40
0.2629476924
 40
0.523588982
 40
0.6499690064
 40
0.7721159927
 40
0.8890752425
 40
1.0
 40
1.0
 40
1.0
 40
1.0
 10
27.9477919195
 20
69.7950950546
 30
0.0
 10
26.926117935
 20
69.9084339606
 30
0.0
 10
24.8730753859
 20
69.9874175792
 30
0.0
 10
22.3358429682
 20
69.7323017206
 30
0.0
 10
20.3882674271
 20
69.312988419
 30
0.0
 10
19.0178754628
 20
68.902815425
 30
0.0
 10
17.7435042709
 20
68.3998323884
 30
0.0
 10
16.9474665523
 20
67.9959663577
 30
0.0
 10
16.5719243538
 20
67.7791482626
 30
0.0
  0
SPLINE
  5
274
100
AcDbEntity
  8
0
100
AcDbSpline
 62
7
  6
BYLAYER
 70
0
 71
3
 72
11
 73
7
 74
0
 42
0.0000001
 43
0.0000001
 44
0.0000000001
 40
0.0
 40
0.0
 40
0.0
 40
0.0
 40
0.2847287167
 40
0.5423537352
 40
0.7775464863
 40
1.0
 40
1.0
 40
1.0
 40
1.0
 10
21.9156894236
 20
65.6661503448
 30
0.0
 10
21.7445797369
 20
65.5493305305
 30
0.0
 10
21.4350456705
 20
65.3005655397
 30
0.0
 10
21.0702956946
 20
64.8620623545
 30
0.0
 10
20.8423563778
 20
64.3874502936
 30
0.0
 10
20.7897178462
 20
64.0525578146
 30
0.0
 10
20.7897265754
 20
63.8906882707
 30
0.0
  0
SPLINE
  5
275
100
AcDbEntity
  8
0
100
AcDbSpline
 62
7
  6
BYLAYER
 70
0
 71
3
 72
18
 73
14
 74
0
 42
0.0000001
 43
0.0000001
 44
0.0000000001
 40
0.0
 40
0.0
 40
0.0
 40
0.0
 40
0.1463767112
 40
0.2954995108
 40
0.4417218843
 40
0.5796364427
 40
0.704951787
 40
0.7621544714
 40
0.8155704678
 40
0.8654245884
 40
0.9122063077
 40
0.956713159
 40
1.0
 40
1.0
 40
1.0
 40
1.0
 10
84.3342548814
 20
98.4628625226
 30
0.0
 10
84.4371797929
 20
98.784376971
 30
0.0
 10
84.6950110178
 20
99.418277458
 30
0.0
 10
85.2070627714
 20
100.3024259138
 30
0.0
 10
85.8244335521
 20
101.0925912954
 30
0.0
 10
86.5127537976
 20
101.7444414574
 30
0.0
 10
87.1335934361
 20
102.1552007297
 30
0.0
 10
87.6325299856
 20
102.3752967675
 30
0.0
 10
87.9884309753
 20
102.4809082149
 30
0.0
 10
88.3323233795
 20
102.530554525
 30
0.0
 10
88.6594852589
 20
102.5225972329
 30
0.0
 10
88.964774953
 20
102.4568240436
 30
0.0
 10
89.1513946793
 20
102.3738844676
 30
0.0
 10
89.2378565067
 20
102.3239767314
 30
0.0
  0
SPLINE
  5
276
100
AcDbEntity
  8
0
100
AcDbSpline
 62
7
  6
BYLAYER
 70
0
 71
3
 72
14
 73
10
 74
0
 42
0.0000001
 43
0.0000001
 44
0.0000000001
 40
0.0
 40
0.0
 40
0.0
 40
0.0
 40
0.1080456591
 40
0.21812757
 40
0.3321015656
 40
0.4515003864
 40
0.577448635
 40
0.7107160603
 40
1.0
 40
1.0
 40
1.0
 40
1.0
 10
38.2521752516
 20
57.4097003614
 30
0.0
 10
38.2521756916
 20
57.169277456
 30
0.0
 10
38.2104758122
 20
56.6829186848
 30
0.0
 10
38.0240722054
 20
55.9645659689
 30
0.0
 10
37.7164772743
 20
55.2616575683
 30
0.0
 10
37.2915028776
 20
54.5814043533
 30
0.0
 10
36.7539549831
 20
53.9297781858
 30
0.0
 10
35.8707043335
 20
53.0844175495
 30
0.0
 10
35.0899847361
 20
52.5468982243
 30
0.0
 10
34.5325113726
 20
52.225042749
 30
0.0
  0
SPLINE
  5
277
100
AcDbEntity
  8
0
100
AcDbSpline
 62
7
  6
BYLAYER
 70
0
 71
3
 72
10
 73
6
 74
0
 42
0.0000001
 43
0.0000001
 44
0.0000000001
 40
0.0
 40
0.0
 40
0.0
 40
0.0
 40
0.2429414765
 40
0.4889426896
 40
1.0
 40
1.0
 40
1.0
 40
1.0
 10
38.2522112221
 20
62.5944906801
 30
0.0
 10
38.2522210196
 20
62.7887727202
 30
0.0
 10
38.225068381
 20
63.1803778396
 30
0.0
 10
38.0616530181
 20
63.9650273074
 30
0.0
 10
37.8193674245
 20
64.5289201487
 30
0.0
 10
37.6171582339
 20
64.8840877471
 30
0.0
  0
SPLINE
  5
278
100
AcDbEntity
  8
0
100
AcDbSpline
 62
7
  6
BYLAYER
 70
0
 71
3
 72
9
 73
5
 74
0
 42
0.0000001
 43
0.0000001
 44
0.0000000001
 40
0.0
 40
0.0
 40
0.0
 40
0.0
 40
0.2478347841
 40
1.0
 40
1.0
 40
1.0
 40
1.0
 10
83.5485270172
 20
95.7100669798
 30
0.0
 10
83.5809041807
 20
95.6913729922
 30
0.0
 10
83.7144579118
 20
95.6210571168
 30
0.0
 10
83.8591136369
 20
95.5722413268
 30
0.0
 10
83.9699351535
 20
95.547887966
 30
0.0
  0
SPLINE
  5
279
100
AcDbEntity
  8
0
100
AcDbSpline
 62
7
  6
BYLAYER
 70
0
 71
3
 72
17
 73
13
 74
0
 42
0.0000001
 43
0.0000001
 44
0.0000000001
 40
0.0
 40
0.0
 40
0.0
 40
0.0
 40
0.1458692401
 40
0.2948421329
 40
0.4411765741
 40
0.5793559986
 40
0.7049628679
 40
0.8155663667
 40
0.8654696039
 40
0.9122652453
 40
0.9567519951
 40
1.0
 40
1.0
 40
1.0
 40
1.0
 10
88.9166130576
 20
95.5408802385
 30
0.0
 10
89.0279571742
 20
95.9013496691
 30
0.0
 10
89.3102028643
 20
96.6132541048
 30
0.0
 10
89.8764216651
 20
97.6078557753
 30
0.0
 10
90.5631924496
 20
98.4989286731
 30
0.0
 10
91.3323972336
 20
99.2360825787
 30
0.0
 10
92.1412338678
 20
99.7781927858
 30
0.0
 10
92.8390126107
 20
100.0507983959
 30
0.0
 10
93.3714016202
 20
100.1301100397
 30
0.0
 10
93.7384820217
 20
100.1226790432
 30
0.0
 10
94.0809271093
 20
100.0497147006
 30
0.0
 10
94.2902121643
 20
99.9570040813
 30
0.0
 10
94.3870786418
 20
99.9010697285
 30
0.0
  0
SPLINE
  5
27A
100
AcDbEntity
  8
0
100
AcDbSpline
 62
7
  6
BYLAYER
 70
0
 71
3
 72
20
 73
16
 74
0
 42
0.0000001
 43
0.0000001
 44
0.0000000001
 40
0.0
 40
0.0
 40
0.0
 40
0.0
 40
0.0624056721
 40
0.1288061008
 40
0.2703014328
 40
0.4173599795
 40
0.5616151509
 40
0.6302533381
 40
0.6953807168
 40
0.7563642102
 40
0.8128342156
 40
0.8647659684
 40
0.9125689836
 40
0.9571687928
 40
1.0
 40
1.0
 40
1.0
 40
1.0
 10
83.3624086692
 20
94.0268026872
 30
0.0
 10
83.1628288236
 20
93.9115758974
 30
0.0
 10
82.7349628552
 20
93.7006563687
 30
0.0
 10
81.7950752909
 20
93.3601303617
 30
0.0
 10
80.5015756314
 20
93.1013325434
 30
0.0
 10
78.8972393494
 20
93.0570942951
 30
0.0
 10
77.5732172961
 20
93.2427824151
 30
0.0
 10
76.5852816194
 20
93.5273983557
 30
0.0
 10
75.9168616328
 20
93.796667189
 30
0.0
 10
75.3230757277
 20
94.1196393829
 30
0.0
 10
74.8162988036
 20
94.4899684091
 30
0.0
 10
74.4072969848
 20
94.9006508099
 30
0.0
 10
74.105533995
 20
95.3444862432
 30
0.0
 10
73.9196295296
 20
95.8126825973
 30
0.0
 10
73.8772866
 20
96.1369212757
 30
0.0
 10
73.8773022607
 20
96.2950903786
 30
0.0
  0
SPLINE
  5
27B
100
AcDbEntity
  8
0
100
AcDbSpline
 62
7
  6
BYLAYER
 70
0
 71
3
 72
11
 73
7
 74
0
 42
0.0000001
 43
0.0000001
 44
0.0000000001
 40
0.0
 40
0.0
 40
0.0
 40
0.0
 40
0.2776551341
 40
0.5362542494
 40
0.7763268864
 40
1.0
 40
1.0
 40
1.0
 40
1.0
 10
72.978944299
 20
100.0215630169
 30
0.0
 10
72.7104593751
 20
99.8665540991
 30
0.0
 10
72.2074015459
 20
99.5388496732
 30
0.0
 10
71.544923894
 20
98.975676662
 30
0.0
 10
71.0120193119
 20
98.3660345493
 30
0.0
 10
70.7410686932
 20
97.9206695986
 30
0.0
 10
70.6334818713
 20
97.6952863446
 30
0.0
  0
SPLINE
  5
27C
100
AcDbEntity
  8
0
100
AcDbSpline
 62
7
  6
BYLAYER
 70
0
 71
3
 72
10
 73
6
 74
0
 42
0.0000001
 43
0.0000001
 44
0.0000000001
 40
0.0
 40
0.0
 40
0.0
 40
0.0
 40
0.5221486774
 40
0.7677048305
 40
1.0
 40
1.0
 40
1.0
 40
1.0
 10
77.0082117598
 20
101.3757163925
 30
0.0
 10
76.2741627485
 20
101.2589163669
 30
0.0
 10
75.2040395781
 20
101.0057163284
 30
0.0
 10
73.8743429252
 20
100.49337149
 30
0.0
 10
73.2653170581
 20
100.1868994195
 30
0.0
 10
72.978944299
 20
100.0215630169
 30
0.0
  0
SPLINE
  5
27D
100
AcDbEntity
  8
0
100
AcDbSpline
 62
7
  6
BYLAYER
 70
0
 71
3
 72
12
 73
8
 74
0
 42
0.0000001
 43
0.0000001
 44
0.0000000001
 40
0.0
 40
0.0
 40
0.0
 40
0.0
 40
0.1081616709
 40
0.2183647622
 40
0.4513663513
 40
0.7104188646
 40
1.0
 40
1.0
 40
1.0
 40
1.0
 10
91.2411399779
 20
90.7189406351
 30
0.0
 10
91.3192225526
 20
90.6738614086
 30
0.0
 10
91.4850086684
 20
90.5961984219
 30
0.0
 10
91.849089426
 20
90.4954889794
 30
0.0
 10
92.3589964892
 20
90.4819051694
 30
0.0
 10
92.9975860025
 20
90.6363230226
 30
0.0
 10
93.4133473962
 20
90.8341306367
 30
0.0
 10
93.6223942444
 20
90.9548273593
 30
0.0
  0
SPLINE
  5
27E
100
AcDbEntity
  8
0
100
AcDbSpline
 62
7
  6
BYLAYER
 70
0
 71
3
 72
10
 73
6
 74
0
 42
0.0000001
 43
0.0000001
 44
0.0000000001
 40
0.0
 40
0.0
 40
0.0
 40
0.0
 40
0.2370058727
 40
0.4797958828
 40
1.0
 40
1.0
 40
1.0
 40
1.0
 10
89.6246781036
 20
91.6521633382
 30
0.0
 10
89.5360376574
 20
91.703319532
 30
0.0
 10
89.3662857953
 20
91.8248197486
 30
0.0
 10
89.0674120964
 20
92.1392043013
 30
0.0
 10
88.9092032775
 20
92.4368170172
 30
0.0
 10
88.8308964388
 20
92.6473587698
 30
0.0
  0
SPLINE
  5
27F
100
AcDbEntity
  8
0
100
AcDbSpline
 62
7
  6
BYLAYER
 70
0
 71
3
 72
18
 73
14
 74
0
 42
0.0000001
 43
0.0000001
 44
0.0000000001
 40
0.0
 40
0.0
 40
0.0
 40
0.0
 40
0.0428464373
 40
0.087463075
 40
0.1352817672
 40
0.1872331662
 40
0.2437231281
 40
0.3047269303
 40
0.4383588153
 40
0.5826638708
 40
0.7297856859
 40
0.8713383083
 40
1.0
 40
1.0
 40
1.0
 40
1.0
 10
96.1116070662
 20
89.6667825826
 30
0.0
 10
96.1914518936
 20
89.6207030873
 30
0.0
 10
96.3674256331
 20
89.5475175229
 30
0.0
 10
96.6579454942
 20
89.505008173
 30
0.0
 10
96.9699134642
 20
89.5279049119
 30
0.0
 10
97.2963948282
 20
89.6146921823
 30
0.0
 10
97.6310251044
 20
89.7625549532
 30
0.0
 10
98.0929731032
 20
90.0452712409
 30
0.0
 10
98.6432575181
 20
90.5326504315
 30
0.0
 10
99.2087865375
 20
91.2566786846
 30
0.0
 10
99.6542845477
 20
92.0800399568
 30
0.0
 10
99.9433331123
 20
92.9346210303
 30
0.0
 10
100.0207761091
 20
93.5166788677
 30
0.0
 10
100.0207761091
 20
93.7935043713
 30
0.0
  0
SPLINE
  5
280
100
AcDbEntity
  8
0
100
AcDbSpline
 62
7
  6
BYLAYER
 70
0
 71
3
 72
15
 73
11
 74
0
 42
0.0000001
 43
0.0000001
 44
0.0000000001
 40
0.0
 40
0.0
 40
0.0
 40
0.0
 40
0.1141398244
 40
0.2373462088
 40
0.3669833061
 40
0.5000099792
 40
0.6330284674
 40
0.7626774964
 40
0.8858479297
 40
1.0
 40
1.0
 40
1.0
 40
1.0
 10
75.7964725037
 20
102.4907454482
 30
0.0
 10
75.7964725037
 20
102.6717369177
 30
0.0
 10
75.8296695212
 20
103.0484425952
 30
0.0
 10
75.9617811214
 20
103.6167332015
 30
0.0
 10
76.1735945507
 20
104.1923552016
 30
0.0
 10
76.4569259295
 20
104.753657415
 30
0.0
 10
76.8013403291
 20
105.2797231147
 30
0.0
 10
77.1939520793
 20
105.7508883929
 30
0.0
 10
77.6199969326
 20
106.1494756674
 30
0.0
 10
77.929630455
 20
106.3665211777
 30
0.0
 10
78.0863887135
 20
106.4570296846
 30
0.0
  0
SPLINE
  5
281
100
AcDbEntity
  8
0
100
AcDbSpline
 62
7
  6
BYLAYER
 70
0
 71
3
 72
9
 73
5
 74
0
 42
0.0000001
 43
0.0000001
 44
0.0000000001
 40
0.0
 40
0.0
 40
0.0
 40
0.0
 40
0.2695791328
 40
1.0
 40
1.0
 40
1.0
 40
1.0
 10
22.8581298104
 20
66.0941843357
 30
0.0
 10
22.7784437953
 20
66.048177868
 30
0.0
 10
22.4898729732
 20
65.8663956666
 30
0.0
 10
22.228657804
 20
65.635703488
 30
0.0
 10
22.075736805
 20
65.4388022932
 30
0.0
  0
SPLINE
  5
282
100
AcDbEntity
  8
0
100
AcDbSpline
 62
7
  6
BYLAYER
 70
0
 71
3
 72
10
 73
6
 74
0
 42
0.0000001
 43
0.0000001
 44
0.0000000001
 40
0.0
 40
0.0
 40
0.0
 40
0.0
 40
0.5183079936
 40
0.761741336
 40
1.0
 40
1.0
 40
1.0
 40
1.0
 10
22.075736805
 20
65.4388022932
 30
0.0
 10
21.9723900194
 20
65.3057328934
 30
0.0
 10
21.8444535052
 20
65.087604062
 30
0.0
 10
21.7567615541
 20
64.7732198359
 30
0.0
 10
21.7422268471
 20
64.6162383003
 30
0.0
 10
21.7422401192
 20
64.5387870621
 30
0.0
  0
SPLINE
  5
283
100
AcDbEntity
  8
0
100
AcDbSpline
 62
7
  6
BYLAYER
 70
0
 71
3
 72
19
 73
15
 74
0
 42
0.0000001
 43
0.0000001
 44
0.0000000001
 40
0.0
 40
0.0
 40
0.0
 40
0.0
 40
0.042795869
 40
0.0872406797
 40
0.1346923476
 40
0.1860572938
 40
0.2417688336
 40
0.3018651516
 40
0.3660552907
 40
0.4338010194
 40
0.5768082133
 40
0.7239497268
 40
0.867401934
 40
1.0
 40
1.0
 40
1.0
 40
1.0
 10
20.7897265754
 20
63.8906882707
 30
0.0
 10
20.7897336253
 20
63.7599560971
 30
0.0
 10
20.8233549425
 20
63.4923907516
 30
0.0
 10
20.9714587532
 20
63.1048941996
 30
0.0
 10
21.2122673143
 20
62.7359966713
 30
0.0
 10
21.5395255883
 20
62.3927470527
 30
0.0
 10
21.9459604077
 20
62.0807133626
 30
0.0
 10
22.4235591146
 20
61.8054958086
 30
0.0
 10
22.9629824092
 20
61.5720591016
 30
0.0
 10
23.7647422586
 20
61.3179714949
 30
0.0
 10
24.8487222726
 20
61.1349618865
 30
0.0
 10
26.1788745899
 20
61.1288700006
 30
0.0
 10
27.4611505222
 20
61.3323852589
 30
0.0
 10
28.2634909441
 20
61.6134677499
 30
0.0
 10
28.627482632
 20
61.7911823927
 30
0.0
  0
SPLINE
  5
284
100
AcDbEntity
  8
0
100
AcDbSpline
 62
7
  6
BYLAYER
 70
0
 71
3
 72
17
 73
13
 74
0
 42
0.0000001
 43
0.0000001
 44
0.0000000001
 40
0.0
 40
0.0
 40
0.0
 40
0.0
 40
0.0430716174
 40
0.0874633215
 40
0.1343047116
 40
0.1844189544
 40
0.2958886923
 40
0.4226832016
 40
0.5618841943
 40
0.7085360139
 40
0.8566260374
 40
1.0
 40
1.0
 40
1.0
 40
1.0
 10
83.1617117551
 20
106.3818917065
 30
0.0
 10
83.0613587289
 20
106.4398393239
 30
0.0
 10
82.843814724
 20
106.5351885339
 30
0.0
 10
82.4872355895
 20
106.6070804135
 30
0.0
 10
82.1047700594
 20
106.6085623986
 30
0.0
 10
81.5496367347
 20
106.5145653589
 30
0.0
 10
80.8246569003
 20
106.2117894782
 30
0.0
 10
79.9904714138
 20
105.6226626164
 30
0.0
 10
79.2054240523
 20
104.8305869698
 30
0.0
 10
78.516424861
 20
103.8828712937
 30
0.0
 10
77.9646054322
 20
102.8370094177
 30
0.0
 10
77.7026608011
 20
102.0938872592
 30
0.0
 10
77.6055295521
 20
101.7205759222
 30
0.0
  0
SPLINE
  5
285
100
AcDbEntity
  8
0
100
AcDbSpline
 62
7
  6
BYLAYER
 70
0
 71
3
 72
15
 73
11
 74
0
 42
0.0000001
 43
0.0000001
 44
0.0000000001
 40
0.0
 40
0.0
 40
0.0
 40
0.0
 40
0.1183161135
 40
0.2470777704
 40
0.3823727519
 40
0.5196327698
 40
0.6540213074
 40
0.7810392242
 40
0.8970531141
 40
1.0
 40
1.0
 40
1.0
 40
1.0
 10
84.1762024351
 20
98.5471689982
 30
0.0
 10
84.1762024351
 20
98.6888656755
 30
0.0
 10
84.2069562283
 20
98.9850805211
 30
0.0
 10
84.3266779286
 20
99.4286621146
 30
0.0
 10
84.51626136
 20
99.8719557221
 30
0.0
 10
84.7658743535
 20
100.2921663003
 30
0.0
 10
85.0628485249
 20
100.6678970416
 30
0.0
 10
85.3922362942
 20
100.9800951951
 30
0.0
 10
85.7373899084
 20
101.2129463856
 30
0.0
 10
85.9828034244
 20
101.3134422787
 30
0.0
 10
86.1023536696
 20
101.3435793368
 30
0.0
  0
SPLINE
  5
286
100
AcDbEntity
  8
0
100
AcDbSpline
 62
7
  6
BYLAYER
 70
0
 71
3
 72
19
 73
15
 74
0
 42
0.0000001
 43
0.0000001
 44
0.0000000001
 40
0.0
 40
0.0
 40
0.0
 40
0.0
 40
0.1286350406
 40
0.270156863
 40
0.4172486848
 40
0.5615306324
 40
0.6301810302
 40
0.6953209024
 40
0.7563155055
 40
0.8127959568
 40
0.8647387705
 40
0.9125497195
 40
0.9571593996
 40
1.0
 40
1.0
 40
1.0
 40
1.0
 10
28.246305916
 20
62.3352909926
 30
0.0
 10
27.964268144
 20
62.172457381
 30
0.0
 10
27.3257195034
 20
61.9089828765
 30
0.0
 10
26.2849394217
 20
61.7007881257
 30
0.0
 10
25.1843563472
 20
61.6703406369
 30
0.0
 10
24.2765613659
 20
61.7976644779
 30
0.0
 10
23.5991310626
 20
61.9928684085
 30
0.0
 10
23.1407891759
 20
62.1774856048
 30
0.0
 10
22.7336315919
 20
62.3989606828
 30
0.0
 10
22.3861362669
 20
62.6528974107
 30
0.0
 10
22.105649236
 20
62.9344833532
 30
0.0
 10
21.8988010147
 20
63.2388663244
 30
0.0
 10
21.7712145162
 20
63.5598786319
 30
0.0
 10
21.7422599278
 20
63.782227604
 30
0.0
 10
21.7422406925
 20
63.8906882656
 30
0.0
  0
SPLINE
  5
287
100
AcDbEntity
  8
0
100
AcDbSpline
 62
7
  6
BYLAYER
 70
0
 71
3
 72
9
 73
5
 74
0
 42
0.0000001
 43
0.0000001
 44
0.0000000001
 40
0.0
 40
0.0
 40
0.0
 40
0.0
 40
0.2409641693
 40
1.0
 40
1.0
 40
1.0
 40
1.0
 10
84.2026516761
 20
98.2371477222
 30
0.0
 10
84.1982042331
 20
98.2617599843
 30
0.0
 10
84.1823045569
 20
98.364356803
 30
0.0
 10
84.1762024351
 20
98.4683849194
 30
0.0
 10
84.1762024351
 20
98.5471689982
 30
0.0
  0
SPLINE
  5
288
100
AcDbEntity
  8
0
100
AcDbSpline
 62
7
  6
BYLAYER
 70
0
 71
3
 72
24
 73
20
 74
0
 42
0.0000001
 43
0.0000001
 44
0.0000000001
 40
0.0
 40
0.0
 40
0.0
 40
0.0
 40
0.0213336774
 40
0.0428958866
 40
0.0874738366
 40
0.1352525772
 40
0.1871575809
 40
0.2435995589
 40
0.3045517828
 40
0.36964393
 40
0.43824589
 40
0.5095375245
 40
0.5825675268
 40
0.656305052
 40
0.7296864273
 40
0.8016690814
 40
0.8712640709
 40
0.9376157462
 40
1.0
 40
1.0
 40
1.0
 40
1.0
 10
12.852260419
 20
62.5944906131
 30
0.0
 10
12.8522603152
 20
62.4143250807
 30
0.0
 10
12.8754931028
 20
62.0516161433
 30
0.0
 10
13.0158139748
 20
61.3246735556
 30
0.0
 10
13.3739403097
 20
60.4212402759
 30
0.0
 10
14.0636975406
 20
59.40727816
 30
0.0
 10
14.9985298868
 20
58.4683750855
 30
0.0
 10
16.1569190002
 20
57.6220024821
 30
0.0
 10
17.5141749293
 20
56.8838036054
 30
0.0
 10
19.0418787124
 20
56.2683547245
 30
0.0
 10
20.7079399084
 20
55.7881929875
 30
0.0
 10
22.4771460043
 20
55.4533411371
 30
0.0
 10
24.3119158036
 20
55.2708806937
 30
0.0
 10
26.1731332294
 20
55.2447086123
 30
0.0
 10
28.021118287
 20
55.3753355011
 30
0.0
 10
29.8163990513
 20
55.6600462604
 30
0.0
 10
31.5210305009
 20
56.0927188941
 30
0.0
 10
33.0983822977
 20
56.6643071043
 30
0.0
 10
34.0762515246
 20
57.1464129241
 30
0.0
 10
34.5325113726
 20
57.4098330977
 30
0.0
  0
SPLINE
  5
289
100
AcDbEntity
  8
0
100
AcDbSpline
 62
7
  6
BYLAYER
 70
0
 71
3
 72
12
 73
8
 74
0
 42
0.0000001
 43
0.0000001
 44
0.0000000001
 40
0.0
 40
0.0
 40
0.0
 40
0.0
 40
0.1081584901
 40
0.2183601168
 40
0.4513543885
 40
0.710428095
 40
1.0
 40
1.0
 40
1.0
 40
1.0
 10
73.8773022607
 20
96.2950903786
 30
0.0
 10
73.8773126751
 20
96.4002728288
 30
0.0
 10
73.8955846155
 20
96.6130656811
 30
0.0
 10
74.0061340024
 20
97.0396615978
 30
0.0
 10
74.289864023
 20
97.5627832742
 30
0.0
 10
74.8184004243
 20
98.117882361
 30
0.0
 10
75.2607751132
 20
98.4225766135
 30
0.0
 10
75.5046518485
 20
98.5633780718
 30
0.0
  0
SPLINE
  5
28A
100
AcDbEntity
  8
0
100
AcDbSpline
 62
7
  6
BYLAYER
 70
0
 71
3
 72
18
 73
14
 74
0
 42
0.0000001
 43
0.0000001
 44
0.0000000001
 40
0.0
 40
0.0
 40
0.0
 40
0.0
 40
0.1286562053
 40
0.2702007847
 40
0.4173204088
 40
0.5616284919
 40
0.6952637904
 40
0.7562696923
 40
0.812760981
 40
0.8647134292
 40
0.9125330769
 40
0.9571512414
 40
1.0
 40
1.0
 40
1.0
 40
1.0
 10
92.410015496
 20
92.8991289208
 30
0.0
 10
92.410015496
 20
93.1759432801
 30
0.0
 10
92.4874513639
 20
93.7579731355
 30
0.0
 10
92.7764736409
 20
94.6125293109
 30
0.0
 10
93.2219534556
 20
95.4358850115
 30
0.0
 10
93.7874733188
 20
96.1599354175
 30
0.0
 10
94.337768066
 20
96.6473330374
 30
0.0
 10
94.7997231242
 20
96.9300687886
 30
0.0
 10
95.134362022
 20
97.0779380311
 30
0.0
 10
95.460848956
 20
97.1647351154
 30
0.0
 10
95.7728251295
 20
97.1876367836
 30
0.0
 10
96.0633567384
 20
97.1451280771
 30
0.0
 10
96.2393378431
 20
97.0719373921
 30
0.0
 10
96.3191875668
 20
97.025855949
 30
0.0
  0
SPLINE
  5
28B
100
AcDbEntity
  8
0
100
AcDbSpline
 62
7
  6
BYLAYER
 70
0
 71
3
 72
19
 73
15
 74
0
 42
0.0000001
 43
0.0000001
 44
0.0000000001
 40
0.0
 40
0.0
 40
0.0
 40
0.0
 40
0.0428388124
 40
0.0874476646
 40
0.1352580075
 40
0.1872002886
 40
0.2436803294
 40
0.3046735606
 40
0.3698119872
 40
0.4384607186
 40
0.5827415066
 40
0.7298371791
 40
0.8713635881
 40
1.0
 40
1.0
 40
1.0
 40
1.0
 10
21.7422401192
 20
64.5387870621
 30
0.0
 10
21.7422587044
 20
64.4303309225
 30
0.0
 10
21.7712052188
 20
64.2079875797
 30
0.0
 10
21.8987917231
 20
63.8869833409
 30
0.0
 10
22.1056335586
 20
63.5826032127
 30
0.0
 10
22.3861107831
 20
63.3010123503
 30
0.0
 10
22.733603648
 20
63.0470820834
 30
0.0
 10
23.1407482501
 20
62.8256010148
 30
0.0
 10
23.5990790715
 20
62.640985646
 30
0.0
 10
24.2764975085
 20
62.4457804086
 30
0.0
 10
25.1842933396
 20
62.3184448681
 30
0.0
 10
26.2848955999
 20
62.3488817285
 30
0.0
 10
27.3257017529
 20
62.5570752119
 30
0.0
 10
27.9642651252
 20
62.8205544317
 30
0.0
 10
28.246305916
 20
62.9833897862
 30
0.0
  0
SPLINE
  5
28C
100
AcDbEntity
  8
0
100
AcDbSpline
 62
7
  6
BYLAYER
 70
0
 71
3
 72
12
 73
8
 74
0
 42
0.0000001
 43
0.0000001
 44
0.0000000001
 40
0.0
 40
0.0
 40
0.0
 40
0.0
 40
0.2895525055
 40
0.5486476544
 40
0.7816290665
 40
0.891837163
 40
1.0
 40
1.0
 40
1.0
 40
1.0
 10
90.254754027
 20
92.8991237402
 30
0.0
 10
90.254754027
 20
92.6577562838
 30
0.0
 10
90.291367373
 20
92.1987848969
 30
0.0
 10
90.4768625959
 20
91.568508659
 30
0.0
 10
90.7436588746
 20
91.1337231777
 30
0.0
 10
91.0128931737
 20
90.8687636385
 30
0.0
 10
91.1630555651
 20
90.7640209227
 30
0.0
 10
91.2411399779
 20
90.7189406351
 30
0.0
  0
SPLINE
  5
28D
100
AcDbEntity
  8
0
100
AcDbSpline
 62
7
  6
BYLAYER
 70
0
 71
3
 72
17
 73
13
 74
0
 42
0.0000001
 43
0.0000001
 44
0.0000000001
 40
0.0
 40
0.0
 40
0.0
 40
0.0
 40
0.0431673192
 40
0.0876082185
 40
0.134416276
 40
0.1844068793
 40
0.2953717605
 40
0.4214829665
 40
0.5601036113
 40
0.7065871284
 40
0.8552063756
 40
1.0
 40
1.0
 40
1.0
 40
1.0
 10
87.8346856481
 20
103.1340794827
 30
0.0
 10
87.746142786
 20
103.1851884474
 30
0.0
 10
87.5546084299
 20
103.2697193865
 30
0.0
 10
87.2409115275
 20
103.3349061223
 30
0.0
 10
86.904575718
 20
103.3394337448
 30
0.0
 10
86.4166106794
 20
103.2623164281
 30
0.0
 10
85.7780021779
 20
103.0054564229
 30
0.0
 10
85.0400914847
 20
102.4994167646
 30
0.0
 10
84.3414333268
 20
101.8147353042
 30
0.0
 10
83.7221237202
 20
100.9907088377
 30
0.0
 10
83.217740329
 20
100.0754476057
 30
0.0
 10
82.9712051728
 20
99.4224241283
 30
0.0
 10
82.8763300961
 20
99.0928894203
 30
0.0
  0
SPLINE
  5
28E
100
AcDbEntity
  8
0
100
AcDbSpline
 62
7
  6
BYLAYER
 70
0
 71
3
 72
17
 73
13
 74
0
 42
0.0000001
 43
0.0000001
 44
0.0000000001
 40
0.0
 40
0.0
 40
0.0
 40
0.0
 40
0.144793611
 40
0.2934128452
 40
0.4398963575
 40
0.5785170024
 40
0.7046282134
 40
0.8155931025
 40
0.8655837101
 40
0.9123917723
 40
0.9568326757
 40
1.0
 40
1.0
 40
1.0
 40
1.0
 10
77.9652320832
 20
101.9282490357
 30
0.0
 10
78.0601071511
 20
102.257783713
 30
0.0
 10
78.306642276
 20
102.9108071342
 30
0.0
 10
78.8110256192
 20
103.8260683065
 30
0.0
 10
79.4303351731
 20
104.6500947582
 30
0.0
 10
80.1289933079
 20
105.3347762415
 30
0.0
 10
80.8669040034
 20
105.8408159502
 30
0.0
 10
81.5055125304
 20
106.097675998
 30
0.0
 10
81.9934776033
 20
106.1747933541
 30
0.0
 10
82.3298134445
 20
106.1702657413
 30
0.0
 10
82.6435103807
 20
106.1050790043
 30
0.0
 10
82.835044757
 20
106.0205480589
 30
0.0
 10
82.9235876329
 20
105.9694390941
 30
0.0
  0
SPLINE
  5
28F
100
AcDbEntity
  8
0
100
AcDbSpline
 62
7
  6
BYLAYER
 70
0
 71
3
 72
15
 73
11
 74
0
 42
0.0000001
 43
0.0000001
 44
0.0000000001
 40
0.0
 40
0.0
 40
0.0
 40
0.0
 40
0.1122895842
 40
0.232712286
 40
0.3593548892
 40
0.4899331452
 40
0.6218777484
 40
0.7525339737
 40
0.8793631403
 40
1.0
 40
1.0
 40
1.0
 40
1.0
 10
75.5046518485
 20
98.5633780718
 30
0.0
 10
75.7417396643
 20
98.700259969
 30
0.0
 10
76.2555751891
 20
98.9459139214
 30
0.0
 10
77.0893514648
 20
99.221103974
 30
0.0
 10
77.9924126344
 20
99.4096929292
 30
0.0
 10
78.9379199497
 20
99.506211386
 30
0.0
 10
79.8980813501
 20
99.507732003
 30
0.0
 10
80.8445920674
 20
99.4143153729
 30
0.0
 10
81.7492562578
 20
99.228630604
 30
0.0
 10
82.3245591652
 20
99.0412139574
 30
0.0
 10
82.5976419946
 20
98.9319897303
 30
0.0
  0
SPLINE
  5
290
100
AcDbEntity
  8
0
100
AcDbSpline
 62
7
  6
BYLAYER
 70
0
 71
3
 72
19
 73
15
 74
0
 42
0.0000001
 43
0.0000001
 44
0.0000000001
 40
0.0
 40
0.0
 40
0.0
 40
0.0
 40
0.1325967838
 40
0.2760452342
 40
0.423183766
 40
0.5661920458
 40
0.6339391795
 40
0.6981303391
 40
0.7582276233
 40
0.8139395136
 40
0.8653046523
 40
0.9127570058
 40
0.9572026356
 40
1.0
 40
1.0
 40
1.0
 40
1.0
 10
28.627482632
 20
60.4949848055
 30
0.0
 10
28.2634944817
 20
60.3172718899
 30
0.0
 10
27.4611692498
 20
60.0361934755
 30
0.0
 10
26.1789190784
 20
59.8326759308
 30
0.0
 10
24.8487840887
 20
59.8387561617
 30
0.0
 10
23.7648045874
 20
60.0217582838
 30
0.0
 10
22.963031634
 20
60.2758407632
 30
0.0
 10
22.4235991154
 20
60.5092817379
 30
0.0
 10
21.9459887681
 20
60.7844931076
 30
0.0
 10
21.5395490987
 20
61.0965291235
 30
0.0
 10
21.2122885707
 20
61.43978021
 30
0.0
 10
20.9714643921
 20
61.808675067
 30
0.0
 10
20.823366053
 20
62.1961827603
 30
0.0
 10
20.7897320624
 20
62.4637539527
 30
0.0
 10
20.7897279856
 20
62.5944906882
 30
0.0
  0
SPLINE
  5
291
100
AcDbEntity
  8
0
100
AcDbSpline
 62
7
  6
BYLAYER
 70
0
 71
3
 72
11
 73
7
 74
0
 42
0.0000001
 43
0.0000001
 44
0.0000000001
 40
0.0
 40
0.0
 40
0.0
 40
0.0
 40
0.2785316403
 40
0.5343079768
 40
0.7720996983
 40
1.0
 40
1.0
 40
1.0
 40
1.0
 10
84.0008128554
 20
98.121886983
 30
0.0
 10
84.153599312
 20
97.9945604613
 30
0.0
 10
84.4289881292
 20
97.7273785327
 30
0.0
 10
84.7479494183
 20
97.2729972167
 30
0.0
 10
84.9448622426
 20
96.7918255389
 30
0.0
 10
84.9897728777
 20
96.4578231984
 30
0.0
 10
84.9897714002
 20
96.2950903806
 30
0.0
  0
SPLINE
  5
292
100
AcDbEntity
  8
0
100
AcDbSpline
 62
7
  6
BYLAYER
 70
0
 71
3
 72
11
 73
7
 74
0
 42
0.0000001
 43
0.0000001
 44
0.0000000001
 40
0.0
 40
0.0
 40
0.0
 40
0.0
 40
0.2776551341
 40
0.5362542494
 40
0.7763268864
 40
1.0
 40
1.0
 40
1.0
 40
1.0
 10
85.8881162188
 20
92.5686177422
 30
0.0
 10
86.1566011427
 20
92.72362666
 30
0.0
 10
86.6596589719
 20
93.0513310858
 30
0.0
 10
87.3221366238
 20
93.6145040971
 30
0.0
 10
87.8550412058
 20
94.2241462098
 30
0.0
 10
88.1259918246
 20
94.6695111605
 30
0.0
 10
88.2335786465
 20
94.8948944145
 30
0.0
  0
SPLINE
  5
293
100
AcDbEntity
  8
0
100
AcDbSpline
 62
7
  6
BYLAYER
 70
0
 71
3
 72
10
 73
6
 74
0
 42
0.0000001
 43
0.0000001
 44
0.0000000001
 40
0.0
 40
0.0
 40
0.0
 40
0.0
 40
0.5221486774
 40
0.7677048305
 40
1.0
 40
1.0
 40
1.0
 40
1.0
 10
81.858848758
 20
91.2144643666
 30
0.0
 10
82.5928977693
 20
91.3312643922
 30
0.0
 10
83.6630209397
 20
91.5844644307
 30
0.0
 10
84.9927175926
 20
92.0968092691
 30
0.0
 10
85.6017434597
 20
92.4032813396
 30
0.0
 10
85.8881162188
 20
92.5686177422
 30
0.0
  0
SPLINE
  5
294
100
AcDbEntity
  8
0
100
AcDbSpline
 62
7
  6
BYLAYER
 70
0
 71
3
 72
14
 73
10
 74
0
 42
0.0000001
 43
0.0000001
 44
0.0000000001
 40
0.0
 40
0.0
 40
0.0
 40
0.0
 40
0.2892833505
 40
0.4225426792
 40
0.5484964531
 40
0.6678960646
 40
0.7818694277
 40
0.891954091
 40
1.0
 40
1.0
 40
1.0
 40
1.0
 10
34.5325113726
 20
57.4098330977
 30
0.0
 10
35.0899836993
 20
57.7316879744
 30
0.0
 10
35.8706808997
 20
58.269203752
 30
0.0
 10
36.7539392336
 20
59.1145469498
 30
0.0
 10
37.2914757705
 20
59.7661773936
 30
0.0
 10
37.7164835557
 20
60.4464220767
 30
0.0
 10
38.0240940169
 20
61.1493379765
 30
0.0
 10
38.2104160015
 20
61.8677120808
 30
0.0
 10
38.2521990976
 20
62.3540671763
 30
0.0
 10
38.2522112221
 20
62.5944906801
 30
0.0
  0
SPLINE
  5
295
100
AcDbEntity
  8
0
100
AcDbSpline
 62
7
  6
BYLAYER
 70
0
 71
3
 72
9
 73
5
 74
0
 42
0.0000001
 43
0.0000001
 44
0.0000000001
 40
0.0
 40
0.0
 40
0.0
 40
0.0
 40
0.4831989114
 40
1.0
 40
1.0
 40
1.0
 40
1.0
 10
88.6383490901
 20
93.8531289183
 30
0.0
 10
88.6393897692
 20
94.0790427245
 30
0.0
 10
88.676294125
 20
94.5467361842
 30
0.0
 10
88.7700537442
 20
95.0059129513
 30
0.0
 10
88.8308964388
 20
95.2397539442
 30
0.0
  0
SPLINE
  5
296
100
AcDbEntity
  8
0
100
AcDbSpline
 62
7
  6
BYLAYER
 70
0
 71
3
 72
11
 73
7
 74
0
 42
0.0000001
 43
0.0000001
 44
0.0000000001
 40
0.0
 40
0.0
 40
0.0
 40
0.0
 40
0.2210199994
 40
0.4593245305
 40
0.7186886881
 40
1.0
 40
1.0
 40
1.0
 40
1.0
 10
73.985639598
 20
95.6292570466
 30
0.0
 10
74.0407010566
 20
95.7877919724
 30
0.0
 10
74.195815174
 20
96.1040225907
 30
0.0
 10
74.534076687
 20
96.5361992477
 30
0.0
 10
74.9760314265
 20
96.9330825404
 30
0.0
 10
75.3196643199
 20
97.1603785227
 30
0.0
 10
75.5046518485
 20
97.2671804846
 30
0.0
  0
SPLINE
  5
297
100
AcDbEntity
  8
0
100
AcDbSpline
 62
7
  6
BYLAYER
 70
0
 71
3
 72
20
 73
16
 74
0
 42
0.0000001
 43
0.0000001
 44
0.0000000001
 40
0.0
 40
0.0
 40
0.0
 40
0.0
 40
0.0428318716
 40
0.0874330731
 40
0.135236668
 40
0.1871667088
 40
0.2436380663
 40
0.3046218483
 40
0.3697465264
 40
0.4383847847
 40
0.5826380115
 40
0.7297007251
 40
0.8711933424
 40
0.9376007885
 40
1.0
 40
1.0
 40
1.0
 40
1.0
 10
96.0035321256
 20
98.9678324109
 30
0.0
 10
95.8861193143
 20
99.035618069
 30
0.0
 10
95.6273116739
 20
99.1432134783
 30
0.0
 10
95.2000662723
 20
99.2058192975
 30
0.0
 10
94.7412879128
 20
99.1720105954
 30
0.0
 10
94.2611309444
 20
99.0444781653
 30
0.0
 10
93.7690521951
 20
98.8269766359
 30
0.0
 10
93.274853586
 20
98.5245962822
 30
0.0
 10
92.7884755641
 20
98.1438789504
 30
0.0
 10
92.1538407781
 20
97.5324864028
 30
0.0
 10
91.4485319609
 20
96.629256703
 30
0.0
 10
90.7938605739
 20
95.4193586915
 30
0.0
 10
90.4315553084
 20
94.34826263
 30
0.0
 10
90.2815783301
 20
93.5046360564
 30
0.0
 10
90.254754027
 20
93.096635357
 30
0.0
 10
90.254754027
 20
92.8991237402
 30
0.0
  0
SPLINE
  5
298
100
AcDbEntity
  8
0
100
AcDbSpline
 62
7
  6
BYLAYER
 70
0
 71
3
 72
15
 73
11
 74
0
 42
0.0000001
 43
0.0000001
 44
0.0000000001
 40
0.0
 40
0.0
 40
0.0
 40
0.0
 40
0.1123598876
 40
0.232822737
 40
0.3594799158
 40
0.4900501929
 40
0.6219707724
 40
0.7525942815
 40
0.8793901873
 40
1.0
 40
1.0
 40
1.0
 40
1.0
 10
75.5119397866
 20
97.2713803105
 30
0.0
 10
75.7491243015
 20
97.4078081059
 30
0.0
 10
76.2629307778
 20
97.6526023881
 30
0.0
 10
77.0963139818
 20
97.9267150008
 30
0.0
 10
77.9985906244
 20
98.1144028557
 30
0.0
 10
78.9430241299
 20
98.2102326023
 30
0.0
 10
79.9019222209
 20
98.2113059935
 30
0.0
 10
80.8470925737
 20
98.1176968936
 30
0.0
 10
81.7504516269
 20
97.9320717664
 30
0.0
 10
82.3249336918
 20
97.7448665718
 30
0.0
 10
82.5976419946
 20
97.6357921431
 30
0.0
  0
SPLINE
  5
299
100
AcDbEntity
  8
0
100
AcDbSpline
 62
7
  6
BYLAYER
 70
0
 71
3
 72
12
 73
8
 74
0
 42
0.0000001
 43
0.0000001
 44
0.0000000001
 40
0.0
 40
0.0
 40
0.0
 40
0.0
 40
0.1081625804
 40
0.2183725009
 40
0.4513400264
 40
0.7104788784
 40
1.0
 40
1.0
 40
1.0
 40
1.0
 10
29.3621950339
 20
63.8906882691
 30
0.0
 10
29.3622078256
 20
63.8185611183
 30
0.0
 10
29.3496469041
 20
63.6726373311
 30
0.0
 10
29.2738044112
 20
63.3801435824
 30
0.0
 10
29.0793054047
 20
63.0213692057
 30
0.0
 10
28.7168189976
 20
62.6407948258
 30
0.0
 10
28.4135047624
 20
62.4318227154
 30
0.0
 10
28.246305916
 20
62.3352909926
 30
0.0
  0
SPLINE
  5
29A
100
AcDbEntity
  8
0
100
AcDbSpline
 62
7
  6
BYLAYER
 70
0
 71
3
 72
10
 73
6
 74
0
 42
0.0000001
 43
0.0000001
 44
0.0000000001
 40
0.0
 40
0.0
 40
0.0
 40
0.0
 40
0.2723295884
 40
0.5288764764
 40
1.0
 40
1.0
 40
1.0
 40
1.0
 10
84.0148845284
 20
96.8139061614
 30
0.0
 10
84.122189201
 20
96.7236191693
 30
0.0
 10
84.3213927079
 20
96.5365960365
 30
0.0
 10
84.6506238835
 20
96.1399282909
 30
0.0
 10
84.8287007612
 20
95.8010308753
 30
0.0
 10
84.9011534391
 20
95.5694981203
 30
0.0
  0
SPLINE
  5
29B
100
AcDbEntity
  8
0
100
AcDbSpline
 62
7
  6
BYLAYER
 70
0
 71
3
 72
11
 73
7
 74
0
 42
0.0000001
 43
0.0000001
 44
0.0000000001
 40
0.0
 40
0.0
 40
0.0
 40
0.0
 40
0.289748151
 40
0.5490817913
 40
0.7822233645
 40
1.0
 40
1.0
 40
1.0
 40
1.0
 10
95.4408645554
 20
91.1493069867
 30
0.0
 10
95.4408645554
 20
90.985191959
 30
0.0
 10
95.4657069589
 20
90.6731278824
 30
0.0
 10
95.592132173
 20
90.2443736301
 30
0.0
 10
95.8049101568
 20
89.8964946661
 30
0.0
 10
96.0047719097
 20
89.7284385501
 30
0.0
 10
96.1116070662
 20
89.6667825826
 30
0.0
  0
SPLINE
  5
29C
100
AcDbEntity
  8
0
100
AcDbSpline
 62
7
  6
BYLAYER
 70
0
 71
3
 72
18
 73
14
 74
0
 42
0.0000001
 43
0.0000001
 44
0.0000000001
 40
0.0
 40
0.0
 40
0.0
 40
0.0
 40
0.0428464373
 40
0.087463075
 40
0.1352817672
 40
0.1872331662
 40
0.2437231281
 40
0.3047269303
 40
0.4383588153
 40
0.5826638708
 40
0.7297856859
 40
0.8713383083
 40
1.0
 40
1.0
 40
1.0
 40
1.0
 10
99.3500335983
 20
95.2760287755
 30
0.0
 10
99.2701887709
 20
95.3221082707
 30
0.0
 10
99.0942150314
 20
95.3952938352
 30
0.0
 10
98.8036951703
 20
95.4378031851
 30
0.0
 10
98.4917272003
 20
95.4149064462
 30
0.0
 10
98.1652458363
 20
95.3281191757
 30
0.0
 10
97.8306155601
 20
95.1802564049
 30
0.0
 10
97.3686675613
 20
94.8975401172
 30
0.0
 10
96.8183831464
 20
94.4101609266
 30
0.0
 10
96.252854127
 20
93.6861326735
 30
0.0
 10
95.8073561168
 20
92.8627714012
 30
0.0
 10
95.5183075522
 20
92.0081903277
 30
0.0
 10
95.4408645554
 20
91.4261324903
 30
0.0
 10
95.4408645554
 20
91.1493069867
 30
0.0
  0
SPLINE
  5
29D
100
AcDbEntity
  8
0
100
AcDbSpline
 62
7
  6
BYLAYER
 70
0
 71
3
 72
11
 73
7
 74
0
 42
0.0000001
 43
0.0000001
 44
0.0000000001
 40
0.0
 40
0.0
 40
0.0
 40
0.0
 40
0.277578607
 40
0.5361455356
 40
0.7762462607
 40
1.0
 40
1.0
 40
1.0
 40
1.0
 10
85.8986992277
 20
91.2785403106
 30
0.0
 10
86.1659116029
 20
91.4333244015
 30
0.0
 10
86.6665939042
 20
91.7604369248
 30
0.0
 10
87.3259515342
 20
92.3222354284
 30
0.0
 10
87.856475278
 20
92.9301350626
 30
0.0
 10
88.1263449926
 20
93.3740534236
 30
0.0
 10
88.2335786465
 20
93.5986968273
 30
0.0
  0
SPLINE
  5
29E
100
AcDbEntity
  8
0
100
AcDbSpline
 62
7
  6
BYLAYER
 70
0
 71
3
 72
10
 73
6
 74
0
 42
0.0000001
 43
0.0000001
 44
0.0000000001
 40
0.0
 40
0.0
 40
0.0
 40
0.0
 40
0.5221486774
 40
0.7677048305
 40
1.0
 40
1.0
 40
1.0
 40
1.0
 10
81.858848758
 20
89.9182667794
 30
0.0
 10
82.5928977693
 20
90.035066805
 30
0.0
 10
83.6630209397
 20
90.2882668435
 30
0.0
 10
84.9927175926
 20
90.8006116819
 30
0.0
 10
85.6017434597
 20
91.1070837524
 30
0.0
 10
85.8881162188
 20
91.272420155
 30
0.0
  0
SPLINE
  5
29F
100
AcDbEntity
  8
0
100
AcDbSpline
 62
7
  6
BYLAYER
 70
0
 71
3
 72
15
 73
11
 74
0
 42
0.0000001
 43
0.0000001
 44
0.0000000001
 40
0.0
 40
0.0
 40
0.0
 40
0.0
 40
0.1141452296
 40
0.2373330392
 40
0.3669748773
 40
0.5000011509
 40
0.6330236747
 40
0.7626732735
 40
0.8858450101
 40
1.0
 40
1.0
 40
1.0
 40
1.0
 10
75.7964814769
 20
101.2464224478
 30
0.0
 10
75.7964814769
 20
101.5126004273
 30
0.0
 10
75.8452648989
 20
102.0665559137
 30
0.0
 10
76.0395854991
 20
102.9022528213
 30
0.0
 10
76.3510186653
 20
103.7487455529
 30
0.0
 10
76.7677221854
 20
104.5741998812
 30
0.0
 10
77.2742213305
 20
105.3478368507
 30
0.0
 10
77.8515943198
 20
106.0407487934
 30
0.0
 10
78.4781247056
 20
106.6269350484
 30
0.0
 10
78.9334703623
 20
106.9461411557
 30
0.0
 10
79.164005309
 20
107.0792443943
 30
0.0
  0
SPLINE
  5
2A0
100
AcDbEntity
  8
0
100
AcDbSpline
 62
7
  6
BYLAYER
 70
0
 71
3
 72
11
 73
7
 74
0
 42
0.0000001
 43
0.0000001
 44
0.0000000001
 40
0.0
 40
0.0
 40
0.0
 40
0.0
 40
0.217781669
 40
0.4509246419
 40
0.7102549924
 40
1.0
 40
1.0
 40
1.0
 40
1.0
 10
93.0807549789
 20
91.4165992772
 30
0.0
 10
92.9739165977
 20
91.4782559311
 30
0.0
 10
92.774051086
 20
91.6463158233
 30
0.0
 10
92.5612802317
 20
91.9942020589
 30
0.0
 10
92.4348543161
 20
92.4229536545
 30
0.0
 10
92.410015496
 20
92.7350152943
 30
0.0
 10
92.410015496
 20
92.8991289208
 30
0.0
  0
SPLINE
  5
2A1
100
AcDbEntity
  8
0
100
AcDbSpline
 62
7
  6
BYLAYER
 70
0
 71
3
 72
9
 73
5
 74
0
 42
0.0000001
 43
0.0000001
 44
0.0000000001
 40
0.0
 40
0.0
 40
0.0
 40
0.0
 40
0.2326800056
 40
1.0
 40
1.0
 40
1.0
 40
1.0
 10
88.8308964388
 20
92.6473587698
 30
0.0
 10
88.7983365564
 20
92.7349017587
 30
0.0
 10
88.6791148721
 20
93.1188472269
 30
0.0
 10
88.6383011953
 20
93.524346083
 30
0.0
 10
88.6383011953
 20
93.832362105
 30
0.0
  0
SPLINE
  5
2A2
100
AcDbEntity
  8
0
100
AcDbSpline
 62
7
  6
BYLAYER
 70
0
 71
3
 72
12
 73
8
 74
0
 42
0.0000001
 43
0.0000001
 44
0.0000000001
 40
0.0
 40
0.0
 40
0.0
 40
0.0
 40
0.2895272587
 40
0.5486630431
 40
0.7816290249
 40
0.8918381961
 40
1.0
 40
1.0
 40
1.0
 40
1.0
 10
28.246305916
 20
62.9833897862
 30
0.0
 10
28.4135084736
 20
63.0799236516
 30
0.0
 10
28.7168247356
 20
63.2888968437
 30
0.0
 10
29.0793121868
 20
63.6694736587
 30
0.0
 10
29.2738045459
 20
64.0282461735
 30
0.0
 10
29.3496552761
 20
64.3207366661
 30
0.0
 10
29.3622079669
 20
64.4666603546
 30
0.0
 10
29.3621956071
 20
64.5387870597
 30
0.0
  0
ENDSEC
  0
SECTION
  2
OBJECTS
  0
DICTIONARY
  5
C
100
AcDbDictionary
280
0
281
1
  3
ACAD_GROUP
350
D
  3
ACAD_MLINESTYLE
350
17
  3
ACAD_LAYOUT
350
1A
  3
ACAD_PLOTSETTINGS
350
19
  3
ACAD_PLOTSTYLENAME
350
E
  0
DICTIONARY
  5
D
102
{ACAD_REACTORS
330
C
102
}
100
AcDbDictionary
280
0
281
1
  0
ACDBDICTIONARYWDFLT
  5
E
102
{ACAD_REACTORS
330
C
102
}
100
AcDbDictionary
281
1
  3
Normal
350
F
100
AcDbDictionaryWithDefault
340
F
  0
DICTIONARY
  5
17
102
{ACAD_REACTORS
330
C
102
}
100
AcDbDictionary
280
0
281
1
  3
Standard
350
18
  0
DICTIONARY
  5
19
102
{ACAD_REACTORS
330
C
102
}
100
AcDbDictionary
281
1
  0
DICTIONARY
  5
1A
102
{ACAD_REACTORS
330
C
102
}
100
AcDbDictionary
281
1
  3
Model
350
2A3
  3
Layout1
350
2A4
  0
ACDBPLACEHOLDER
  5
F
102
{ACAD_REACTORS
330
E
102
}
  0
MLINESTYLE
  5
18
102
{ACAD_REACTORS
330
17
102
}
100
AcDbMlineStyle
  2
STANDARD
 70
0
  3

 62
256
 51
90.0
 52
90.0
 71
2
 49
0.5
 62
256
  6
BYLAYER
 49
-0.5
 62
256
  6
BYLAYER
  0
LAYOUT
  5
2A3
102
{ACAD_REACTORS
330
1A
102
}
100
AcDbPlotSettings
  1

  2
none_device
  4

  6

 40
0.0
 41
0.0
 42
0.0
 43
0.0
 44
210.0
 45
297.0
 46
0.0
 47
0.0
 48
0.0
 49
0.0
140
0.0
141
0.0
142
1.0
143
1.0
 70
1024
 72
1
 73
0
 74
0
  7

 75
0
147
1.0
148
0.0
149
0.0
100
AcDbLayout
  1
Model
 70
0
 71
0
 10
0.0
 20
0.0
 11
210.0
 21
297.0
 12
0.0
 22
0.0
 32
0.0
 14
0.0
 24
0.0
 34
0.0
 15
0.0
 25
0.0
 35
0.0
146
0.0
 13
0.0
 23
0.0
 33
0.0
 16
1.0
 26
0.0
 36
0.0
 17
0.0
 27
1.0
 37
0.0
 76
0
330
210
345
0
346
0
  0
LAYOUT
  5
2A4
102
{ACAD_REACTORS
330
1A
102
}
100
AcDbPlotSettings
  1

  2
none_device
  4

  6

 40
0.0
 41
0.0
 42
0.0
 43
0.0
 44
210.0
 45
297.0
 46
0.0
 47
0.0
 48
0.0
 49
0.0
140
0.0
141
0.0
142
1.0
143
1.0
 70
0
 72
1
 73
0
 74
0
  7

 75
0
147
1.0
148
0.0
149
0.0
100
AcDbLayout
  1
Layout1
 70
0
 71
1
 10
0.0
 20
0.0
 11
210.0
 21
297.0
 12
0.0
 22
0.0
 32
0.0
 14
0.0
 24
0.0
 34
0.0
 15
0.0
 25
0.0
 35
0.0
146
0.0
 13
0.0
 23
0.0
 33
0.0
 16
1.0
 26
0.0
 36
0.0
 17
0.0
 27
1.0
 37
0.0
 76
0
330
211
345
0
346
0
  0
ENDSEC
  0
EOF
