999
DXF file: C:\Users\sesa63760\Dev\_Creo\CAD\MCADID0002934_3D-CAD\drw0001_1.dxf
999
Pro/ENGINEER 2019471 by Parametric Technology Corporation
  0
SECTION
  2
HEADER
  9
$ACADVER
  1
AC1024
  9
$DWGCODEPAGE
  3
ANSI_1252
  9
$EXTMAX
 10
91.0402074471
 20
128.7568648181
 30
0.0
  9
$EXTMIN
 10
0.0
 20
0.0
 30
0.0
  9
$LIMMIN
 10
0.0
 20
0.0
  9
$LIMMAX
 10
91.0402074471
 20
128.7568648181
  9
$VIEWCTR
 10
45.5201037236
 20
64.378432409
  9
$VIEWSIZE
 40
128.7568648181
  9
$CLAYER
  8
0
  9
$LTSCALE
 40
8.393040077
  9
$CELTYPE
  6
BYLAYER
  9
$DIMSCALE
 40
1.0
  9
$DIMASZ
 40
1.0838119934
  9
$DIMEXO
 40
1.0
  9
$DIMDLI
 40
5.7988276896
  9
$DIMEXE
 40
1.0
  9
$DIMCEN
 40
1.3734065581
  9
$DIMLFAC
 40
1.0
  9
$DIMBLK
  1
_FILLED
  9
$DIMALT
 70
0
  9
$DIMALTF
 40
0.0393700787
  9
$DIMTXT
 40
1.5173367908
  9
$DIMTOL
 70
1
  9
$DIMLIM
 70
0
  9
$DIMTFAC
 40
1.0
  9
$DIMTP
 40
0.01
  9
$DIMTM
 40
0.01
  9
$DIMGAP
 40
0.625
  9
$DIMDSEP
 70
46
  9
$AUNITS
 70
0
  9
$PDMODE
 70
3
  9
$PDSIZE
 40
0.3125
  9
$HANDSEED
  5
262
  9
$TILEMODE
 70
1
  9
$MEASUREMENT
 70
1
  9
$INSUNITS
 70
4
  0
ENDSEC
  0
SECTION
  2
CLASSES
  0
CLASS
  1
ACDBDICTIONARYWDFLT
  2
AcDbDictionaryWithDefault
  3
AutoCAD 2000
 90
0
 91
1
280
0
281
0
  0
CLASS
  1
ACDBPLACEHOLDER
  2
AcDbPlaceHolder
  3
AutoCAD 2000
 90
0
 91
1
280
0
281
0
  0
CLASS
  1
LAYOUT
  2
AcDbLayout
  3
AutoCAD 2000
 90
0
 91
0
280
0
281
0
  0
ENDSEC
  0
SECTION
  2
TABLES
  0
TABLE
  2
VPORT
  5
8
100
AcDbSymbolTable
 70
2
  0
VPORT
  5
1F4
100
AcDbSymbolTableRecord
100
AcDbViewportTableRecord
  2
*ACTIVE
 70
0
 10
0.0
 20
0.0
 11
1.0
 21
1.0
 12
45.5201037236
 22
64.378432409
 13
0.0
 23
0.0
 14
1.0
 24
1.0
 15
0.0
 25
0.0
 16
0.0
 26
0.0
 36
1.0
 17
0.0
 27
0.0
 37
0.0
 40
128.7568648181
 41
0.7070707071
 42
50.0
 43
0.0
 44
0.0
 50
0.0
 51
0.0
 71
0
 72
100
 73
1
 74
1
 75
0
 76
0
 77
0
 78
0
  0
ENDTAB
  0
TABLE
  2
LTYPE
  5
5
100
AcDbSymbolTable
 70
6
  0
LTYPE
  5
14
100
AcDbSymbolTableRecord
100
AcDbLinetypeTableRecord
  2
BYBLOCK
 70
0
  3

 72
65
 73
0
 40
0.0
  0
LTYPE
  5
15
100
AcDbSymbolTableRecord
100
AcDbLinetypeTableRecord
  2
BYLAYER
 70
0
  3

 72
65
 73
0
 40
0.0
  0
LTYPE
  5
16
100
AcDbSymbolTableRecord
100
AcDbLinetypeTableRecord
  2
CONTINUOUS
 70
64
  3
Solid line
 72
65
 73
0
 40
0.0
  0
LTYPE
  5
1F5
100
AcDbSymbolTableRecord
100
AcDbLinetypeTableRecord
  2
CENTER
 70
64
  3
____ _ ____ _ ____ _ ____ _ ____ _ ____ _ ____
 72
65
 73
4
 40
0.6
 49
0.375
 74
0
 49
-0.075
 74
0
 49
0.075
 74
0
 49
-0.075
 74
0
  0
LTYPE
  5
1F6
100
AcDbSymbolTableRecord
100
AcDbLinetypeTableRecord
  2
HIDDEN
 70
64
  3
- - - - - - - - - - - - - - - - - - - -
 72
65
 73
2
 40
0.2
 49
0.1
 74
0
 49
-0.1
 74
0
  0
LTYPE
  5
1F7
100
AcDbSymbolTableRecord
100
AcDbLinetypeTableRecord
  2
PHANTOM
 70
64
  3
_____ _ _ _____ _ _ _____ _ _ _____
 72
65
 73
6
 40
0.8
 49
0.45
 74
0
 49
-0.05
 74
0
 49
0.1
 74
0
 49
-0.05
 74
0
 49
0.1
 74
0
 49
-0.05
 74
0
  0
LTYPE
  5
1F8
100
AcDbSymbolTableRecord
100
AcDbLinetypeTableRecord
  2
DOT
 70
64
  3
. . . . . . . . . . . . . . . . . . . .
 72
65
 73
2
 40
0.2
 49
0.1
 74
0
 49
-0.1
 74
0
  0
LTYPE
  5
1F9
100
AcDbSymbolTableRecord
100
AcDbLinetypeTableRecord
  2
DASHED
 70
64
  3
- - - - - - - - - - - - - - - - - - - -
 72
65
 73
2
 40
0.2
 49
0.1
 74
0
 49
-0.1
 74
0
  0
ENDTAB
  0
TABLE
  2
LAYER
  5
2
100
AcDbSymbolTable
 70
36
  0
LAYER
  5
10
100
AcDbSymbolTableRecord
100
AcDbLayerTableRecord
  2
0
 70
0
 62
7
  6
CONTINUOUS
370
-3
390
F
  0
LAYER
  5
1FA
100
AcDbSymbolTableRecord
100
AcDbLayerTableRecord
  2
DEFAULT_1
 70
0
 62
7
  6
CENTER
370
-3
390
F
  0
LAYER
  5
1FB
100
AcDbSymbolTableRecord
100
AcDbLayerTableRecord
  2
DEFAULT_2
 70
0
 62
7
  6
HIDDEN
370
-3
390
F
  0
LAYER
  5
1FC
100
AcDbSymbolTableRecord
100
AcDbLayerTableRecord
  2
DEFAULT_3
 70
0
 62
7
  6
PHANTOM
370
-3
390
F
  0
LAYER
  5
1FD
100
AcDbSymbolTableRecord
100
AcDbLayerTableRecord
  2
00_COMPONENTS
 70
0
 62
7
  6
CONTINUOUS
370
-3
390
F
  0
LAYER
  5
1FE
100
AcDbSymbolTableRecord
100
AcDbLayerTableRecord
  2
01_1_DEFAULT_DATUMS
 70
0
 62
7
  6
CONTINUOUS
370
-3
390
F
  0
LAYER
  5
1FF
100
AcDbSymbolTableRecord
100
AcDbLayerTableRecord
  2
01_PLANES
 70
0
 62
7
  6
CONTINUOUS
370
-3
390
F
  0
LAYER
  5
200
100
AcDbSymbolTableRecord
100
AcDbLayerTableRecord
  2
02_COORD_SYS
 70
0
 62
7
  6
CONTINUOUS
370
-3
390
F
  0
LAYER
  5
201
100
AcDbSymbolTableRecord
100
AcDbLayerTableRecord
  2
03_AXES
 70
0
 62
7
  6
CONTINUOUS
370
-3
390
F
  0
LAYER
  5
202
100
AcDbSymbolTableRecord
100
AcDbLayerTableRecord
  2
04_POINTS
 70
0
 62
7
  6
CONTINUOUS
370
-3
390
F
  0
LAYER
  5
203
100
AcDbSymbolTableRecord
100
AcDbLayerTableRecord
  2
05_CURVES
 70
0
 62
7
  6
CONTINUOUS
370
-3
390
F
  0
LAYER
  5
204
100
AcDbSymbolTableRecord
100
AcDbLayerTableRecord
  2
06_SURFS
 70
0
 62
7
  6
CONTINUOUS
370
-3
390
F
  0
LAYER
  5
205
100
AcDbSymbolTableRecord
100
AcDbLayerTableRecord
  2
07_COSMETICS
 70
0
 62
7
  6
CONTINUOUS
370
-3
390
F
  0
LAYER
  5
206
100
AcDbSymbolTableRecord
100
AcDbLayerTableRecord
  2
10_NOTES
 70
0
 62
7
  6
CONTINUOUS
370
-3
390
F
  0
LAYER
  5
207
100
AcDbSymbolTableRecord
100
AcDbLayerTableRecord
  2
11_NOTES_PUB
 70
0
 62
7
  6
CONTINUOUS
370
-3
390
F
  0
LAYER
  5
208
100
AcDbSymbolTableRecord
100
AcDbLayerTableRecord
  2
13_REF_GTOL
 70
0
 62
7
  6
CONTINUOUS
370
-3
390
F
  0
LAYER
  5
209
100
AcDbSymbolTableRecord
100
AcDbLayerTableRecord
  2
16_MISC
 70
0
 62
7
  6
CONTINUOUS
370
-3
390
F
  0
LAYER
  5
20A
100
AcDbSymbolTableRecord
100
AcDbLayerTableRecord
  2
17_NO_PRINT
 70
0
 62
7
  6
CONTINUOUS
370
-3
390
F
  0
LAYER
  5
20B
100
AcDbSymbolTableRecord
100
AcDbLayerTableRecord
  2
18_DATUM_CAMS_JOINTS
 70
0
 62
7
  6
CONTINUOUS
370
-3
390
F
  0
LAYER
  5
20C
100
AcDbSymbolTableRecord
100
AcDbLayerTableRecord
  2
19_DATUM_FUNCTIONAL
 70
0
 62
7
  6
CONTINUOUS
370
-3
390
F
  0
LAYER
  5
20D
100
AcDbSymbolTableRecord
100
AcDbLayerTableRecord
  2
20_DATUM_KINEMATIC_SCHEME
 70
0
 62
7
  6
CONTINUOUS
370
-3
390
F
  0
ENDTAB
  0
TABLE
  2
STYLE
  5
3
100
AcDbSymbolTable
 70
1
  0
STYLE
  5
11
100
AcDbSymbolTableRecord
100
AcDbTextStyleTableRecord
  2
STANDARD
 70
0
 40
0.0
 41
1.0
 50
0.0
 71
0
 42
0.2
  3
ARIAL.TTF
  4

  0
STYLE
  5
20E
100
AcDbSymbolTableRecord
100
AcDbTextStyleTableRecord
  2
TEXTSTYLE_1
 70
0
 40
0.0
 41
0.8
 50
0.0
 71
0
 42
0.2
  3
gdt
  4

  0
ENDTAB
  0
TABLE
  2
VIEW
  5
6
100
AcDbSymbolTable
 70
0
  0
ENDTAB
  0
TABLE
  2
UCS
  5
7
100
AcDbSymbolTable
 70
0
  0
ENDTAB
  0
TABLE
  2
APPID
  5
9
100
AcDbSymbolTable
 70
1
  0
APPID
  5
20F
100
AcDbSymbolTableRecord
100
AcDbRegAppTableRecord
  2
ACAD
 70
0
  0
ENDTAB
  0
TABLE
  2
BLOCK_RECORD
  5
1
100
AcDbSymbolTable
 70
0
  0
BLOCK_RECORD
  5
210
100
AcDbSymbolTableRecord
100
AcDbBlockTableRecord
  2
*Model_Space
  0
BLOCK_RECORD
  5
211
100
AcDbSymbolTableRecord
100
AcDbBlockTableRecord
  2
*Paper_Space
  0
BLOCK_RECORD
  5
212
100
AcDbSymbolTableRecord
100
AcDbBlockTableRecord
  2
_FILLED
  0
ENDTAB
  0
TABLE
  2
DIMSTYLE
  5
A
100
AcDbSymbolTable
 70
1
100
AcDbDimStyleTable
 71
0
  0
DIMSTYLE
105
213
100
AcDbSymbolTableRecord
100
AcDbDimStyleTableRecord
  2
STANDARD
 70
0
  3

  4

 40
1.0
 41
1.0838119934
 42
1.0
 43
0.38
 44
1.0
 45
0.0
 46
0.0
 47
0.01
 48
0.01
140
1.5173367908
141
0.09
142
0.0
143
25.4
144
1.0
145
0.0
146
1.0
147
0.625
 71
1
 72
0
 73
0
 74
0
 75
0
 76
0
 77
1
 78
8
 79
2
170
0
171
1
172
0
173
0
174
0
175
0
176
0
177
0
178
0
270
2
179
2
271
2
272
2
273
2
274
2
275
0
280
0
281
0
282
0
283
1
284
8
285
0
286
0
287
3
288
0
340
11
278
46
341
212
342
212
343
212
344
212
  0
ENDTAB
  0
ENDSEC
  0
SECTION
  2
BLOCKS
  0
BLOCK
  5
20
100
AcDbEntity
  8
0
100
AcDbBlockBegin
  2
*Model_Space
 70
0
 10
0.0
 20
0.0
 30
0.0
  3
*Model_Space
  1

  0
ENDBLK
  5
21
100
AcDbEntity
  8
0
100
AcDbBlockEnd
  0
BLOCK
  5
1C
100
AcDbEntity
  8
0
100
AcDbBlockBegin
  2
*Paper_Space
 70
0
 10
0.0
 20
0.0
 30
0.0
  3
*Paper_Space
  1

  0
ENDBLK
  5
1D
100
AcDbEntity
  8
0
100
AcDbBlockEnd
  0
BLOCK
  5
214
100
AcDbEntity
  8
0
100
AcDbBlockBegin
  2
_FILLED
 70
64
 10
0.0
 20
0.0
  3
_FILLED
  1

  0
SOLID
  5
215
100
AcDbEntity
  8
0
  6
BYBLOCK
 62
0
100
AcDbTrace
 10
0.0
 20
0.0
 11
-1.0
 21
0.25
 12
-1.0
 22
-0.25
 13
-1.0
 23
-0.25
  0
ENDBLK
  5
216
100
AcDbEntity
  8
0
  6
BYBLOCK
 62
0
100
AcDbBlockEnd
  0
ENDSEC
  0
SECTION
  2
ENTITIES
  0
LINE
  5
217
100
AcDbEntity
  8
0
100
AcDbLine
 62
7
  6
BYLAYER
 10
10.5519087382
 20
52.7415809681
 11
10.5519087382
 21
39.7796050961
  0
LINE
  5
218
100
AcDbEntity
  8
0
100
AcDbLine
 62
7
  6
BYLAYER
 10
15.3144087382
 20
52.7415809681
 11
15.3144087382
 21
56.7597934884
  0
LINE
  5
219
100
AcDbEntity
  8
0
100
AcDbLine
 62
7
  6
BYLAYER
 10
17.9337837382
 20
57.2782725232
 11
17.9337837382
 21
56.7597934884
  0
LINE
  5
21A
100
AcDbEntity
  8
0
100
AcDbLine
 62
7
  6
BYLAYER
 10
22.2200337382
 20
57.2782725232
 11
22.2200337382
 21
56.7597934884
  0
LINE
  5
21B
100
AcDbEntity
  8
0
100
AcDbLine
 62
7
  6
BYLAYER
 10
23.301278344
 20
51.0420612694
 11
23.301278344
 21
54.2825552374
  0
LINE
  5
21C
100
AcDbEntity
  8
0
100
AcDbLine
 62
7
  6
BYLAYER
 10
24.8394087382
 20
56.3061243328
 11
24.8394087382
 21
56.7597934884
  0
LINE
  5
21D
100
AcDbEntity
  8
0
100
AcDbLine
 62
7
  6
BYLAYER
 10
29.6019087382
 20
52.7415809681
 11
29.6019087382
 21
39.7796050961
  0
LINE
  5
21E
100
AcDbEntity
  8
0
100
AcDbLine
 62
7
  6
BYLAYER
 10
63.7570771044
 20
89.4011635011
 11
60.0038731931
 21
87.0456660563
  0
LINE
  5
21F
100
AcDbEntity
  8
0
100
AcDbLine
 62
7
  6
BYLAYER
 10
58.6592302861
 20
84.5815259595
 11
18.3304446396
 21
59.2696280594
  0
LINE
  5
220
100
AcDbEntity
  8
0
100
AcDbLine
 62
7
  6
BYLAYER
 10
38.9774546733
 20
68.3524477694
 11
40.0999820149
 21
70.2967329509
  0
LINE
  5
221
100
AcDbEntity
  8
0
100
AcDbLine
 62
7
  6
BYLAYER
 10
42.0644212201
 20
69.1625891048
 11
40.9418938785
 21
67.2183039233
  0
LINE
  5
222
100
AcDbEntity
  8
0
100
AcDbLine
 62
7
  6
BYLAYER
 10
63.9957827987
 20
84.092897614
 11
40.0999820149
 21
70.2967329509
  0
LINE
  5
223
100
AcDbEntity
  8
0
100
AcDbLine
 62
7
  6
BYLAYER
 10
65.9602220039
 20
82.9587537678
 11
42.0644212201
 21
69.1625891048
  0
LINE
  5
224
100
AcDbEntity
  8
0
100
AcDbLine
 62
7
  6
BYLAYER
 10
40.9418938785
 20
67.2183039233
 11
64.8376946623
 21
81.0144685863
  0
LINE
  5
225
100
AcDbEntity
  8
0
100
AcDbLine
 62
7
  6
BYLAYER
 10
70.5133952804
 20
80.9781279162
 11
79.3321704769
 21
85.6619606827
  0
LINE
  5
226
100
AcDbEntity
  8
0
100
AcDbLine
 62
7
  6
BYLAYER
 10
23.301278344
 20
54.2825552374
 11
69.0517198334
 21
78.5815550593
  0
LINE
  5
227
100
AcDbEntity
  8
0
100
AcDbLine
 62
7
  6
BYLAYER
 10
38.9774546733
 20
68.3524477694
 11
40.9418938785
 21
67.2183039233
  0
LINE
  5
228
100
AcDbEntity
  8
0
100
AcDbLine
 62
7
  6
BYLAYER
 10
60.0038731931
 20
87.0456660563
 11
58.6592302861
 21
84.5815259595
  0
LINE
  5
229
100
AcDbEntity
  8
0
100
AcDbLine
 62
7
  6
BYLAYER
 10
69.0517198334
 20
75.3410610913
 11
23.301278344
 21
51.0420612694
  0
LINE
  5
22A
100
AcDbEntity
  8
0
100
AcDbLine
 62
7
  6
BYLAYER
 10
79.3321704769
 20
79.1809727467
 11
70.5133952804
 21
74.4971399802
  0
LINE
  5
22B
100
AcDbEntity
  8
0
100
AcDbLine
 62
7
  6
BYLAYER
 10
42.0644212201
 20
69.1625891048
 11
40.0999820149
 21
70.2967329509
  0
LINE
  5
22C
100
AcDbEntity
  8
0
100
AcDbLine
 62
7
  6
BYLAYER
 10
64.8376946623
 20
81.0144685863
 11
65.9602220039
 21
82.9587537678
  0
LINE
  5
22D
100
AcDbEntity
  8
0
100
AcDbLine
 62
7
  6
BYLAYER
 10
69.0517198334
 20
78.5815550593
 11
70.5133952804
 21
80.9781279162
  0
LINE
  5
22E
100
AcDbEntity
  8
0
100
AcDbLine
 62
7
  6
BYLAYER
 10
60.8613332275
 20
87.5838049285
 11
60.8613130871
 21
90.3766835603
  0
LINE
  5
22F
100
AcDbEntity
  8
0
100
AcDbLine
 62
7
  6
BYLAYER
 10
64.830063087
 20
93.6172061482
 11
64.8300882027
 21
90.13439044
  0
LINE
  5
230
100
AcDbEntity
  8
0
100
AcDbLine
 62
7
  6
BYLAYER
 10
68.4383734686
 20
88.8954395461
 11
68.4383734686
 21
89.4011747536
  0
LINE
  5
231
100
AcDbEntity
  8
0
100
AcDbLine
 62
7
  6
BYLAYER
 10
68.4022305658
 20
89.0345757458
 11
68.4383734686
 21
89.4011747536
  0
LINE
  5
232
100
AcDbEntity
  8
0
100
AcDbLine
 62
7
  6
BYLAYER
 10
70.5133952804
 20
74.4971399802
 11
69.0517198334
 21
75.3410610913
  0
LINE
  5
233
100
AcDbEntity
  8
0
100
AcDbLine
 62
7
  6
BYLAYER
 10
68.738741097
 20
90.1343998352
 11
68.738741097
 21
87.9964599389
  0
LINE
  5
234
100
AcDbEntity
  8
0
100
AcDbLine
 62
7
  6
BYLAYER
 10
68.4383734686
 20
89.4011747536
 11
63.7570771044
 21
89.4011635011
  0
LINE
  5
235
100
AcDbEntity
  8
0
100
AcDbLine
 62
7
  6
BYLAYER
 10
69.0517198334
 20
78.5815550593
 11
64.8376946623
 21
81.0144685863
  0
LINE
  5
236
100
AcDbEntity
  8
0
100
AcDbLine
 62
7
  6
BYLAYER
 10
61.7506993704
 20
82.7967058295
 11
58.6592302861
 21
84.5815259595
  0
LINE
  5
237
100
AcDbEntity
  8
0
100
AcDbLine
 62
7
  6
BYLAYER
 10
64.8300882027
 20
90.13439044
 11
68.738741097
 21
90.1343998352
  0
LINE
  5
238
100
AcDbEntity
  8
0
100
AcDbLine
 62
7
  6
BYLAYER
 10
65.9602220039
 20
82.9587537678
 11
63.9957827987
 21
84.092897614
  0
LINE
  5
239
100
AcDbEntity
  8
0
100
AcDbLine
 62
7
  6
BYLAYER
 10
70.5133952804
 20
80.9781279162
 11
60.0038731931
 21
87.0456660563
  0
LINE
  5
23A
100
AcDbEntity
  8
0
100
AcDbLine
 62
7
  6
BYLAYER
 10
73.958188087
 20
93.6172280896
 11
64.830063087
 21
93.6172061482
  0
LINE
  5
23B
100
AcDbEntity
  8
0
100
AcDbLine
 62
7
  6
BYLAYER
 10
79.3321704769
 20
85.6619606827
 11
79.3321704769
 21
79.1809727467
  0
LINE
  5
23C
100
AcDbEntity
  8
0
100
AcDbLine
 62
7
  6
BYLAYER
 10
81.8957211339
 20
82.5535879059
 11
81.8957211339
 21
89.0345758418
  0
ARC
  5
23D
100
AcDbEntity
  8
0
100
AcDbCircle
 62
7
  6
BYLAYER
 10
75.788528495
 20
92.3398431077
 40
7.5598619153
100
AcDbArc
 50
297.95281545
 51
302.0468883622
  0
ARC
  5
23E
100
AcDbEntity
  8
0
100
AcDbCircle
 62
7
  6
BYLAYER
 10
75.8665007268
 20
85.7238024986
 40
7.404018367
100
AcDbArc
 50
297.9097094585
 51
302.0899943537
  0
ARC
  5
23F
100
AcDbEntity
  8
0
100
AcDbCircle
 62
7
  6
BYLAYER
 10
21.1789886371
 20
54.7185251858
 40
4.528600266
100
AcDbArc
 50
297.9461449355
 51
300.839701197
  0
SPLINE
  5
240
100
AcDbEntity
  8
0
100
AcDbSpline
 62
7
  6
BYLAYER
 70
0
 71
3
 72
24
 73
20
 74
0
 42
0.0000001
 43
0.0000001
 44
0.0000000001
 40
0.0
 40
0.0
 40
0.0
 40
0.0
 40
0.0623810583
 40
0.1287355569
 40
0.1983285082
 40
0.2703115006
 40
0.3436931182
 40
0.4174310987
 40
0.4904620588
 40
0.5617547809
 40
0.6303581329
 40
0.6954512752
 40
0.7564033294
 40
0.8128444318
 40
0.8647486624
 40
0.9125271128
 40
0.9571048033
 40
0.9786665034
 40
1.0
 40
1.0
 40
1.0
 40
1.0
 10
26.8121288703
 20
35.8911119093
 30
0.0
 10
26.4699516829
 20
35.6935569974
 30
0.0
 10
25.7365466508
 20
35.3319916215
 30
0.0
 10
24.5535566025
 20
34.9032818481
 30
0.0
 10
23.2750735037
 20
34.5787868546
 30
0.0
 10
21.9286264457
 20
34.3652369958
 30
0.0
 10
20.5426313842
 20
34.2672580993
 30
0.0
 10
19.146708629
 20
34.2869069679
 30
0.0
 10
17.7706171814
 20
34.4237587254
 30
0.0
 10
16.4436910359
 20
34.6748954217
 30
0.0
 10
15.1941201871
 20
35.0350069088
 30
0.0
 10
14.0483267356
 20
35.4965931592
 30
0.0
 10
13.0303961022
 20
36.050263839
 30
0.0
 10
12.1616319703
 20
36.6850585525
 30
0.0
 10
11.460521251
 20
37.3892331835
 30
0.0
 10
10.9432081062
 20
38.1496862053
 30
0.0
 10
10.6745482421
 20
38.8272408701
 30
0.0
 10
10.5694140614
 20
39.3724608425
 30
0.0
 10
10.5519480365
 20
39.6444822662
 30
0.0
 10
10.5519354012
 20
39.7796052026
 30
0.0
  0
SPLINE
  5
241
100
AcDbEntity
  8
0
100
AcDbSpline
 62
7
  6
BYLAYER
 70
0
 71
3
 72
17
 73
13
 74
0
 42
0.0000001
 43
0.0000001
 44
0.0000000001
 40
0.0
 40
0.0
 40
0.0
 40
0.0
 40
0.0428584629
 40
0.08748393
 40
0.135317815
 40
0.1872795469
 40
0.3045398917
 40
0.4382057949
 40
0.5825481992
 40
0.7297130515
 40
0.8713063844
 40
1.0
 40
1.0
 40
1.0
 40
1.0
 10
22.2200264322
 20
57.2782725274
 30
0.0
 10
22.2200310504
 20
57.3392798825
 30
0.0
 10
22.2036779382
 20
57.4643348016
 30
0.0
 10
22.1319947146
 20
57.6449233937
 30
0.0
 10
22.0155912148
 20
57.816112544
 30
0.0
 10
21.7965039992
 20
58.0360058809
 30
0.0
 10
21.4231676733
 20
58.2632579621
 30
0.0
 10
20.8863794802
 20
58.4425653535
 30
0.0
 10
20.2839660679
 20
58.5272341387
 30
0.0
 10
19.6647717754
 20
58.5100935341
 30
0.0
 10
19.079333287
 20
58.3929897215
 30
0.0
 10
18.7201319484
 20
58.2447782589
 30
0.0
 10
18.5614842085
 20
58.1531834903
 30
0.0
  0
SPLINE
  5
242
100
AcDbEntity
  8
0
100
AcDbSpline
 62
7
  6
BYLAYER
 70
0
 71
3
 72
14
 73
10
 74
0
 42
0.0000001
 43
0.0000001
 44
0.0000000001
 40
0.0
 40
0.0
 40
0.0
 40
0.0
 40
0.2892793057
 40
0.4225524682
 40
0.5484985062
 40
0.6678942284
 40
0.7818717443
 40
0.8919542197
 40
1.0
 40
1.0
 40
1.0
 40
1.0
 10
13.3416886062
 20
56.6300741549
 30
0.0
 10
12.9235904958
 20
56.3886865391
 30
0.0
 10
12.3380455087
 20
55.9855493336
 30
0.0
 10
11.6756182324
 20
55.3515247245
 30
0.0
 10
11.2724296026
 20
54.8628229803
 30
0.0
 10
10.9537568003
 20
54.3526048773
 30
0.0
 10
10.7229901922
 20
53.8254503815
 30
0.0
 10
10.583256816
 20
53.2866626629
 30
0.0
 10
10.5519189237
 20
52.9218983873
 30
0.0
 10
10.5519357381
 20
52.7415810992
 30
0.0
  0
SPLINE
  5
243
100
AcDbEntity
  8
0
100
AcDbSpline
 62
7
  6
BYLAYER
 70
0
 71
3
 72
20
 73
16
 74
0
 42
0.0000001
 43
0.0000001
 44
0.0000000001
 40
0.0
 40
0.0
 40
0.0
 40
0.0
 40
0.0428019136
 40
0.0873128644
 40
0.1349287794
 40
0.1865616499
 40
0.2426387952
 40
0.303166031
 40
0.3678105086
 40
0.4359926292
 40
0.5796112402
 40
0.7267144003
 40
0.8692017831
 40
0.9364902496
 40
1.0
 40
1.0
 40
1.0
 40
1.0
 10
24.8393820132
 20
56.7597934875
 30
0.0
 10
24.8393963307
 20
56.8929460448
 30
0.0
 10
24.8044348557
 20
57.1656821451
 30
0.0
 10
24.6508083659
 20
57.5601277126
 30
0.0
 10
24.4010699752
 20
57.9347821102
 30
0.0
 10
24.062275718
 20
58.282508646
 30
0.0
 10
23.6419289273
 20
58.5973141652
 30
0.0
 10
23.1486861787
 20
58.8733994918
 30
0.0
 10
22.592554869
 20
59.1056962559
 30
0.0
 10
21.7682134149
 20
59.3548960519
 30
0.0
 10
20.6584802461
 20
59.5262820127
 30
0.0
 10
19.3054820109
 20
59.5106888888
 30
0.0
 10
18.2061640198
 20
59.3137302368
 30
0.0
 10
17.3984497019
 20
59.0447658016
 30
0.0
 10
17.0270279664
 20
58.87603719
 30
0.0
 10
16.8525391324
 20
58.7833625838
 30
0.0
  0
SPLINE
  5
244
100
AcDbEntity
  8
0
100
AcDbSpline
 62
7
  6
BYLAYER
 70
0
 71
3
 72
11
 73
7
 74
0
 42
0.0000001
 43
0.0000001
 44
0.0000000001
 40
0.0
 40
0.0
 40
0.0
 40
0.0
 40
0.2435026118
 40
0.4898037129
 40
0.7413589444
 40
1.0
 40
1.0
 40
1.0
 40
1.0
 10
60.8613258846
 20
90.3766835606
 30
0.0
 10
60.8613268125
 20
90.5429847187
 30
0.0
 10
60.8931625152
 20
90.8783298184
 30
0.0
 10
61.0347939627
 20
91.3673013971
 30
0.0
 10
61.2664355465
 20
91.8320440523
 30
0.0
 10
61.4740954618
 20
92.1141890741
 30
0.0
 10
61.5897263652
 20
92.2477225608
 30
0.0
  0
SPLINE
  5
245
100
AcDbEntity
  8
0
100
AcDbSpline
 62
7
  6
BYLAYER
 70
0
 71
3
 72
11
 73
7
 74
0
 42
0.0000001
 43
0.0000001
 44
0.0000000001
 40
0.0
 40
0.0
 40
0.0
 40
0.0
 40
0.2361455017
 40
0.4833416671
 40
0.7392665391
 40
1.0
 40
1.0
 40
1.0
 40
1.0
 10
61.5897263652
 20
92.2477225608
 30
0.0
 10
61.7761584495
 20
92.4630190388
 30
0.0
 10
62.2158338386
 20
92.8557549015
 30
0.0
 10
63.0032471843
 20
93.2878816846
 30
0.0
 10
63.8907722889
 20
93.5566818541
 30
0.0
 10
64.5156121145
 20
93.6172053924
 30
0.0
 10
64.830063087
 20
93.6172061482
 30
0.0
  0
SPLINE
  5
246
100
AcDbEntity
  8
0
100
AcDbSpline
 62
7
  6
BYLAYER
 70
0
 71
3
 72
14
 73
10
 74
0
 42
0.0000001
 43
0.0000001
 44
0.0000000001
 40
0.0
 40
0.0
 40
0.0
 40
0.0
 40
0.1080437872
 40
0.2181283174
 40
0.3321077409
 40
0.4514902033
 40
0.5774359846
 40
0.7107372802
 40
1.0
 40
1.0
 40
1.0
 40
1.0
 10
79.5144490646
 20
89.0345758426
 30
0.0
 10
79.5144385945
 20
88.9293929598
 30
0.0
 10
79.4961899571
 20
88.7166137621
 30
0.0
 10
79.414652071
 20
88.402322739
 30
0.0
 10
79.2800418313
 20
88.0948291419
 30
0.0
 10
79.0941915821
 20
87.7971892184
 30
0.0
 10
78.8589777068
 20
87.5121102511
 30
0.0
 10
78.472540292
 20
87.1422729042
 30
0.0
 10
78.1309755189
 20
86.9070891687
 30
0.0
 10
77.8870995443
 20
86.7662881495
 30
0.0
  0
SPLINE
  5
247
100
AcDbEntity
  8
0
100
AcDbSpline
 62
7
  6
BYLAYER
 70
0
 71
3
 72
9
 73
5
 74
0
 42
0.0000001
 43
0.0000001
 44
0.0000000001
 40
0.0
 40
0.0
 40
0.0
 40
0.0
 40
0.4892231985
 40
1.0
 40
1.0
 40
1.0
 40
1.0
 10
61.8061037999
 20
88.2592563884
 30
0.0
 10
62.0156631176
 20
88.4605657572
 30
0.0
 10
62.4962038688
 20
88.8199523807
 30
0.0
 10
63.0426514038
 20
89.0649320646
 30
0.0
 10
63.3304750666
 20
89.1608610415
 30
0.0
  0
SPLINE
  5
248
100
AcDbEntity
  8
0
100
AcDbSpline
 62
7
  6
BYLAYER
 70
0
 71
3
 72
18
 73
14
 74
0
 42
0.0000001
 43
0.0000001
 44
0.0000000001
 40
0.0
 40
0.0
 40
0.0
 40
0.0
 40
0.0450701401
 40
0.0909900934
 40
0.1385332537
 40
0.1883372849
 40
0.2408806637
 40
0.2964699737
 40
0.4171363959
 40
0.5502080184
 40
0.6937926453
 40
0.8449278218
 40
1.0
 40
1.0
 40
1.0
 40
1.0
 10
81.8957047711
 20
89.0345758625
 30
0.0
 10
81.8957163544
 20
89.1848420354
 30
0.0
 10
81.8695610193
 20
89.4888120836
 30
0.0
 10
81.7531482364
 20
89.937810066
 30
0.0
 10
81.5608339402
 20
90.3771010678
 30
0.0
 10
81.2952688365
 20
90.802313097
 30
0.0
 10
80.9592504292
 20
91.2095204631
 30
0.0
 10
80.4071107664
 20
91.7379889528
 30
0.0
 10
79.5520141735
 20
92.3268066247
 30
0.0
 10
78.3467913728
 20
92.8878851311
 30
0.0
 10
76.9781259002
 20
93.3039779111
 30
0.0
 10
75.4971067173
 20
93.55988673
 30
0.0
 10
74.4752067328
 20
93.6172293323
 30
0.0
 10
73.958188087
 20
93.6172280896
 30
0.0
  0
SPLINE
  5
249
100
AcDbEntity
  8
0
100
AcDbSpline
 62
7
  6
BYLAYER
 70
0
 71
3
 72
14
 73
10
 74
0
 42
0.0000001
 43
0.0000001
 44
0.0000000001
 40
0.0
 40
0.0
 40
0.0
 40
0.0
 40
0.109278773
 40
0.2204101148
 40
0.3350985734
 40
0.4547578243
 40
0.5805025302
 40
0.7131335153
 40
1.0
 40
1.0
 40
1.0
 40
1.0
 10
81.8957047612
 20
82.5535879266
 30
0.0
 10
81.8956937919
 20
82.411326225
 30
0.0
 10
81.8723362438
 20
82.123875986
 30
0.0
 10
81.7680789112
 20
81.6985449478
 30
0.0
 10
81.5956366469
 20
81.2814071128
 30
0.0
 10
81.3572240875
 20
80.8761852135
 30
0.0
 10
81.0549540147
 20
80.486240051
 30
0.0
 10
80.5579551622
 20
79.9778475403
 30
0.0
 10
80.1162051602
 20
79.6495273883
 30
0.0
 10
79.7998902026
 20
79.4510092444
 30
0.0
  0
SPLINE
  5
24A
100
AcDbEntity
  8
0
100
AcDbSpline
 62
7
  6
BYLAYER
 70
0
 71
3
 72
14
 73
10
 74
0
 42
0.0000001
 43
0.0000001
 44
0.0000000001
 40
0.0
 40
0.0
 40
0.0
 40
0.0
 40
0.1080443928
 40
0.2181259105
 40
0.3321030843
 40
0.4514982135
 40
0.5774442515
 40
0.7107187342
 40
1.0
 40
1.0
 40
1.0
 40
1.0
 10
29.6018820753
 20
39.7796049896
 30
0.0
 10
29.6018989365
 20
39.5992900414
 30
0.0
 10
29.5705578205
 20
39.2345302802
 30
0.0
 10
29.4308322301
 20
38.6957453101
 30
0.0
 10
29.2000634826
 20
38.1685951931
 30
0.0
 10
28.8813982609
 20
37.6583745862
 30
0.0
 10
28.4782081612
 20
37.1696721907
 30
0.0
 10
27.8157791554
 20
36.5356419135
 30
0.0
 10
27.2302297576
 20
36.1325011283
 30
0.0
 10
26.8121288703
 20
35.8911119093
 30
0.0
  0
SPLINE
  5
24B
100
AcDbEntity
  8
0
100
AcDbSpline
 62
7
  6
BYLAYER
 70
0
 71
3
 72
9
 73
5
 74
0
 42
0.0000001
 43
0.0000001
 44
0.0000000001
 40
0.0
 40
0.0
 40
0.0
 40
0.0
 40
0.4916735725
 40
1.0
 40
1.0
 40
1.0
 40
1.0
 10
29.6018817384
 20
52.7415808369
 30
0.0
 10
29.6018589624
 20
52.9858293592
 30
0.0
 10
29.5436449668
 20
53.4841915452
 30
0.0
 10
29.3756667137
 20
53.9561874418
 30
0.0
 10
29.2680758662
 20
54.1846412537
 30
0.0
  0
SPLINE
  5
24C
100
AcDbEntity
  8
0
100
AcDbSpline
 62
7
  6
BYLAYER
 70
0
 71
3
 72
9
 73
5
 74
0
 42
0.0000001
 43
0.0000001
 44
0.0000000001
 40
0.0
 40
0.0
 40
0.0
 40
0.0
 40
0.5150449794
 40
1.0
 40
1.0
 40
1.0
 40
1.0
 10
15.5055924328
 20
57.5660549664
 30
0.0
 10
15.1190530071
 20
57.4439746933
 30
0.0
 10
14.3791838009
 20
57.1713719049
 30
0.0
 10
13.6722315819
 20
56.8209120917
 30
0.0
 10
13.3416886062
 20
56.6300741549
 30
0.0
  0
SPLINE
  5
24D
100
AcDbEntity
  8
0
100
AcDbSpline
 62
7
  6
BYLAYER
 70
0
 71
3
 72
21
 73
17
 74
0
 42
0.0000001
 43
0.0000001
 44
0.0000000001
 40
0.0
 40
0.0
 40
0.0
 40
0.0
 40
0.0623959706
 40
0.1287830977
 40
0.1983965315
 40
0.2704038795
 40
0.4174398928
 40
0.5616694101
 40
0.6302950009
 40
0.6954108096
 40
0.7563850783
 40
0.8128461118
 40
0.8647701912
 40
0.9125660834
 40
0.9571559099
 40
1.0
 40
1.0
 40
1.0
 40
1.0
 10
77.8870995443
 20
86.7662881495
 30
0.0
 10
77.687520615
 20
86.6510618888
 30
0.0
 10
77.2596845759
 20
86.4401709682
 30
0.0
 10
76.5696428388
 20
86.1900621023
 30
0.0
 10
75.8238208648
 20
86.0007470154
 30
0.0
 10
74.769646886
 20
85.833657517
 30
0.0
 10
73.4217360851
 20
85.7966066898
 30
0.0
 10
72.0980560577
 20
85.982235791
 30
0.0
 10
71.110105937
 20
86.2668385501
 30
0.0
 10
70.4417041969
 20
86.5360919563
 30
0.0
 10
69.847905111
 20
86.8590242503
 30
0.0
 10
69.3411102958
 20
87.2293289753
 30
0.0
 10
68.9321145415
 20
87.6400183203
 30
0.0
 10
68.6303178963
 20
88.0838021538
 30
0.0
 10
68.4442555267
 20
88.5520181695
 30
0.0
 10
68.4020272627
 20
88.8763351962
 30
0.0
 10
68.4020314856
 20
89.0345757475
 30
0.0
  0
SPLINE
  5
24E
100
AcDbEntity
  8
0
100
AcDbSpline
 62
7
  6
BYLAYER
 70
0
 71
3
 72
11
 73
7
 74
0
 42
0.0000001
 43
0.0000001
 44
0.0000000001
 40
0.0
 40
0.0
 40
0.0
 40
0.0
 40
0.2897031353
 40
0.5490914015
 40
0.7822201129
 40
1.0
 40
1.0
 40
1.0
 40
1.0
 10
18.5614842085
 20
58.1531834903
 30
0.0
 10
18.4674471886
 20
58.0988915156
 30
0.0
 10
18.2968393533
 20
57.9813823454
 30
0.0
 10
18.0929353415
 20
57.7670954651
 30
0.0
 10
17.9639550261
 20
57.5300359696
 30
0.0
 10
17.9337972233
 20
57.3598992023
 30
0.0
 10
17.9337910443
 20
57.2782725191
 30
0.0
  0
SPLINE
  5
24F
100
AcDbEntity
  8
0
100
AcDbSpline
 62
7
  6
BYLAYER
 70
0
 71
3
 72
14
 73
10
 74
0
 42
0.0000001
 43
0.0000001
 44
0.0000000001
 40
0.0
 40
0.0
 40
0.0
 40
0.0
 40
0.2915392813
 40
0.4255065874
 40
0.5516736713
 40
0.6708102825
 40
0.7841096497
 40
0.89317092
 40
1.0
 40
1.0
 40
1.0
 40
1.0
 10
16.8525391324
 20
58.7833625838
 30
0.0
 10
16.6236635732
 20
58.66180207
 30
0.0
 10
16.3022290236
 20
58.4565421467
 30
0.0
 10
15.9365694631
 20
58.1284704379
 30
0.0
 10
15.7137694797
 20
57.8741836675
 30
0.0
 10
15.5373992084
 20
57.6073633718
 30
0.0
 10
15.4094536046
 20
57.3306561044
 30
0.0
 10
15.3318221296
 20
57.0470918829
 30
0.0
 10
15.3144456743
 20
56.8547557226
 30
0.0
 10
15.3144354633
 20
56.7597934892
 30
0.0
  0
SPLINE
  5
250
100
AcDbEntity
  8
0
100
AcDbSpline
 62
7
  6
BYLAYER
 70
0
 71
3
 72
19
 73
15
 74
0
 42
0.0000001
 43
0.0000001
 44
0.0000000001
 40
0.0
 40
0.0
 40
0.0
 40
0.0
 40
0.0552166781
 40
0.1112962841
 40
0.1687412142
 40
0.2279422318
 40
0.351688167
 40
0.4820744682
 40
0.6159875359
 40
0.7492496883
 40
0.8144988585
 40
0.878184774
 40
0.9400511295
 40
1.0
 40
1.0
 40
1.0
 40
1.0
 10
61.6601197602
 20
92.3557677886
 30
0.0
 10
61.6694971218
 20
92.4909094088
 30
0.0
 10
61.7146260018
 20
92.7621750332
 30
0.0
 10
61.8585805449
 20
93.152703887
 30
0.0
 10
62.0751417466
 20
93.519553356
 30
0.0
 10
62.4579986415
 20
93.9713116549
 30
0.0
 10
63.0914533661
 20
94.4290646663
 30
0.0
 10
63.9978213495
 20
94.7544768862
 30
0.0
 10
64.9796143431
 20
94.8409777599
 30
0.0
 10
65.7939794965
 20
94.7059547629
 30
0.0
 10
66.3967624304
 20
94.4766053409
 30
0.0
 10
66.8086102668
 20
94.2506621057
 30
0.0
 10
67.1728268731
 20
93.9750966785
 30
0.0
 10
67.3813275094
 20
93.7588482759
 30
0.0
 10
67.4741878032
 20
93.644793808
 30
0.0
  0
SPLINE
  5
251
100
AcDbEntity
  8
0
100
AcDbSpline
 62
7
  6
BYLAYER
 70
0
 71
3
 72
20
 73
16
 74
0
 42
0.0000001
 43
0.0000001
 44
0.0000000001
 40
0.0
 40
0.0
 40
0.0
 40
0.0
 40
0.0635110538
 40
0.130796368
 40
0.273281046
 40
0.4203821612
 40
0.5640025543
 40
0.6321867051
 40
0.6968323633
 40
0.7573596879
 40
0.8134381728
 40
0.8650706758
 40
0.9126860329
 40
0.9571977574
 40
1.0
 40
1.0
 40
1.0
 40
1.0
 10
23.301278344
 20
50.7180118726
 30
0.0
 10
23.126785867
 20
50.6253353316
 30
0.0
 10
22.755371697
 20
50.4566032339
 30
0.0
 10
21.9476667744
 20
50.1876540061
 30
0.0
 10
20.8483774642
 20
49.9906839486
 30
0.0
 10
19.4953854321
 20
49.9750802287
 30
0.0
 10
18.3856505944
 20
50.1464814636
 30
0.0
 10
17.5612859649
 20
50.3956583341
 30
0.0
 10
17.0051452256
 20
50.6279637548
 30
0.0
 10
16.51190497
 20
50.904067154
 30
0.0
 10
16.0915351194
 20
51.218847124
 30
0.0
 10
15.7527495421
 20
51.5665900953
 30
0.0
 10
15.5030336073
 20
51.9412503792
 30
0.0
 10
15.3493449706
 20
52.335680705
 30
0.0
 10
15.314440769
 20
52.608427342
 30
0.0
 10
15.3144422339
 20
52.7415809712
 30
0.0
  0
SPLINE
  5
252
100
AcDbEntity
  8
0
100
AcDbSpline
 62
7
  6
BYLAYER
 70
0
 71
3
 72
14
 73
10
 74
0
 42
0.0000001
 43
0.0000001
 44
0.0000000001
 40
0.0
 40
0.0
 40
0.0
 40
0.0
 40
0.1068283468
 40
0.2158899598
 40
0.3291891765
 40
0.4483258895
 40
0.5744940257
 40
0.7084631954
 40
1.0
 40
1.0
 40
1.0
 40
1.0
 10
24.8393784175
 20
56.306124336
 30
0.0
 10
24.8393689233
 20
56.2111628055
 30
0.0
 10
24.8219978704
 20
56.0188261819
 30
0.0
 10
24.7443576941
 20
55.7352650161
 30
0.0
 10
24.6164199395
 20
55.4585544692
 30
0.0
 10
24.4400464034
 20
55.1917349241
 30
0.0
 10
24.2172461688
 20
54.9374453265
 30
0.0
 10
23.8515847607
 20
54.6093752456
 30
0.0
 10
23.5301518356
 20
54.4041146529
 30
0.0
 10
23.301278344
 20
54.2825552374
 30
0.0
  0
SPLINE
  5
253
100
AcDbEntity
  8
0
100
AcDbSpline
 62
7
  6
BYLAYER
 70
0
 71
3
 72
21
 73
17
 74
0
 42
0.0000001
 43
0.0000001
 44
0.0000000001
 40
0.0
 40
0.0
 40
0.0
 40
0.0
 40
0.0623960447
 40
0.1287862935
 40
0.1984015824
 40
0.2704108302
 40
0.4174482394
 40
0.5616822653
 40
0.6303099368
 40
0.6954271387
 40
0.7564010232
 40
0.812862202
 40
0.8647859547
 40
0.9125817723
 40
0.9571750242
 40
1.0
 40
1.0
 40
1.0
 40
1.0
 10
70.0293427236
 20
91.3028635341
 30
0.0
 10
70.2289217328
 20
91.418089841
 30
0.0
 10
70.6567702973
 20
91.6289811262
 30
0.0
 10
71.3468270906
 20
91.8791007576
 30
0.0
 10
72.0926741054
 20
92.0684205971
 30
0.0
 10
73.146868943
 20
92.2354924535
 30
0.0
 10
74.4948076224
 20
92.2725524361
 30
0.0
 10
75.8185121014
 20
92.0868832842
 30
0.0
 10
76.8064865926
 20
91.8022639041
 30
0.0
 10
77.4748951421
 20
91.5329957108
 30
0.0
 10
78.0686785392
 20
91.2100250435
 30
0.0
 10
78.5754520459
 20
90.8396982852
 30
0.0
 10
78.9844523138
 20
90.429017382
 30
0.0
 10
79.2862161451
 20
89.9851829319
 30
0.0
 10
79.4721210699
 20
89.5169855232
 30
0.0
 10
79.5144648092
 20
89.1927456721
 30
0.0
 10
79.5144490646
 20
89.0345758426
 30
0.0
  0
SPLINE
  5
254
100
AcDbEntity
  8
0
100
AcDbSpline
 62
7
  6
BYLAYER
 70
0
 71
3
 72
10
 73
6
 74
0
 42
0.0000001
 43
0.0000001
 44
0.0000000001
 40
0.0
 40
0.0
 40
0.0
 40
0.0
 40
0.2274774992
 40
0.5960404846
 40
1.0
 40
1.0
 40
1.0
 40
1.0
 10
68.738741097
 20
90.1343998352
 30
0.0
 10
68.8098805435
 20
90.246933085
 30
0.0
 10
69.0196797051
 20
90.5273670057
 30
0.0
 10
69.4473916767
 20
90.9318234262
 30
0.0
 10
69.824595357
 20
91.1846532926
 30
0.0
 10
70.0293427236
 20
91.3028635341
 30
0.0
  0
SPLINE
  5
255
100
AcDbEntity
  8
0
100
AcDbSpline
 62
7
  6
BYLAYER
 70
0
 71
3
 72
14
 73
10
 74
0
 42
0.0000001
 43
0.0000001
 44
0.0000000001
 40
0.0
 40
0.0
 40
0.0
 40
0.0
 40
0.2868664832
 40
0.4194974618
 40
0.5452421676
 40
0.6649014213
 40
0.7795898817
 40
0.8907212247
 40
1.0
 40
1.0
 40
1.0
 40
1.0
 10
79.7998902026
 20
85.9319971803
 30
0.0
 10
80.1162051589
 20
86.1305153235
 30
0.0
 10
80.5579551588
 20
86.4588354628
 30
0.0
 10
81.0549539993
 20
86.9672279714
 30
0.0
 10
81.3572240755
 20
87.3571731259
 30
0.0
 10
81.5956366391
 20
87.7623950292
 30
0.0
 10
81.7680789242
 20
88.1795328657
 30
0.0
 10
81.8723362363
 20
88.6048639157
 30
0.0
 10
81.8956938048
 20
88.8923141577
 30
0.0
 10
81.8957047711
 20
89.0345758625
 30
0.0
  0
SPLINE
  5
256
100
AcDbEntity
  8
0
100
AcDbSpline
 62
7
  6
BYLAYER
 70
0
 71
3
 72
20
 73
16
 74
0
 42
0.0000001
 43
0.0000001
 44
0.0000000001
 40
0.0
 40
0.0
 40
0.0
 40
0.0
 40
0.0428019136
 40
0.0873128644
 40
0.1349287794
 40
0.1865616499
 40
0.2426387952
 40
0.303166031
 40
0.3678105086
 40
0.4359926292
 40
0.5796112402
 40
0.7267144003
 40
0.8692017831
 40
0.9364902496
 40
1.0
 40
1.0
 40
1.0
 40
1.0
 10
15.3144354633
 20
56.7597934892
 30
0.0
 10
15.3144211458
 20
56.6266409319
 30
0.0
 10
15.3493826208
 20
56.3539048316
 30
0.0
 10
15.5030091106
 20
55.9594592641
 30
0.0
 10
15.7527475013
 20
55.5848048666
 30
0.0
 10
16.0915417585
 20
55.2370783307
 30
0.0
 10
16.5118885492
 20
54.9222728116
 30
0.0
 10
17.0051312977
 20
54.6461874849
 30
0.0
 10
17.5612626074
 20
54.4138907208
 30
0.0
 10
18.3856040615
 20
54.1646909248
 30
0.0
 10
19.4953372303
 20
53.9933049641
 30
0.0
 10
20.8483354656
 20
54.0088980879
 30
0.0
 10
21.9476534567
 20
54.2058567399
 30
0.0
 10
22.7553677746
 20
54.4748211751
 30
0.0
 10
23.1267895101
 20
54.6435497868
 30
0.0
 10
23.301278344
 20
54.7362243929
 30
0.0
  0
SPLINE
  5
257
100
AcDbEntity
  8
0
100
AcDbSpline
 62
7
  6
BYLAYER
 70
0
 71
3
 72
9
 73
5
 74
0
 42
0.0000001
 43
0.0000001
 44
0.0000000001
 40
0.0
 40
0.0
 40
0.0
 40
0.0
 40
0.232853894
 40
1.0
 40
1.0
 40
1.0
 40
1.0
 10
24.3959982048
 20
51.583028554
 30
0.0
 10
24.3388942249
 20
51.5120728694
 30
0.0
 10
24.077031428
 20
51.2207214213
 30
0.0
 10
23.7581338158
 20
50.9841156596
 30
0.0
 10
23.5005209009
 20
50.8302468627
 30
0.0
  0
SPLINE
  5
258
100
AcDbEntity
  8
0
100
AcDbSpline
 62
7
  6
BYLAYER
 70
0
 71
3
 72
11
 73
7
 74
0
 42
0.0000001
 43
0.0000001
 44
0.0000000001
 40
0.0
 40
0.0
 40
0.0
 40
0.0
 40
0.2897031353
 40
0.5490914015
 40
0.7822201129
 40
1.0
 40
1.0
 40
1.0
 40
1.0
 10
21.5923332679
 20
56.4033615562
 30
0.0
 10
21.6863702879
 20
56.4576535309
 30
0.0
 10
21.8569781232
 20
56.575162701
 30
0.0
 10
22.0608821349
 20
56.7894495814
 30
0.0
 10
22.1898624504
 20
57.0265090769
 30
0.0
 10
22.2200202532
 20
57.1966458442
 30
0.0
 10
22.2200264322
 20
57.2782725274
 30
0.0
  0
SPLINE
  5
259
100
AcDbEntity
  8
0
100
AcDbSpline
 62
7
  6
BYLAYER
 70
0
 71
3
 72
14
 73
10
 74
0
 42
0.0000001
 43
0.0000001
 44
0.0000000001
 40
0.0
 40
0.0
 40
0.0
 40
0.0
 40
0.2892793057
 40
0.4225524682
 40
0.5484985062
 40
0.6678942284
 40
0.7818717443
 40
0.8919542197
 40
1.0
 40
1.0
 40
1.0
 40
1.0
 10
26.8121288703
 20
48.8530877813
 30
0.0
 10
27.2302269807
 20
49.094475397
 30
0.0
 10
27.8157719677
 20
49.4976126026
 30
0.0
 10
28.4781992441
 20
50.1316372116
 30
0.0
 10
28.8813878738
 20
50.6203389558
 30
0.0
 10
29.2000606762
 20
51.1305570588
 30
0.0
 10
29.4308272843
 20
51.6577115546
 30
0.0
 10
29.5705606605
 20
52.1964992733
 30
0.0
 10
29.6018985528
 20
52.5612635488
 30
0.0
 10
29.6018817384
 20
52.7415808369
 30
0.0
  0
SPLINE
  5
25A
100
AcDbEntity
  8
0
100
AcDbSpline
 62
7
  6
BYLAYER
 70
0
 71
3
 72
13
 73
9
 74
0
 42
0.0000001
 43
0.0000001
 44
0.0000000001
 40
0.0
 40
0.0
 40
0.0
 40
0.0
 40
0.2679221919
 40
0.5265658129
 40
0.6507358986
 40
0.7708029405
 40
0.8869951427
 40
1.0
 40
1.0
 40
1.0
 40
1.0
 10
64.8300882027
 20
90.13439044
 30
0.0
 10
64.3939827007
 20
90.1343893917
 30
0.0
 10
63.5325109402
 20
90.0190701365
 30
0.0
 10
62.5469696203
 20
89.5884665577
 30
0.0
 10
61.8909446752
 20
89.0936079844
 30
0.0
 10
61.4852562599
 20
88.6656792784
 30
0.0
 10
61.1714485486
 20
88.1880138888
 30
0.0
 10
61.0280110365
 20
87.840593977
 30
0.0
 10
60.9751766936
 20
87.6644035996
 30
0.0
  0
SPLINE
  5
25B
100
AcDbEntity
  8
0
100
AcDbSpline
 62
7
  6
BYLAYER
 70
0
 71
3
 72
17
 73
13
 74
0
 42
0.0000001
 43
0.0000001
 44
0.0000000001
 40
0.0
 40
0.0
 40
0.0
 40
0.0
 40
0.1286926208
 40
0.2702795078
 40
0.4174383051
 40
0.5617803148
 40
0.6954501289
 40
0.8127134773
 40
0.8646759206
 40
0.9125113962
 40
0.9571388332
 40
1.0
 40
1.0
 40
1.0
 40
1.0
 10
21.5923332679
 20
55.8848825213
 30
0.0
 10
21.4336867713
 20
55.7932884706
 30
0.0
 10
21.0744957445
 20
55.6450802244
 30
0.0
 10
20.4890770221
 20
55.5279775016
 30
0.0
 10
19.8699018597
 20
55.5108290943
 30
0.0
 10
19.2674902948
 20
55.5954875163
 30
0.0
 10
18.7306917821
 20
55.7747889291
 30
0.0
 10
18.3573363073
 20
56.0020347069
 30
0.0
 10
18.138248005
 20
56.2219361113
 30
0.0
 10
18.0218283195
 20
56.3931224206
 30
0.0
 10
17.9501482222
 20
56.5737214354
 30
0.0
 10
17.9337852557
 20
56.6987822668
 30
0.0
 10
17.933793592
 20
56.7597934639
 30
0.0
  0
SPLINE
  5
25C
100
AcDbEntity
  8
0
100
AcDbSpline
 62
7
  6
BYLAYER
 70
0
 71
3
 72
14
 73
10
 74
0
 42
0.0000001
 43
0.0000001
 44
0.0000000001
 40
0.0
 40
0.0
 40
0.0
 40
0.0
 40
0.2915392813
 40
0.4255065874
 40
0.5516736713
 40
0.6708102825
 40
0.7841096497
 40
0.89317092
 40
1.0
 40
1.0
 40
1.0
 40
1.0
 10
23.301278344
 20
54.7362243929
 30
0.0
 10
23.5301539033
 20
54.8577849067
 30
0.0
 10
23.8515884529
 20
55.06304483
 30
0.0
 10
24.2172480134
 20
55.3911165388
 30
0.0
 10
24.4400479968
 20
55.6454033092
 30
0.0
 10
24.6164182681
 20
55.912223605
 30
0.0
 10
24.7443638718
 20
56.1889308724
 30
0.0
 10
24.8219953469
 20
56.4724950938
 30
0.0
 10
24.8393718021
 20
56.6648312542
 30
0.0
 10
24.8393820132
 20
56.7597934875
 30
0.0
  0
SPLINE
  5
25D
100
AcDbEntity
  8
0
100
AcDbSpline
 62
7
  6
BYLAYER
 70
0
 71
3
 72
17
 73
13
 74
0
 42
0.0000001
 43
0.0000001
 44
0.0000000001
 40
0.0
 40
0.0
 40
0.0
 40
0.0
 40
0.0428584629
 40
0.08748393
 40
0.135317815
 40
0.1872795469
 40
0.3045398917
 40
0.4382057949
 40
0.5825481992
 40
0.7297130515
 40
0.8713063844
 40
1.0
 40
1.0
 40
1.0
 40
1.0
 10
17.9337910443
 20
57.2782725191
 30
0.0
 10
17.9337864261
 20
57.217265164
 30
0.0
 10
17.9501395383
 20
57.0922102448
 30
0.0
 10
18.0218227618
 20
56.9116216528
 30
0.0
 10
18.1382262616
 20
56.7404325024
 30
0.0
 10
18.3573134773
 20
56.5205391656
 30
0.0
 10
18.7306498032
 20
56.2932870844
 30
0.0
 10
19.2674379963
 20
56.113979693
 30
0.0
 10
19.8698514086
 20
56.0293109078
 30
0.0
 10
20.489045701
 20
56.0464515124
 30
0.0
 10
21.0744841894
 20
56.163555325
 30
0.0
 10
21.433685528
 20
56.3117667876
 30
0.0
 10
21.5923332679
 20
56.4033615562
 30
0.0
  0
SPLINE
  5
25E
100
AcDbEntity
  8
0
100
AcDbSpline
 62
7
  6
BYLAYER
 70
0
 71
3
 72
11
 73
7
 74
0
 42
0.0000001
 43
0.0000001
 44
0.0000000001
 40
0.0
 40
0.0
 40
0.0
 40
0.0
 40
0.2177827477
 40
0.4509152641
 40
0.7103063952
 40
1.0
 40
1.0
 40
1.0
 40
1.0
 10
22.2200238845
 20
56.7597935128
 30
0.0
 10
22.2200127313
 20
56.6781658278
 30
0.0
 10
22.1898650828
 20
56.5080259431
 30
0.0
 10
22.0608753663
 20
56.2709653263
 30
0.0
 10
21.8569731023
 20
56.056680238
 30
0.0
 10
21.6863671138
 20
55.9391726635
 30
0.0
 10
21.5923332679
 20
55.8848825213
 30
0.0
  0
SPLINE
  5
25F
100
AcDbEntity
  8
0
100
AcDbSpline
 62
7
  6
BYLAYER
 70
0
 71
3
 72
24
 73
20
 74
0
 42
0.0000001
 43
0.0000001
 44
0.0000000001
 40
0.0
 40
0.0
 40
0.0
 40
0.0
 40
0.0213336553
 40
0.0428955709
 40
0.0874738501
 40
0.1352529949
 40
0.1871578024
 40
0.2435992297
 40
0.3045512755
 40
0.369643963
 40
0.438246383
 40
0.5095379028
 40
0.582567684
 40
0.6563047932
 40
0.7296861218
 40
0.8016693093
 40
0.8712626476
 40
0.9376183392
 40
1.0
 40
1.0
 40
1.0
 40
1.0
 10
10.5519357381
 20
52.7415810992
 30
0.0
 10
10.5519483383
 20
52.6064571586
 30
0.0
 10
10.569412506
 20
52.334433186
 30
0.0
 10
10.6745511618
 20
51.789207726
 30
0.0
 10
10.943215551
 20
51.1116446233
 30
0.0
 10
11.4605413783
 20
50.3511855432
 30
0.0
 10
12.1616630647
 20
49.6470077783
 30
0.0
 10
13.03043532
 20
49.0122144799
 30
0.0
 10
14.0483681468
 20
48.4585497829
 30
0.0
 10
15.1941551786
 20
47.9969715797
 30
0.0
 10
16.4437107633
 20
47.6368667809
 30
0.0
 10
17.7706164443
 20
47.3857350967
 30
0.0
 10
19.1466873121
 20
47.2488856487
 30
0.0
 10
20.5425950797
 20
47.2292338977
 30
0.0
 10
21.9285843727
 20
47.3272079129
 30
0.0
 10
23.2750336701
 20
47.5407551868
 30
0.0
 10
24.5535288778
 20
47.8652485011
 30
0.0
 10
25.7365319226
 20
48.2939629835
 30
0.0
 10
26.4699483813
 20
48.6555309631
 30
0.0
 10
26.8121288703
 20
48.8530877813
 30
0.0
  0
ENDSEC
  0
SECTION
  2
OBJECTS
  0
DICTIONARY
  5
C
100
AcDbDictionary
280
0
281
1
  3
ACAD_GROUP
350
D
  3
ACAD_MLINESTYLE
350
17
  3
ACAD_LAYOUT
350
1A
  3
ACAD_PLOTSETTINGS
350
19
  3
ACAD_PLOTSTYLENAME
350
E
  0
DICTIONARY
  5
D
102
{ACAD_REACTORS
330
C
102
}
100
AcDbDictionary
280
0
281
1
  0
ACDBDICTIONARYWDFLT
  5
E
102
{ACAD_REACTORS
330
C
102
}
100
AcDbDictionary
281
1
  3
Normal
350
F
100
AcDbDictionaryWithDefault
340
F
  0
DICTIONARY
  5
17
102
{ACAD_REACTORS
330
C
102
}
100
AcDbDictionary
280
0
281
1
  3
Standard
350
18
  0
DICTIONARY
  5
19
102
{ACAD_REACTORS
330
C
102
}
100
AcDbDictionary
281
1
  0
DICTIONARY
  5
1A
102
{ACAD_REACTORS
330
C
102
}
100
AcDbDictionary
281
1
  3
Model
350
260
  3
Layout1
350
261
  0
ACDBPLACEHOLDER
  5
F
102
{ACAD_REACTORS
330
E
102
}
  0
MLINESTYLE
  5
18
102
{ACAD_REACTORS
330
17
102
}
100
AcDbMlineStyle
  2
STANDARD
 70
0
  3

 62
256
 51
90.0
 52
90.0
 71
2
 49
0.5
 62
256
  6
BYLAYER
 49
-0.5
 62
256
  6
BYLAYER
  0
LAYOUT
  5
260
102
{ACAD_REACTORS
330
1A
102
}
100
AcDbPlotSettings
  1

  2
none_device
  4

  6

 40
0.0
 41
0.0
 42
0.0
 43
0.0
 44
210.0
 45
297.0
 46
0.0
 47
0.0
 48
0.0
 49
0.0
140
0.0
141
0.0
142
1.0
143
1.0
 70
1024
 72
1
 73
0
 74
0
  7

 75
0
147
1.0
148
0.0
149
0.0
100
AcDbLayout
  1
Model
 70
0
 71
0
 10
0.0
 20
0.0
 11
210.0
 21
297.0
 12
0.0
 22
0.0
 32
0.0
 14
0.0
 24
0.0
 34
0.0
 15
0.0
 25
0.0
 35
0.0
146
0.0
 13
0.0
 23
0.0
 33
0.0
 16
1.0
 26
0.0
 36
0.0
 17
0.0
 27
1.0
 37
0.0
 76
0
330
210
345
0
346
0
  0
LAYOUT
  5
261
102
{ACAD_REACTORS
330
1A
102
}
100
AcDbPlotSettings
  1

  2
none_device
  4

  6

 40
0.0
 41
0.0
 42
0.0
 43
0.0
 44
210.0
 45
297.0
 46
0.0
 47
0.0
 48
0.0
 49
0.0
140
0.0
141
0.0
142
1.0
143
1.0
 70
0
 72
1
 73
0
 74
0
  7

 75
0
147
1.0
148
0.0
149
0.0
100
AcDbLayout
  1
Layout1
 70
0
 71
1
 10
0.0
 20
0.0
 11
210.0
 21
297.0
 12
0.0
 22
0.0
 32
0.0
 14
0.0
 24
0.0
 34
0.0
 15
0.0
 25
0.0
 35
0.0
146
0.0
 13
0.0
 23
0.0
 33
0.0
 16
1.0
 26
0.0
 36
0.0
 17
0.0
 27
1.0
 37
0.0
 76
0
330
211
345
0
346
0
  0
ENDSEC
  0
EOF
