999
DXF file: C:\Users\sesa63760\Dev\_Creo\CAD\MCADID0002915_3D-CAD\drw0001_1.dxf
999
Pro/ENGINEER 2019471 by Parametric Technology Corporation
  0
SECTION
  2
HEADER
  9
$ACADVER
  1
AC1024
  9
$DWGCODEPAGE
  3
ANSI_1252
  9
$EXTMAX
 10
79.5439629183
 20
112.497890413
 30
0.0
  9
$EXTMIN
 10
0.0
 20
0.0
 30
0.0
  9
$LIMMIN
 10
0.0
 20
0.0
  9
$LIMMAX
 10
79.5439629183
 20
112.497890413
  9
$VIEWCTR
 10
39.7719814592
 20
56.2489452065
  9
$VIEWSIZE
 40
112.497890413
  9
$CLAYER
  8
0
  9
$LTSCALE
 40
7.3331958195
  9
$CELTYPE
  6
BYLAYER
  9
$DIMSCALE
 40
1.0
  9
$DIMASZ
 40
0.9469519395
  9
$DIMEXO
 40
1.0
  9
$DIMDLI
 40
5.0665716571
  9
$DIMEXE
 40
1.0
  9
$DIMCEN
 40
1.1999774977
  9
$DIMLFAC
 40
1.0
  9
$DIMBLK
  1
_FILLED
  9
$DIMALT
 70
0
  9
$DIMALTF
 40
0.0393700787
  9
$DIMTXT
 40
1.3257327153
  9
$DIMTOL
 70
1
  9
$DIMLIM
 70
0
  9
$DIMTFAC
 40
1.0
  9
$DIMTP
 40
0.01
  9
$DIMTM
 40
0.01
  9
$DIMGAP
 40
0.625
  9
$DIMDSEP
 70
46
  9
$AUNITS
 70
0
  9
$PDMODE
 70
3
  9
$PDSIZE
 40
0.3125
  9
$HANDSEED
  5
262
  9
$TILEMODE
 70
1
  9
$MEASUREMENT
 70
1
  9
$INSUNITS
 70
4
  0
ENDSEC
  0
SECTION
  2
CLASSES
  0
CLASS
  1
ACDBDICTIONARYWDFLT
  2
AcDbDictionaryWithDefault
  3
AutoCAD 2000
 90
0
 91
1
280
0
281
0
  0
CLASS
  1
ACDBPLACEHOLDER
  2
AcDbPlaceHolder
  3
AutoCAD 2000
 90
0
 91
1
280
0
281
0
  0
CLASS
  1
LAYOUT
  2
AcDbLayout
  3
AutoCAD 2000
 90
0
 91
0
280
0
281
0
  0
ENDSEC
  0
SECTION
  2
TABLES
  0
TABLE
  2
VPORT
  5
8
100
AcDbSymbolTable
 70
2
  0
VPORT
  5
1F4
100
AcDbSymbolTableRecord
100
AcDbViewportTableRecord
  2
*ACTIVE
 70
0
 10
0.0
 20
0.0
 11
1.0
 21
1.0
 12
39.7719814592
 22
56.2489452065
 13
0.0
 23
0.0
 14
1.0
 24
1.0
 15
0.0
 25
0.0
 16
0.0
 26
0.0
 36
1.0
 17
0.0
 27
0.0
 37
0.0
 40
112.497890413
 41
0.7070707071
 42
50.0
 43
0.0
 44
0.0
 50
0.0
 51
0.0
 71
0
 72
100
 73
1
 74
1
 75
0
 76
0
 77
0
 78
0
  0
ENDTAB
  0
TABLE
  2
LTYPE
  5
5
100
AcDbSymbolTable
 70
6
  0
LTYPE
  5
14
100
AcDbSymbolTableRecord
100
AcDbLinetypeTableRecord
  2
BYBLOCK
 70
0
  3

 72
65
 73
0
 40
0.0
  0
LTYPE
  5
15
100
AcDbSymbolTableRecord
100
AcDbLinetypeTableRecord
  2
BYLAYER
 70
0
  3

 72
65
 73
0
 40
0.0
  0
LTYPE
  5
16
100
AcDbSymbolTableRecord
100
AcDbLinetypeTableRecord
  2
CONTINUOUS
 70
64
  3
Solid line
 72
65
 73
0
 40
0.0
  0
LTYPE
  5
1F5
100
AcDbSymbolTableRecord
100
AcDbLinetypeTableRecord
  2
CENTER
 70
64
  3
____ _ ____ _ ____ _ ____ _ ____ _ ____ _ ____
 72
65
 73
4
 40
0.6
 49
0.375
 74
0
 49
-0.075
 74
0
 49
0.075
 74
0
 49
-0.075
 74
0
  0
LTYPE
  5
1F6
100
AcDbSymbolTableRecord
100
AcDbLinetypeTableRecord
  2
HIDDEN
 70
64
  3
- - - - - - - - - - - - - - - - - - - -
 72
65
 73
2
 40
0.2
 49
0.1
 74
0
 49
-0.1
 74
0
  0
LTYPE
  5
1F7
100
AcDbSymbolTableRecord
100
AcDbLinetypeTableRecord
  2
PHANTOM
 70
64
  3
_____ _ _ _____ _ _ _____ _ _ _____
 72
65
 73
6
 40
0.8
 49
0.45
 74
0
 49
-0.05
 74
0
 49
0.1
 74
0
 49
-0.05
 74
0
 49
0.1
 74
0
 49
-0.05
 74
0
  0
LTYPE
  5
1F8
100
AcDbSymbolTableRecord
100
AcDbLinetypeTableRecord
  2
DOT
 70
64
  3
. . . . . . . . . . . . . . . . . . . .
 72
65
 73
2
 40
0.2
 49
0.1
 74
0
 49
-0.1
 74
0
  0
LTYPE
  5
1F9
100
AcDbSymbolTableRecord
100
AcDbLinetypeTableRecord
  2
DASHED
 70
64
  3
- - - - - - - - - - - - - - - - - - - -
 72
65
 73
2
 40
0.2
 49
0.1
 74
0
 49
-0.1
 74
0
  0
ENDTAB
  0
TABLE
  2
LAYER
  5
2
100
AcDbSymbolTable
 70
36
  0
LAYER
  5
10
100
AcDbSymbolTableRecord
100
AcDbLayerTableRecord
  2
0
 70
0
 62
7
  6
CONTINUOUS
370
-3
390
F
  0
LAYER
  5
1FA
100
AcDbSymbolTableRecord
100
AcDbLayerTableRecord
  2
DEFAULT_1
 70
0
 62
7
  6
CENTER
370
-3
390
F
  0
LAYER
  5
1FB
100
AcDbSymbolTableRecord
100
AcDbLayerTableRecord
  2
DEFAULT_2
 70
0
 62
7
  6
HIDDEN
370
-3
390
F
  0
LAYER
  5
1FC
100
AcDbSymbolTableRecord
100
AcDbLayerTableRecord
  2
DEFAULT_3
 70
0
 62
7
  6
PHANTOM
370
-3
390
F
  0
LAYER
  5
1FD
100
AcDbSymbolTableRecord
100
AcDbLayerTableRecord
  2
00_COMPONENTS
 70
0
 62
7
  6
CONTINUOUS
370
-3
390
F
  0
LAYER
  5
1FE
100
AcDbSymbolTableRecord
100
AcDbLayerTableRecord
  2
01_1_DEFAULT_DATUMS
 70
0
 62
7
  6
CONTINUOUS
370
-3
390
F
  0
LAYER
  5
1FF
100
AcDbSymbolTableRecord
100
AcDbLayerTableRecord
  2
01_PLANES
 70
0
 62
7
  6
CONTINUOUS
370
-3
390
F
  0
LAYER
  5
200
100
AcDbSymbolTableRecord
100
AcDbLayerTableRecord
  2
02_COORD_SYS
 70
0
 62
7
  6
CONTINUOUS
370
-3
390
F
  0
LAYER
  5
201
100
AcDbSymbolTableRecord
100
AcDbLayerTableRecord
  2
03_AXES
 70
0
 62
7
  6
CONTINUOUS
370
-3
390
F
  0
LAYER
  5
202
100
AcDbSymbolTableRecord
100
AcDbLayerTableRecord
  2
04_POINTS
 70
0
 62
7
  6
CONTINUOUS
370
-3
390
F
  0
LAYER
  5
203
100
AcDbSymbolTableRecord
100
AcDbLayerTableRecord
  2
05_CURVES
 70
0
 62
7
  6
CONTINUOUS
370
-3
390
F
  0
LAYER
  5
204
100
AcDbSymbolTableRecord
100
AcDbLayerTableRecord
  2
06_SURFS
 70
0
 62
7
  6
CONTINUOUS
370
-3
390
F
  0
LAYER
  5
205
100
AcDbSymbolTableRecord
100
AcDbLayerTableRecord
  2
07_COSMETICS
 70
0
 62
7
  6
CONTINUOUS
370
-3
390
F
  0
LAYER
  5
206
100
AcDbSymbolTableRecord
100
AcDbLayerTableRecord
  2
10_NOTES
 70
0
 62
7
  6
CONTINUOUS
370
-3
390
F
  0
LAYER
  5
207
100
AcDbSymbolTableRecord
100
AcDbLayerTableRecord
  2
11_NOTES_PUB
 70
0
 62
7
  6
CONTINUOUS
370
-3
390
F
  0
LAYER
  5
208
100
AcDbSymbolTableRecord
100
AcDbLayerTableRecord
  2
13_REF_GTOL
 70
0
 62
7
  6
CONTINUOUS
370
-3
390
F
  0
LAYER
  5
209
100
AcDbSymbolTableRecord
100
AcDbLayerTableRecord
  2
16_MISC
 70
0
 62
7
  6
CONTINUOUS
370
-3
390
F
  0
LAYER
  5
20A
100
AcDbSymbolTableRecord
100
AcDbLayerTableRecord
  2
17_NO_PRINT
 70
0
 62
7
  6
CONTINUOUS
370
-3
390
F
  0
LAYER
  5
20B
100
AcDbSymbolTableRecord
100
AcDbLayerTableRecord
  2
18_DATUM_CAMS_JOINTS
 70
0
 62
7
  6
CONTINUOUS
370
-3
390
F
  0
LAYER
  5
20C
100
AcDbSymbolTableRecord
100
AcDbLayerTableRecord
  2
19_DATUM_FUNCTIONAL
 70
0
 62
7
  6
CONTINUOUS
370
-3
390
F
  0
LAYER
  5
20D
100
AcDbSymbolTableRecord
100
AcDbLayerTableRecord
  2
20_DATUM_KINEMATIC_SCHEME
 70
0
 62
7
  6
CONTINUOUS
370
-3
390
F
  0
ENDTAB
  0
TABLE
  2
STYLE
  5
3
100
AcDbSymbolTable
 70
1
  0
STYLE
  5
11
100
AcDbSymbolTableRecord
100
AcDbTextStyleTableRecord
  2
STANDARD
 70
0
 40
0.0
 41
1.0
 50
0.0
 71
0
 42
0.2
  3
ARIAL.TTF
  4

  0
STYLE
  5
20E
100
AcDbSymbolTableRecord
100
AcDbTextStyleTableRecord
  2
TEXTSTYLE_1
 70
0
 40
0.0
 41
0.8
 50
0.0
 71
0
 42
0.2
  3
gdt
  4

  0
ENDTAB
  0
TABLE
  2
VIEW
  5
6
100
AcDbSymbolTable
 70
0
  0
ENDTAB
  0
TABLE
  2
UCS
  5
7
100
AcDbSymbolTable
 70
0
  0
ENDTAB
  0
TABLE
  2
APPID
  5
9
100
AcDbSymbolTable
 70
1
  0
APPID
  5
20F
100
AcDbSymbolTableRecord
100
AcDbRegAppTableRecord
  2
ACAD
 70
0
  0
ENDTAB
  0
TABLE
  2
BLOCK_RECORD
  5
1
100
AcDbSymbolTable
 70
0
  0
BLOCK_RECORD
  5
210
100
AcDbSymbolTableRecord
100
AcDbBlockTableRecord
  2
*Model_Space
  0
BLOCK_RECORD
  5
211
100
AcDbSymbolTableRecord
100
AcDbBlockTableRecord
  2
*Paper_Space
  0
BLOCK_RECORD
  5
212
100
AcDbSymbolTableRecord
100
AcDbBlockTableRecord
  2
_FILLED
  0
ENDTAB
  0
TABLE
  2
DIMSTYLE
  5
A
100
AcDbSymbolTable
 70
1
100
AcDbDimStyleTable
 71
0
  0
DIMSTYLE
105
213
100
AcDbSymbolTableRecord
100
AcDbDimStyleTableRecord
  2
STANDARD
 70
0
  3

  4

 40
1.0
 41
0.9469519395
 42
1.0
 43
0.38
 44
1.0
 45
0.0
 46
0.0
 47
0.01
 48
0.01
140
1.3257327153
141
0.09
142
0.0
143
25.4
144
1.0
145
0.0
146
1.0
147
0.625
 71
1
 72
0
 73
0
 74
0
 75
0
 76
0
 77
1
 78
8
 79
2
170
0
171
1
172
0
173
0
174
0
175
0
176
0
177
0
178
0
270
2
179
2
271
2
272
2
273
2
274
2
275
0
280
0
281
0
282
0
283
1
284
8
285
0
286
0
287
3
288
0
340
11
278
46
341
212
342
212
343
212
344
212
  0
ENDTAB
  0
ENDSEC
  0
SECTION
  2
BLOCKS
  0
BLOCK
  5
20
100
AcDbEntity
  8
0
100
AcDbBlockBegin
  2
*Model_Space
 70
0
 10
0.0
 20
0.0
 30
0.0
  3
*Model_Space
  1

  0
ENDBLK
  5
21
100
AcDbEntity
  8
0
100
AcDbBlockEnd
  0
BLOCK
  5
1C
100
AcDbEntity
  8
0
100
AcDbBlockBegin
  2
*Paper_Space
 70
0
 10
0.0
 20
0.0
 30
0.0
  3
*Paper_Space
  1

  0
ENDBLK
  5
1D
100
AcDbEntity
  8
0
100
AcDbBlockEnd
  0
BLOCK
  5
214
100
AcDbEntity
  8
0
100
AcDbBlockBegin
  2
_FILLED
 70
64
 10
0.0
 20
0.0
  3
_FILLED
  1

  0
SOLID
  5
215
100
AcDbEntity
  8
0
  6
BYBLOCK
 62
0
100
AcDbTrace
 10
0.0
 20
0.0
 11
-1.0
 21
0.25
 12
-1.0
 22
-0.25
 13
-1.0
 23
-0.25
  0
ENDBLK
  5
216
100
AcDbEntity
  8
0
  6
BYBLOCK
 62
0
100
AcDbBlockEnd
  0
ENDSEC
  0
SECTION
  2
ENTITIES
  0
LINE
  5
217
100
AcDbEntity
  8
0
100
AcDbLine
 62
7
  6
BYLAYER
 10
9.1923887797
 20
43.2888542381
 11
9.1923887797
 21
38.1040638893
  0
LINE
  5
218
100
AcDbEntity
  8
0
100
AcDbLine
 62
7
  6
BYLAYER
 10
13.9548887797
 20
43.2888542381
 11
13.9548887797
 21
47.3070667584
  0
LINE
  5
219
100
AcDbEntity
  8
0
100
AcDbLine
 62
7
  6
BYLAYER
 10
16.5742637797
 20
47.8255457932
 11
16.5742637797
 21
47.3070667584
  0
LINE
  5
21A
100
AcDbEntity
  8
0
100
AcDbLine
 62
7
  6
BYLAYER
 10
20.8605137797
 20
47.8255457932
 11
20.8605137797
 21
47.3070667584
  0
LINE
  5
21B
100
AcDbEntity
  8
0
100
AcDbLine
 62
7
  6
BYLAYER
 10
21.9124075976
 20
41.5738757314
 11
21.9124075976
 21
44.8143696994
  0
LINE
  5
21C
100
AcDbEntity
  8
0
100
AcDbLine
 62
7
  6
BYLAYER
 10
23.4798887797
 20
46.8533976028
 11
23.4798887797
 21
47.3070667584
  0
LINE
  5
21D
100
AcDbEntity
  8
0
100
AcDbLine
 62
7
  6
BYLAYER
 10
28.2423887797
 20
43.2888542381
 11
28.2423887797
 21
38.1040638893
  0
LINE
  5
21E
100
AcDbEntity
  8
0
100
AcDbLine
 62
7
  6
BYLAYER
 10
53.4894001125
 20
74.7637361902
 11
49.7347107829
 21
72.3674922591
  0
LINE
  5
21F
100
AcDbEntity
  8
0
100
AcDbLine
 62
7
  6
BYLAYER
 10
48.4017980119
 20
69.8965799184
 11
16.9080766172
 21
49.7948346447
  0
LINE
  5
220
100
AcDbEntity
  8
0
100
AcDbLine
 62
7
  6
BYLAYER
 10
53.6560441076
 20
69.4554701298
 11
42.6131813848
 21
63.0799084211
  0
LINE
  5
221
100
AcDbEntity
  8
0
100
AcDbLine
 62
7
  6
BYLAYER
 10
55.6204833127
 20
68.3213262836
 11
44.57762059
 21
61.945764575
  0
LINE
  5
222
100
AcDbEntity
  8
0
100
AcDbLine
 62
7
  6
BYLAYER
 10
41.4906540432
 20
61.1356232397
 11
42.6131813848
 21
63.0799084211
  0
LINE
  5
223
100
AcDbEntity
  8
0
100
AcDbLine
 62
7
  6
BYLAYER
 10
43.4550932484
 20
60.0014793935
 11
54.4979559712
 21
66.3770411022
  0
LINE
  5
224
100
AcDbEntity
  8
0
100
AcDbLine
 62
7
  6
BYLAYER
 10
60.1030803082
 20
66.381446745
 11
68.943513806
 21
70.9987685186
  0
LINE
  5
225
100
AcDbEntity
  8
0
100
AcDbLine
 62
7
  6
BYLAYER
 10
49.7347107829
 20
72.3674922591
 11
48.4017980119
 21
69.8965799184
  0
LINE
  5
226
100
AcDbEntity
  8
0
100
AcDbLine
 62
7
  6
BYLAYER
 10
44.57762059
 20
61.945764575
 11
43.4550932484
 21
60.0014793935
  0
LINE
  5
227
100
AcDbEntity
  8
0
100
AcDbLine
 62
7
  6
BYLAYER
 10
21.9124075976
 20
44.8143696994
 11
58.6296747252
 21
63.9916461321
  0
LINE
  5
228
100
AcDbEntity
  8
0
100
AcDbLine
 62
7
  6
BYLAYER
 10
58.6296747252
 20
60.7511521641
 11
21.9124075976
 21
41.5738757314
  0
LINE
  5
229
100
AcDbEntity
  8
0
100
AcDbLine
 62
7
  6
BYLAYER
 10
41.4906540432
 20
61.1356232397
 11
43.4550932484
 21
60.0014793935
  0
LINE
  5
22A
100
AcDbEntity
  8
0
100
AcDbLine
 62
7
  6
BYLAYER
 10
54.4979559712
 20
66.3770411022
 11
55.6204833127
 21
68.3213262836
  0
LINE
  5
22B
100
AcDbEntity
  8
0
100
AcDbLine
 62
7
  6
BYLAYER
 10
68.943513806
 20
64.5177805826
 11
60.1030803082
 21
59.9004588091
  0
LINE
  5
22C
100
AcDbEntity
  8
0
100
AcDbLine
 62
7
  6
BYLAYER
 10
44.57762059
 20
61.945764575
 11
42.6131813848
 21
63.0799084211
  0
LINE
  5
22D
100
AcDbEntity
  8
0
100
AcDbLine
 62
7
  6
BYLAYER
 10
50.5215950894
 20
72.8696820752
 11
50.521574396
 21
75.7392560762
  0
LINE
  5
22E
100
AcDbEntity
  8
0
100
AcDbLine
 62
7
  6
BYLAYER
 10
58.6296747252
 20
63.9916461321
 11
60.1030803082
 21
66.381446745
  0
LINE
  5
22F
100
AcDbEntity
  8
0
100
AcDbLine
 62
7
  6
BYLAYER
 10
60.1030803082
 20
59.9004588091
 11
58.6296747252
 21
60.7511521641
  0
LINE
  5
230
100
AcDbEntity
  8
0
100
AcDbLine
 62
7
  6
BYLAYER
 10
54.4903243959
 20
78.9797786641
 11
54.4903495116
 21
75.4969629558
  0
LINE
  5
231
100
AcDbEntity
  8
0
100
AcDbLine
 62
7
  6
BYLAYER
 10
58.0624918747
 20
74.3971482616
 11
58.0986347774
 21
74.7637472694
  0
LINE
  5
232
100
AcDbEntity
  8
0
100
AcDbLine
 62
7
  6
BYLAYER
 10
58.6296747252
 20
63.9916461321
 11
54.4979559712
 21
66.3770411022
  0
LINE
  5
233
100
AcDbEntity
  8
0
100
AcDbLine
 62
7
  6
BYLAYER
 10
51.4109606793
 20
68.1592783453
 11
48.4017980119
 21
69.8965799184
  0
LINE
  5
234
100
AcDbEntity
  8
0
100
AcDbLine
 62
7
  6
BYLAYER
 10
58.0986347774
 20
74.2580120619
 11
58.0986347774
 21
74.7637472694
  0
LINE
  5
235
100
AcDbEntity
  8
0
100
AcDbLine
 62
7
  6
BYLAYER
 10
58.3990024058
 20
75.4969723511
 11
58.3990024058
 21
73.3590324547
  0
LINE
  5
236
100
AcDbEntity
  8
0
100
AcDbLine
 62
7
  6
BYLAYER
 10
58.0986347774
 20
74.7637472694
 11
53.4894001125
 21
74.7637361902
  0
LINE
  5
237
100
AcDbEntity
  8
0
100
AcDbLine
 62
7
  6
BYLAYER
 10
55.6204833127
 20
68.3213262836
 11
53.6560441076
 21
69.4554701298
  0
LINE
  5
238
100
AcDbEntity
  8
0
100
AcDbLine
 62
7
  6
BYLAYER
 10
60.1030803082
 20
66.381446745
 11
49.7347107829
 21
72.3674922591
  0
LINE
  5
239
100
AcDbEntity
  8
0
100
AcDbLine
 62
7
  6
BYLAYER
 10
54.4903495116
 20
75.4969629558
 11
58.3990024058
 21
75.4969723511
  0
LINE
  5
23A
100
AcDbEntity
  8
0
100
AcDbLine
 62
7
  6
BYLAYER
 10
63.6184493958
 20
78.9798006054
 11
54.4903243959
 21
78.9797786641
  0
LINE
  5
23B
100
AcDbEntity
  8
0
100
AcDbLine
 62
7
  6
BYLAYER
 10
68.943513806
 20
70.9987685186
 11
68.943513806
 21
64.5177805826
  0
LINE
  5
23C
100
AcDbEntity
  8
0
100
AcDbLine
 62
7
  6
BYLAYER
 10
71.5559824428
 20
67.9161604217
 11
71.5559824428
 21
74.3971483577
  0
ARC
  5
23D
100
AcDbEntity
  8
0
100
AcDbCircle
 62
7
  6
BYLAYER
 10
19.7694925457
 20
45.3556547396
 40
4.6314049501
100
AcDbArc
 50
297.5609686416
 51
299.8227756643
  0
SPLINE
  5
23E
100
AcDbEntity
  8
0
100
AcDbSpline
 62
7
  6
BYLAYER
 70
0
 71
3
 72
25
 73
21
 74
0
 42
0.0000001
 43
0.0000001
 44
0.0000000001
 40
0.0
 40
0.0
 40
0.0
 40
0.0
 40
0.0623789003
 40
0.1287245137
 40
0.1983140121
 40
0.2702912176
 40
0.3436674413
 40
0.4174001645
 40
0.4904258084
 40
0.5617131917
 40
0.6303108131
 40
0.6953984917
 40
0.7563461582
 40
0.8127835651
 40
0.8646840599
 40
0.9124584987
 40
0.9351028274
 40
0.9571079135
 40
0.9786681985
 40
1.0
 40
1.0
 40
1.0
 40
1.0
 10
25.4526089117
 20
34.2155707025
 30
0.0
 10
25.1104175574
 20
34.0180076112
 30
0.0
 10
24.3770263096
 20
33.6564309949
 30
0.0
 10
23.1940241731
 20
33.2277435601
 30
0.0
 10
21.9155597727
 20
32.9032367011
 30
0.0
 10
20.5690986065
 20
32.6897014121
 30
0.0
 10
19.1831028331
 20
32.5917279272
 30
0.0
 10
17.7871750467
 20
32.6113551072
 30
0.0
 10
16.4110783654
 20
32.7482017182
 30
0.0
 10
15.0841545099
 20
32.999347215
 30
0.0
 10
13.8345953329
 20
33.3594736842
 30
0.0
 10
12.6888096157
 20
33.8210765344
 30
0.0
 10
11.6708751065
 20
34.3747015595
 30
0.0
 10
10.8020726551
 20
35.0095827282
 30
0.0
 10
10.1010242587
 20
35.7134312587
 30
0.0
 10
9.6621860324
 20
36.3592050363
 30
0.0
 10
9.4176355451
 20
36.8923764787
 30
0.0
 10
9.2880103072
 20
37.2923235365
 30
0.0
 10
9.2098223798
 20
37.6969323423
 30
0.0
 10
9.1924207638
 20
37.9689413984
 30
0.0
 10
9.1924205468
 20
38.1040638673
 30
0.0
  0
SPLINE
  5
23F
100
AcDbEntity
  8
0
100
AcDbSpline
 62
7
  6
BYLAYER
 70
0
 71
3
 72
15
 73
11
 74
0
 42
0.0000001
 43
0.0000001
 44
0.0000000001
 40
0.0
 40
0.0
 40
0.0
 40
0.0
 40
0.1485551383
 40
0.2895094175
 40
0.4227330449
 40
0.54864109
 40
0.6680022058
 40
0.7819401741
 40
0.8919877449
 40
1.0
 40
1.0
 40
1.0
 40
1.0
 10
11.9821686477
 20
47.1773474249
 30
0.0
 10
11.7673915009
 20
47.0533465216
 30
0.0
 10
11.3585632713
 20
46.7941648092
 30
0.0
 10
10.7995583317
 20
46.3615812733
 30
0.0
 10
10.3160683434
 20
45.8987680255
 30
0.0
 10
9.9129419809
 20
45.4100981058
 30
0.0
 10
9.5941960671
 20
44.8998973995
 30
0.0
 10
9.3635025736
 20
44.372715049
 30
0.0
 10
9.2236939868
 20
43.8339463329
 30
0.0
 10
9.1924206098
 20
43.4691734613
 30
0.0
 10
9.1924203847
 20
43.2888541897
 30
0.0
  0
SPLINE
  5
240
100
AcDbEntity
  8
0
100
AcDbSpline
 62
7
  6
BYLAYER
 70
0
 71
3
 72
19
 73
15
 74
0
 42
0.0000001
 43
0.0000001
 44
0.0000000001
 40
0.0
 40
0.0
 40
0.0
 40
0.0
 40
0.0428385813
 40
0.0874433473
 40
0.1352550426
 40
0.1871926702
 40
0.2436711226
 40
0.3046633752
 40
0.4382672724
 40
0.5825427179
 40
0.7296393023
 40
0.8711669517
 40
0.9376091523
 40
1.0
 40
1.0
 40
1.0
 40
1.0
 10
20.8605064736
 20
47.8255457974
 30
0.0
 10
20.8605110918
 20
47.8865531525
 30
0.0
 10
20.8441575788
 20
48.0116072088
 30
0.0
 10
20.7724762664
 20
48.1921999147
 30
0.0
 10
20.6560649831
 20
48.3633723108
 30
0.0
 10
20.4983348368
 20
48.5217864196
 30
0.0
 10
20.3028721806
 20
48.6646421201
 30
0.0
 10
19.9879778418
 20
48.8358057368
 30
0.0
 10
19.5266065965
 20
48.9899303112
 30
0.0
 10
18.9244646243
 20
49.0744743437
 30
0.0
 10
18.3054455572
 20
49.0574020056
 30
0.0
 10
17.8064812535
 20
48.9576374536
 30
0.0
 10
17.4439687292
 20
48.826197861
 30
0.0
 10
17.2789125951
 20
48.7448826429
 30
0.0
 10
17.20196425
 20
48.7004567603
 30
0.0
  0
SPLINE
  5
241
100
AcDbEntity
  8
0
100
AcDbSpline
 62
7
  6
BYLAYER
 70
0
 71
3
 72
22
 73
18
 74
0
 42
0.0000001
 43
0.0000001
 44
0.0000000001
 40
0.0
 40
0.0
 40
0.0
 40
0.0
 40
0.0427873653
 40
0.0872706108
 40
0.1348361326
 40
0.1863990085
 40
0.2423849786
 40
0.3028040749
 40
0.3673379388
 40
0.4354112742
 40
0.5062627639
 40
0.5790010773
 40
0.7260658913
 40
0.7984985282
 40
0.8688466804
 40
0.9362812799
 40
1.0
 40
1.0
 40
1.0
 40
1.0
 10
23.4798820761
 20
47.3070667571
 30
0.0
 10
23.479879995
 20
47.4397394973
 30
0.0
 10
23.445203982
 20
47.7114506785
 30
0.0
 10
23.2926372308
 20
48.1044903556
 30
0.0
 10
23.0447516389
 20
48.4780352109
 30
0.0
 10
22.7082471755
 20
48.8248620884
 30
0.0
 10
22.2906740771
 20
49.1390921945
 30
0.0
 10
21.8005899572
 20
49.4150773117
 30
0.0
 10
21.2478079555
 20
49.6475751174
 30
0.0
 10
20.6434938171
 20
49.8320564292
 30
0.0
 10
19.9998151907
 20
49.9649046437
 30
0.0
 10
19.1038772257
 20
50.0697688925
 30
0.0
 10
18.1926983717
 20
50.0622323668
 30
0.0
 10
17.3011872011
 20
49.9421739728
 30
0.0
 10
16.6643859433
 20
49.7985499031
 30
0.0
 10
16.0697047247
 20
49.6038915692
 30
0.0
 10
15.6974974486
 20
49.4375630223
 30
0.0
 10
15.5223699617
 20
49.3460946618
 30
0.0
  0
SPLINE
  5
242
100
AcDbEntity
  8
0
100
AcDbSpline
 62
7
  6
BYLAYER
 70
0
 71
3
 72
11
 73
7
 74
0
 42
0.0000001
 43
0.0000001
 44
0.0000000001
 40
0.0
 40
0.0
 40
0.0
 40
0.0
 40
0.2435012732
 40
0.4898015844
 40
0.7413571426
 40
1.0
 40
1.0
 40
1.0
 40
1.0
 10
50.5215871933
 20
75.7392560768
 30
0.0
 10
50.5215876118
 20
75.9055571571
 30
0.0
 10
50.5534240043
 20
76.2409024856
 30
0.0
 10
50.695055463
 20
76.7298753666
 30
0.0
 10
50.9266992028
 20
77.1946209979
 30
0.0
 10
51.1343618672
 20
77.4767680146
 30
0.0
 10
51.249994505
 20
77.6103028025
 30
0.0
  0
SPLINE
  5
243
100
AcDbEntity
  8
0
100
AcDbSpline
 62
7
  6
BYLAYER
 70
0
 71
3
 72
11
 73
7
 74
0
 42
0.0000001
 43
0.0000001
 44
0.0000000001
 40
0.0
 40
0.0
 40
0.0
 40
0.0
 40
0.2361471715
 40
0.4833432617
 40
0.739268088
 40
1.0
 40
1.0
 40
1.0
 40
1.0
 10
51.249994505
 20
77.6103028025
 30
0.0
 10
51.4364279392
 20
77.8255997078
 30
0.0
 10
51.8761050891
 20
78.218334092
 30
0.0
 10
52.6635188746
 20
78.6504584253
 30
0.0
 10
53.5510400886
 20
78.9192554166
 30
0.0
 10
54.1758761825
 20
78.9797779082
 30
0.0
 10
54.4903243959
 20
78.9797786641
 30
0.0
  0
SPLINE
  5
244
100
AcDbEntity
  8
0
100
AcDbSpline
 62
7
  6
BYLAYER
 70
0
 71
3
 72
14
 73
10
 74
0
 42
0.0000001
 43
0.0000001
 44
0.0000000001
 40
0.0
 40
0.0
 40
0.0
 40
0.0
 40
0.1080438506
 40
0.2181282188
 40
0.3321073079
 40
0.4514896714
 40
0.5774357343
 40
0.7107373418
 40
1.0
 40
1.0
 40
1.0
 40
1.0
 10
69.1747102563
 20
74.3971483584
 30
0.0
 10
69.1746997786
 20
74.2919654154
 30
0.0
 10
69.1564512232
 20
74.0791863033
 30
0.0
 10
69.0749133997
 20
73.7648957306
 30
0.0
 10
68.9403039466
 20
73.4574024173
 30
0.0
 10
68.754453366
 20
73.1597628535
 30
0.0
 10
68.5192393437
 20
72.8746834326
 30
0.0
 10
68.132801844
 20
72.5048454065
 30
0.0
 10
67.7912367724
 20
72.2696616525
 30
0.0
 10
67.5473608531
 20
72.1288606654
 30
0.0
  0
SPLINE
  5
245
100
AcDbEntity
  8
0
100
AcDbSpline
 62
7
  6
BYLAYER
 70
0
 71
3
 72
9
 73
5
 74
0
 42
0.0000001
 43
0.0000001
 44
0.0000000001
 40
0.0
 40
0.0
 40
0.0
 40
0.0
 40
0.4877784162
 40
1.0
 40
1.0
 40
1.0
 40
1.0
 10
51.3235218498
 20
73.476383905
 30
0.0
 10
51.5412517428
 20
73.7117480126
 30
0.0
 10
52.0577181225
 20
74.1322394321
 30
0.0
 10
52.6598586133
 20
74.4122237364
 30
0.0
 10
52.9789994185
 20
74.5195223366
 30
0.0
  0
SPLINE
  5
246
100
AcDbEntity
  8
0
100
AcDbSpline
 62
7
  6
BYLAYER
 70
0
 71
3
 72
19
 73
15
 74
0
 42
0.0000001
 43
0.0000001
 44
0.0000000001
 40
0.0
 40
0.0
 40
0.0
 40
0.0
 40
0.0450640514
 40
0.090977941
 40
0.138514629
 40
0.1883121228
 40
0.2408483415
 40
0.2964303317
 40
0.3552146687
 40
0.4172145148
 40
0.5502682558
 40
0.6938337778
 40
0.8449483963
 40
1.0
 40
1.0
 40
1.0
 40
1.0
 10
71.5559642597
 20
74.3971483844
 30
0.0
 10
71.5559765606
 20
74.5474143813
 30
0.0
 10
71.5298281306
 20
74.8513855434
 30
0.0
 10
71.4134046573
 20
75.3003808305
 30
0.0
 10
71.2210997096
 20
75.739674631
 30
0.0
 10
70.9555269513
 20
76.1648876509
 30
0.0
 10
70.6195151469
 20
76.5720771492
 30
0.0
 10
70.2166822932
 20
76.9577195615
 30
0.0
 10
69.7508393393
 20
77.3182681875
 30
0.0
 10
69.0350346451
 20
77.7719131682
 30
0.0
 10
68.0067927461
 20
78.2505705588
 30
0.0
 10
66.6384634779
 20
78.6665165952
 30
0.0
 10
65.1573454546
 20
78.9224696902
 30
0.0
 10
64.1354686857
 20
78.9798018482
 30
0.0
 10
63.6184493958
 20
78.9798006054
 30
0.0
  0
SPLINE
  5
247
100
AcDbEntity
  8
0
100
AcDbSpline
 62
7
  6
BYLAYER
 70
0
 71
3
 72
14
 73
10
 74
0
 42
0.0000001
 43
0.0000001
 44
0.0000000001
 40
0.0
 40
0.0
 40
0.0
 40
0.0
 40
0.1095270601
 40
0.2208705287
 40
0.335703811
 40
0.4554208484
 40
0.5811284646
 40
0.7136291122
 40
1.0
 40
1.0
 40
1.0
 40
1.0
 10
71.5559642497
 20
67.9161604485
 30
0.0
 10
71.5559527333
 20
67.77550002
 30
0.0
 10
71.5331345333
 20
67.4913473336
 30
0.0
 10
71.4312203411
 20
67.0707613028
 30
0.0
 10
71.2626376502
 20
66.6580781854
 30
0.0
 10
71.0294798031
 20
66.256910789
 30
0.0
 10
70.733772376
 20
65.870512727
 30
0.0
 10
70.2474953416
 20
65.3662892949
 30
0.0
 10
69.8147948864
 20
65.0396775897
 30
0.0
 10
69.5047774768
 20
64.8418243797
 30
0.0
  0
SPLINE
  5
248
100
AcDbEntity
  8
0
100
AcDbSpline
 62
7
  6
BYLAYER
 70
0
 71
3
 72
9
 73
5
 74
0
 42
0.0000001
 43
0.0000001
 44
0.0000000001
 40
0.0
 40
0.0
 40
0.0
 40
0.0
 40
0.2453211626
 40
1.0
 40
1.0
 40
1.0
 40
1.0
 10
69.5047774768
 20
64.8418243797
 30
0.0
 10
69.4600953826
 20
64.813308253
 30
0.0
 10
69.2766281104
 20
64.6991605476
 30
0.0
 10
69.0880494908
 20
64.5932709717
 30
0.0
 10
68.943513806
 20
64.5177805826
 30
0.0
  0
SPLINE
  5
249
100
AcDbEntity
  8
0
100
AcDbSpline
 62
7
  6
BYLAYER
 70
0
 71
3
 72
15
 73
11
 74
0
 42
0.0000001
 43
0.0000001
 44
0.0000000001
 40
0.0
 40
0.0
 40
0.0
 40
0.0
 40
0.1080108497
 40
0.2180574133
 40
0.3319948962
 40
0.4513554857
 40
0.5772633513
 40
0.7104880378
 40
0.851444496
 40
1.0
 40
1.0
 40
1.0
 40
1.0
 10
28.2423570126
 20
38.1040639113
 30
0.0
 10
28.2423573021
 20
37.9237470081
 30
0.0
 10
28.2110823463
 20
37.5589784892
 30
0.0
 10
28.0712794277
 20
37.0202134107
 30
0.0
 10
27.8405854071
 20
36.4930350537
 30
0.0
 10
27.5218462324
 20
35.9828327461
 30
0.0
 10
27.1187193472
 20
35.4941623642
 30
0.0
 10
26.6352280301
 20
35.0313432641
 30
0.0
 10
26.0762171658
 20
34.5987575737
 30
0.0
 10
25.6673865608
 20
34.3395718958
 30
0.0
 10
25.4526089117
 20
34.2155707025
 30
0.0
  0
SPLINE
  5
24A
100
AcDbEntity
  8
0
100
AcDbSpline
 62
7
  6
BYLAYER
 70
0
 71
3
 72
24
 73
20
 74
0
 42
0.0000001
 43
0.0000001
 44
0.0000000001
 40
0.0
 40
0.0
 40
0.0
 40
0.0
 40
0.0623734594
 40
0.1287366352
 40
0.1983249539
 40
0.2703063231
 40
0.3436881926
 40
0.4174229099
 40
0.4904516618
 40
0.5617420962
 40
0.6303429282
 40
0.6954352445
 40
0.7563875148
 40
0.8128281783
 40
0.8647335245
 40
0.9125121729
 40
0.9570859122
 40
0.978654508
 40
1.0
 40
1.0
 40
1.0
 40
1.0
 10
67.5473608531
 20
72.1288606654
 30
0.0
 10
67.3477819239
 20
72.0136344047
 30
0.0
 10
66.9199475071
 20
71.8027446802
 30
0.0
 10
66.2298979524
 20
71.5526300504
 30
0.0
 10
65.4841067318
 20
71.3633376377
 30
0.0
 10
64.6987004938
 20
71.2387789382
 30
0.0
 10
63.8902205403
 20
71.181633157
 30
0.0
 10
63.0759528853
 20
71.193083069
 30
0.0
 10
62.2732580417
 20
71.2728756433
 30
0.0
 10
61.4992438682
 20
71.4193730254
 30
0.0
 10
60.7703494769
 20
71.6294334412
 30
0.0
 10
60.101969725
 20
71.8986576578
 30
0.0
 10
59.5081658097
 20
72.2216029486
 30
0.0
 10
59.0013704167
 20
72.5918849386
 30
0.0
 10
58.5923805195
 20
73.0026444464
 30
0.0
 10
58.2905635377
 20
73.4461970642
 30
0.0
 10
58.1338215889
 20
73.8414359619
 30
0.0
 10
58.0724295263
 20
74.1595284843
 30
0.0
 10
58.0622906897
 20
74.3182822759
 30
0.0
 10
58.0622927944
 20
74.3971482634
 30
0.0
  0
SPLINE
  5
24B
100
AcDbEntity
  8
0
100
AcDbSpline
 62
7
  6
BYLAYER
 70
0
 71
3
 72
9
 73
5
 74
0
 42
0.0000001
 43
0.0000001
 44
0.0000000001
 40
0.0
 40
0.0
 40
0.0
 40
0.0
 40
0.4919124269
 40
1.0
 40
1.0
 40
1.0
 40
1.0
 10
28.2423571747
 20
43.2888542864
 30
0.0
 10
28.242357475
 20
43.5293766946
 30
0.0
 10
28.185899665
 20
44.019844905
 30
0.0
 10
28.023038991
 20
44.4851713526
 30
0.0
 10
27.918557288
 20
44.7105636496
 30
0.0
  0
SPLINE
  5
24C
100
AcDbEntity
  8
0
100
AcDbSpline
 62
7
  6
BYLAYER
 70
0
 71
3
 72
9
 73
5
 74
0
 42
0.0000001
 43
0.0000001
 44
0.0000000001
 40
0.0
 40
0.0
 40
0.0
 40
0.0
 40
0.5151507757
 40
1.0
 40
1.0
 40
1.0
 40
1.0
 10
14.1734702728
 20
48.1219482632
 30
0.0
 10
13.7818804785
 20
47.9992304247
 30
0.0
 10
13.0324890008
 20
47.7246884367
 30
0.0
 10
12.3166543452
 20
47.3704616796
 30
0.0
 10
11.9821686477
 20
47.1773474249
 30
0.0
  0
SPLINE
  5
24D
100
AcDbEntity
  8
0
100
AcDbSpline
 62
7
  6
BYLAYER
 70
0
 71
3
 72
11
 73
7
 74
0
 42
0.0000001
 43
0.0000001
 44
0.0000000001
 40
0.0
 40
0.0
 40
0.0
 40
0.0
 40
0.2897031353
 40
0.5490914015
 40
0.7822201129
 40
1.0
 40
1.0
 40
1.0
 40
1.0
 10
17.20196425
 20
48.7004567603
 30
0.0
 10
17.10792723
 20
48.6461647856
 30
0.0
 10
16.9373193947
 20
48.5286556154
 30
0.0
 10
16.733415383
 20
48.3143687351
 30
0.0
 10
16.6044350675
 20
48.0773092396
 30
0.0
 10
16.5742772647
 20
47.9071724723
 30
0.0
 10
16.5742710857
 20
47.8255457891
 30
0.0
  0
SPLINE
  5
24E
100
AcDbEntity
  8
0
100
AcDbSpline
 62
7
  6
BYLAYER
 70
0
 71
3
 72
14
 73
10
 74
0
 42
0.0000001
 43
0.0000001
 44
0.0000000001
 40
0.0
 40
0.0
 40
0.0
 40
0.0
 40
0.2919956337
 40
0.4260723294
 40
0.5522851949
 40
0.6713866666
 40
0.7845563361
 40
0.8934117998
 40
1.0
 40
1.0
 40
1.0
 40
1.0
 10
15.5223699617
 20
49.3460946618
 30
0.0
 10
15.2894439756
 20
49.2244383847
 30
0.0
 10
14.9621548189
 20
49.0185767351
 30
0.0
 10
14.5894718721
 20
48.6883801966
 30
0.0
 10
14.3623202097
 20
48.4321766559
 30
0.0
 10
14.1824400568
 20
48.1630384044
 30
0.0
 10
14.0518426191
 20
47.8837308904
 30
0.0
 10
13.9727017154
 20
47.5973133792
 30
0.0
 10
13.9548939787
 20
47.4029912713
 30
0.0
 10
13.9548954833
 20
47.3070667597
 30
0.0
  0
SPLINE
  5
24F
100
AcDbEntity
  8
0
100
AcDbSpline
 62
7
  6
BYLAYER
 70
0
 71
3
 72
20
 73
16
 74
0
 42
0.0000001
 43
0.0000001
 44
0.0000000001
 40
0.0
 40
0.0
 40
0.0
 40
0.0
 40
0.0551963856
 40
0.1112544121
 40
0.1686762871
 40
0.2278531188
 40
0.2889366539
 40
0.3518994626
 40
0.4822389869
 40
0.6161078265
 40
0.7493283077
 40
0.8145574107
 40
0.8782237565
 40
0.940070697
 40
1.0
 40
1.0
 40
1.0
 40
1.0
 10
51.3202901013
 20
77.7170256155
 30
0.0
 10
51.3295847098
 20
77.8521935677
 30
0.0
 10
51.3745552855
 20
78.1235245862
 30
0.0
 10
51.518327422
 20
78.5141924078
 30
0.0
 10
51.7346946613
 20
78.8811680432
 30
0.0
 10
52.0178473364
 20
79.2154714657
 30
0.0
 10
52.3607833759
 20
79.5092837637
 30
0.0
 10
52.8918018541
 20
79.8414536786
 30
0.0
 10
53.6576163494
 20
80.117152802
 30
0.0
 10
54.6391472634
 20
80.2035176049
 30
0.0
 10
55.4538028773
 20
80.0686621099
 30
0.0
 10
56.0567233505
 20
79.839318143
 30
0.0
 10
56.4686803025
 20
79.6133649038
 30
0.0
 10
56.8329869791
 20
79.3377639219
 30
0.0
 10
57.0415381189
 20
79.1214802271
 30
0.0
 10
57.1344182014
 20
79.0074052769
 30
0.0
  0
SPLINE
  5
250
100
AcDbEntity
  8
0
100
AcDbSpline
 62
7
  6
BYLAYER
 70
0
 71
3
 72
25
 73
21
 74
0
 42
0.0000001
 43
0.0000001
 44
0.0000000001
 40
0.0
 40
0.0
 40
0.0
 40
0.0
 40
0.0213320069
 40
0.0428925588
 40
0.0648979454
 40
0.0875426063
 40
0.1353177455
 40
0.1872188679
 40
0.2436566509
 40
0.3046043541
 40
0.3696916699
 40
0.4382885164
 40
0.5095748136
 40
0.582599307
 40
0.656331124
 40
0.7297068719
 40
0.801684088
 40
0.8712738081
 40
0.9376204508
 40
1.0
 40
1.0
 40
1.0
 40
1.0
 10
9.1924203847
 20
43.2888541897
 30
0.0
 10
9.192420216
 20
43.1537304217
 30
0.0
 10
9.209821588
 20
42.8817182346
 30
0.0
 10
9.2880133338
 20
42.4771051738
 30
0.0
 10
9.4176406572
 20
42.0771528355
 30
0.0
 10
9.6621976555
 20
41.543974994
 30
0.0
 10
10.1010454755
 20
40.898194874
 30
0.0
 10
10.8021072999
 20
40.1943443439
 30
0.0
 10
11.6709190879
 20
39.5594649893
 30
0.0
 10
12.6888566686
 20
39.0058450894
 30
0.0
 10
13.8346376222
 20
38.5442493194
 30
0.0
 10
15.0841842626
 20
38.1841305031
 30
0.0
 10
16.4110897532
 20
37.9329911766
 30
0.0
 10
17.7871665059
 20
37.7961466207
 30
0.0
 10
19.1830781345
 20
37.776517724
 30
0.0
 10
20.569065412
 20
37.8744880631
 30
0.0
 10
21.9155252743
 20
38.0880211023
 30
0.0
 10
23.1939986001
 20
38.4125254442
 30
0.0
 10
24.3770121675
 20
38.8412166747
 30
0.0
 10
25.1104140042
 20
39.2027959086
 30
0.0
 10
25.4526089117
 20
39.4003610513
 30
0.0
  0
SPLINE
  5
251
100
AcDbEntity
  8
0
100
AcDbSpline
 62
7
  6
BYLAYER
 70
0
 71
3
 72
14
 73
10
 74
0
 42
0.0000001
 43
0.0000001
 44
0.0000000001
 40
0.0
 40
0.0
 40
0.0
 40
0.0
 40
0.1065872196
 40
0.2154423692
 40
0.3286121429
 40
0.4477132751
 40
0.5739267391
 40
0.7080050795
 40
1.0
 40
1.0
 40
1.0
 40
1.0
 10
23.4798807924
 20
46.8533976026
 30
0.0
 10
23.4798800487
 20
46.7574740099
 30
0.0
 10
23.4620758282
 20
46.5631531491
 30
0.0
 10
23.3829339932
 20
46.2767367278
 30
0.0
 10
23.2523375271
 20
45.9974297318
 30
0.0
 10
23.0724594552
 20
45.7282897412
 30
0.0
 10
22.845306165
 20
45.4720854063
 30
0.0
 10
22.4726224181
 20
45.1418880769
 30
0.0
 10
22.1453329263
 20
44.9360256331
 30
0.0
 10
21.9124075976
 20
44.8143696994
 30
0.0
  0
SPLINE
  5
252
100
AcDbEntity
  8
0
100
AcDbSpline
 62
7
  6
BYLAYER
 70
0
 71
3
 72
23
 73
19
 74
0
 42
0.0000001
 43
0.0000001
 44
0.0000000001
 40
0.0
 40
0.0
 40
0.0
 40
0.0
 40
0.0623788296
 40
0.1287510485
 40
0.1983475464
 40
0.2703371753
 40
0.3437264168
 40
0.4174687104
 40
0.4905064924
 40
0.5618050957
 40
0.6304134658
 40
0.6955122595
 40
0.75646887
 40
0.812914095
 40
0.8648232058
 40
0.9126056521
 40
0.9571866774
 40
1.0
 40
1.0
 40
1.0
 40
1.0
 10
59.6896040324
 20
76.66543605
 30
0.0
 10
59.8891829347
 20
76.7806622952
 30
0.0
 10
60.3170304693
 20
76.9915530528
 30
0.0
 10
61.0070974904
 20
77.241678294
 30
0.0
 10
61.7529166016
 20
77.4309767597
 30
0.0
 10
62.5383447918
 20
77.5555211743
 30
0.0
 10
63.3468403174
 20
77.6126681615
 30
0.0
 10
64.1611267097
 20
77.6012122458
 30
0.0
 10
64.9638422745
 20
77.5214019523
 30
0.0
 10
65.7378757713
 20
77.3748805757
 30
0.0
 10
66.4667837346
 20
77.1648085496
 30
0.0
 10
67.1351645969
 20
76.8955675121
 30
0.0
 10
67.7289481975
 20
76.5725913576
 30
0.0
 10
68.2357163862
 20
76.2022684038
 30
0.0
 10
68.6447138294
 20
75.7915891378
 30
0.0
 10
68.9464771322
 20
75.3477567033
 30
0.0
 10
69.132381601
 20
74.8795591713
 30
0.0
 10
69.1747260122
 20
74.5553187025
 30
0.0
 10
69.1747102563
 20
74.3971483584
 30
0.0
  0
SPLINE
  5
253
100
AcDbEntity
  8
0
100
AcDbSpline
 62
7
  6
BYLAYER
 70
0
 71
3
 72
10
 73
6
 74
0
 42
0.0000001
 43
0.0000001
 44
0.0000000001
 40
0.0
 40
0.0
 40
0.0
 40
0.0
 40
0.2274774992
 40
0.5960404846
 40
1.0
 40
1.0
 40
1.0
 40
1.0
 10
58.3990024058
 20
75.4969723511
 30
0.0
 10
58.4701418523
 20
75.6095056008
 30
0.0
 10
58.679941014
 20
75.8899395216
 30
0.0
 10
59.1076529856
 20
76.2943959421
 30
0.0
 10
59.4848566659
 20
76.5472258084
 30
0.0
 10
59.6896040324
 20
76.66543605
 30
0.0
  0
SPLINE
  5
254
100
AcDbEntity
  8
0
100
AcDbSpline
 62
7
  6
BYLAYER
 70
0
 71
3
 72
11
 73
7
 74
0
 42
0.0000001
 43
0.0000001
 44
0.0000000001
 40
0.0
 40
0.0
 40
0.0
 40
0.0
 40
0.2177827477
 40
0.4509152641
 40
0.7103063952
 40
1.0
 40
1.0
 40
1.0
 40
1.0
 10
20.8605039259
 20
47.3070667828
 30
0.0
 10
20.8604927727
 20
47.2254390978
 30
0.0
 10
20.8303451242
 20
47.0552992131
 30
0.0
 10
20.7013554078
 20
46.8182385963
 30
0.0
 10
20.4974531437
 20
46.603953508
 30
0.0
 10
20.3268471553
 20
46.4864459335
 30
0.0
 10
20.2328133094
 20
46.4321557913
 30
0.0
  0
SPLINE
  5
255
100
AcDbEntity
  8
0
100
AcDbSpline
 62
7
  6
BYLAYER
 70
0
 71
3
 72
14
 73
10
 74
0
 42
0.0000001
 43
0.0000001
 44
0.0000000001
 40
0.0
 40
0.0
 40
0.0
 40
0.0
 40
0.2863708865
 40
0.4188715277
 40
0.5445791436
 40
0.6642961837
 40
0.7791294679
 40
0.8904729375
 40
1.0
 40
1.0
 40
1.0
 40
1.0
 10
69.5047774768
 20
71.3228123157
 30
0.0
 10
69.8147948853
 20
71.520665525
 30
0.0
 10
70.2474953392
 20
71.8472772174
 30
0.0
 10
70.733772361
 20
72.3515006482
 30
0.0
 10
71.0294797922
 20
72.7378987017
 30
0.0
 10
71.2626376415
 20
73.1390661028
 30
0.0
 10
71.4312203552
 20
73.5517492208
 30
0.0
 10
71.5331345251
 20
73.9723352638
 30
0.0
 10
71.5559527452
 20
74.2564879528
 30
0.0
 10
71.5559642597
 20
74.3971483844
 30
0.0
  0
SPLINE
  5
256
100
AcDbEntity
  8
0
100
AcDbSpline
 62
7
  6
BYLAYER
 70
0
 71
3
 72
9
 73
5
 74
0
 42
0.0000001
 43
0.0000001
 44
0.0000000001
 40
0.0
 40
0.0
 40
0.0
 40
0.0
 40
0.2546961818
 40
1.0
 40
1.0
 40
1.0
 40
1.0
 10
68.943513806
 20
70.9987685186
 30
0.0
 10
68.9922928669
 20
71.0242456199
 30
0.0
 10
69.1827781605
 20
71.1262348162
 30
0.0
 10
69.3690305709
 20
71.2361785969
 30
0.0
 10
69.5047774768
 20
71.3228123157
 30
0.0
  0
SPLINE
  5
257
100
AcDbEntity
  8
0
100
AcDbSpline
 62
7
  6
BYLAYER
 70
0
 71
3
 72
22
 73
18
 74
0
 42
0.0000001
 43
0.0000001
 44
0.0000000001
 40
0.0
 40
0.0
 40
0.0
 40
0.0
 40
0.0637199622
 40
0.1311515386
 40
0.201498472
 40
0.273930391
 40
0.4209938077
 40
0.4937329461
 40
0.564585761
 40
0.6326600853
 40
0.6971954875
 40
0.7576157496
 40
0.8136014598
 40
0.8651643418
 40
0.9127303165
 40
0.9572130663
 40
1.0
 40
1.0
 40
1.0
 40
1.0
 10
21.9124075976
 20
41.2498263346
 30
0.0
 10
21.7372766718
 20
41.158356178
 30
0.0
 10
21.3650764603
 20
40.9920250704
 30
0.0
 10
20.7704018145
 20
40.7973751908
 30
0.0
 10
20.1336158068
 20
40.653756041
 30
0.0
 10
19.2421169276
 20
40.5336789331
 30
0.0
 10
18.3309420055
 20
40.5261610341
 30
0.0
 10
17.4349993787
 20
40.6310019154
 30
0.0
 10
16.7913104521
 20
40.7638531805
 30
0.0
 10
16.1869882769
 20
40.9483477237
 30
0.0
 10
15.6341904559
 20
41.1808364025
 30
0.0
 10
15.1440963096
 20
41.4568214576
 30
0.0
 10
14.7265316182
 20
41.7710686593
 30
0.0
 10
14.3900279204
 20
42.1178926834
 30
0.0
 10
14.1421173445
 20
42.4914257186
 30
0.0
 10
13.9895902976
 20
42.8844766067
 30
0.0
 10
13.9548899719
 20
43.1561828171
 30
0.0
 10
13.9549030777
 20
43.2888542375
 30
0.0
  0
SPLINE
  5
258
100
AcDbEntity
  8
0
100
AcDbSpline
 62
7
  6
BYLAYER
 70
0
 71
3
 72
11
 73
7
 74
0
 42
0.0000001
 43
0.0000001
 44
0.0000000001
 40
0.0
 40
0.0
 40
0.0
 40
0.0
 40
0.2897031353
 40
0.5490914015
 40
0.7822201129
 40
1.0
 40
1.0
 40
1.0
 40
1.0
 10
20.2328133094
 20
46.9506348262
 30
0.0
 10
20.3268503293
 20
47.0049268009
 30
0.0
 10
20.4974581646
 20
47.122435971
 30
0.0
 10
20.7013621764
 20
47.3367228514
 30
0.0
 10
20.8303424918
 20
47.5737823469
 30
0.0
 10
20.8605002946
 20
47.7439191142
 30
0.0
 10
20.8605064736
 20
47.8255457974
 30
0.0
  0
SPLINE
  5
259
100
AcDbEntity
  8
0
100
AcDbSpline
 62
7
  6
BYLAYER
 70
0
 71
3
 72
13
 73
9
 74
0
 42
0.0000001
 43
0.0000001
 44
0.0000000001
 40
0.0
 40
0.0
 40
0.0
 40
0.0
 40
0.2684907456
 40
0.527289093
 40
0.6513503348
 40
0.7712079373
 40
0.8871600728
 40
1.0
 40
1.0
 40
1.0
 40
1.0
 10
54.4903495116
 20
75.4969629558
 30
0.0
 10
54.0444409959
 20
75.496961884
 30
0.0
 10
53.1640477249
 20
75.3765023045
 30
0.0
 10
52.1610052108
 20
74.9266536641
 30
0.0
 10
51.5001053169
 20
74.4108405063
 30
0.0
 10
51.0961951813
 20
73.965925326
 30
0.0
 10
50.7899293374
 20
73.4706619844
 30
0.0
 10
50.6556744089
 20
73.1119574164
 30
0.0
 10
50.6084462939
 20
72.9306018904
 30
0.0
  0
SPLINE
  5
25A
100
AcDbEntity
  8
0
100
AcDbSpline
 62
7
  6
BYLAYER
 70
0
 71
3
 72
19
 73
15
 74
0
 42
0.0000001
 43
0.0000001
 44
0.0000000001
 40
0.0
 40
0.0
 40
0.0
 40
0.0
 40
0.0623913713
 40
0.1288320668
 40
0.2703532864
 40
0.4174438321
 40
0.5617188966
 40
0.6953267151
 40
0.7563201856
 40
0.81280034
 40
0.8647386834
 40
0.912551973
 40
0.957158712
 40
1.0
 40
1.0
 40
1.0
 40
1.0
 10
20.2328133094
 20
46.4321557913
 30
0.0
 10
20.1558643338
 20
46.3877295447
 30
0.0
 10
19.9908096799
 20
46.3064145683
 30
0.0
 10
19.628307106
 20
46.1749786972
 30
0.0
 10
19.1293634674
 20
46.0752156103
 30
0.0
 10
18.5103630273
 20
46.058134994
 30
0.0
 10
17.9082245036
 20
46.1426707017
 30
0.0
 10
17.4468410328
 20
46.2967839045
 30
0.0
 10
17.1319399148
 20
46.4679538336
 30
0.0
 10
16.9364641631
 20
46.6108013077
 30
0.0
 10
16.7787346188
 20
46.7692232339
 30
0.0
 10
16.6623067786
 20
46.9403923555
 30
0.0
 10
16.5906286836
 20
47.1209955906
 30
0.0
 10
16.5742652972
 20
47.2460555368
 30
0.0
 10
16.5742736334
 20
47.3070667339
 30
0.0
  0
SPLINE
  5
25B
100
AcDbEntity
  8
0
100
AcDbSpline
 62
7
  6
BYLAYER
 70
0
 71
3
 72
14
 73
10
 74
0
 42
0.0000001
 43
0.0000001
 44
0.0000000001
 40
0.0
 40
0.0
 40
0.0
 40
0.0
 40
0.2919956337
 40
0.4260723294
 40
0.5522851949
 40
0.6713866666
 40
0.7845563361
 40
0.8934117998
 40
1.0
 40
1.0
 40
1.0
 40
1.0
 10
21.9124075976
 20
45.2680388549
 30
0.0
 10
22.1453335837
 20
45.389695132
 30
0.0
 10
22.4726227404
 20
45.5955567816
 30
0.0
 10
22.8453056872
 20
45.9257533202
 30
0.0
 10
23.0724573497
 20
46.1819568608
 30
0.0
 10
23.2523375025
 20
46.4510951123
 30
0.0
 10
23.3829349402
 20
46.7304026263
 30
0.0
 10
23.462075844
 20
47.0168201375
 30
0.0
 10
23.4798835807
 20
47.2111422455
 30
0.0
 10
23.4798820761
 20
47.3070667571
 30
0.0
  0
SPLINE
  5
25C
100
AcDbEntity
  8
0
100
AcDbSpline
 62
7
  6
BYLAYER
 70
0
 71
3
 72
15
 73
11
 74
0
 42
0.0000001
 43
0.0000001
 44
0.0000000001
 40
0.0
 40
0.0
 40
0.0
 40
0.0
 40
0.1485551383
 40
0.2895094175
 40
0.4227330449
 40
0.54864109
 40
0.6680022058
 40
0.7819401741
 40
0.8919877449
 40
1.0
 40
1.0
 40
1.0
 40
1.0
 10
25.4526089117
 20
39.4003610513
 30
0.0
 10
25.6673860585
 20
39.5243619546
 30
0.0
 10
26.076214288
 20
39.7835436669
 30
0.0
 10
26.6352192276
 20
40.2161272028
 30
0.0
 10
27.1187092159
 20
40.6789404506
 30
0.0
 10
27.5218355785
 20
41.1676103703
 30
0.0
 10
27.8405814922
 20
41.6778110767
 30
0.0
 10
28.0712749858
 20
42.2049934271
 30
0.0
 10
28.2110835726
 20
42.7437621433
 30
0.0
 10
28.2423569496
 20
43.1085350149
 30
0.0
 10
28.2423571747
 20
43.2888542864
 30
0.0
  0
SPLINE
  5
25D
100
AcDbEntity
  8
0
100
AcDbSpline
 62
7
  6
BYLAYER
 70
0
 71
3
 72
22
 73
18
 74
0
 42
0.0000001
 43
0.0000001
 44
0.0000000001
 40
0.0
 40
0.0
 40
0.0
 40
0.0
 40
0.0427873653
 40
0.0872706108
 40
0.1348361326
 40
0.1863990085
 40
0.2423849786
 40
0.3028040749
 40
0.3673379388
 40
0.4354112742
 40
0.5062627639
 40
0.5790010773
 40
0.7260658913
 40
0.7984985282
 40
0.8688466804
 40
0.9362812799
 40
1.0
 40
1.0
 40
1.0
 40
1.0
 10
13.9548954833
 20
47.3070667597
 30
0.0
 10
13.9548975643
 20
47.1743940194
 30
0.0
 10
13.9895735774
 20
46.9026828382
 30
0.0
 10
14.1421403286
 20
46.5096431611
 30
0.0
 10
14.3900259204
 20
46.1360983058
 30
0.0
 10
14.7265303839
 20
45.7892714284
 30
0.0
 10
15.1441034823
 20
45.4750413223
 30
0.0
 10
15.6341876021
 20
45.199056205
 30
0.0
 10
16.1869696039
 20
44.9665583993
 30
0.0
 10
16.7912837423
 20
44.7820770875
 30
0.0
 10
17.4349623687
 20
44.649228873
 30
0.0
 10
18.3309003337
 20
44.5443646242
 30
0.0
 10
19.2420791876
 20
44.5519011499
 30
0.0
 10
20.1335903583
 20
44.671959544
 30
0.0
 10
20.7703916161
 20
44.8155836136
 30
0.0
 10
21.3650728347
 20
45.0102419475
 30
0.0
 10
21.7372801108
 20
45.1765704944
 30
0.0
 10
21.9124075976
 20
45.2680388549
 30
0.0
  0
SPLINE
  5
25E
100
AcDbEntity
  8
0
100
AcDbSpline
 62
7
  6
BYLAYER
 70
0
 71
3
 72
19
 73
15
 74
0
 42
0.0000001
 43
0.0000001
 44
0.0000000001
 40
0.0
 40
0.0
 40
0.0
 40
0.0
 40
0.0428385813
 40
0.0874433473
 40
0.1352550426
 40
0.1871926702
 40
0.2436711226
 40
0.3046633752
 40
0.4382672724
 40
0.5825427179
 40
0.7296393023
 40
0.8711669517
 40
0.9376091523
 40
1.0
 40
1.0
 40
1.0
 40
1.0
 10
16.5742710857
 20
47.8255457891
 30
0.0
 10
16.5742664675
 20
47.764538434
 30
0.0
 10
16.5906199806
 20
47.6394843777
 30
0.0
 10
16.662301293
 20
47.4588916718
 30
0.0
 10
16.7787125763
 20
47.2877192757
 30
0.0
 10
16.9364427226
 20
47.1293051669
 30
0.0
 10
17.1319053787
 20
46.9864494664
 30
0.0
 10
17.4467997176
 20
46.8152858497
 30
0.0
 10
17.9081709628
 20
46.6611612753
 30
0.0
 10
18.5103129351
 20
46.5766172428
 30
0.0
 10
19.1293320021
 20
46.5936895809
 30
0.0
 10
19.6282963059
 20
46.6934541329
 30
0.0
 10
19.9908088301
 20
46.8248937254
 30
0.0
 10
20.1558649642
 20
46.9062089436
 30
0.0
 10
20.2328133094
 20
46.9506348262
 30
0.0
  0
SPLINE
  5
25F
100
AcDbEntity
  8
0
100
AcDbSpline
 62
7
  6
BYLAYER
 70
0
 71
3
 72
9
 73
5
 74
0
 42
0.0000001
 43
0.0000001
 44
0.0000000001
 40
0.0
 40
0.0
 40
0.0
 40
0.0
 40
0.2334157678
 40
1.0
 40
1.0
 40
1.0
 40
1.0
 10
22.9749848042
 20
42.0567638564
 30
0.0
 10
22.9159715209
 20
41.9887931776
 30
0.0
 10
22.6482195076
 20
41.7105535482
 30
0.0
 10
22.3292374665
 20
41.4846429368
 30
0.0
 10
22.0727776103
 20
41.3375967855
 30
0.0
  0
ENDSEC
  0
SECTION
  2
OBJECTS
  0
DICTIONARY
  5
C
100
AcDbDictionary
280
0
281
1
  3
ACAD_GROUP
350
D
  3
ACAD_MLINESTYLE
350
17
  3
ACAD_LAYOUT
350
1A
  3
ACAD_PLOTSETTINGS
350
19
  3
ACAD_PLOTSTYLENAME
350
E
  0
DICTIONARY
  5
D
102
{ACAD_REACTORS
330
C
102
}
100
AcDbDictionary
280
0
281
1
  0
ACDBDICTIONARYWDFLT
  5
E
102
{ACAD_REACTORS
330
C
102
}
100
AcDbDictionary
281
1
  3
Normal
350
F
100
AcDbDictionaryWithDefault
340
F
  0
DICTIONARY
  5
17
102
{ACAD_REACTORS
330
C
102
}
100
AcDbDictionary
280
0
281
1
  3
Standard
350
18
  0
DICTIONARY
  5
19
102
{ACAD_REACTORS
330
C
102
}
100
AcDbDictionary
281
1
  0
DICTIONARY
  5
1A
102
{ACAD_REACTORS
330
C
102
}
100
AcDbDictionary
281
1
  3
Model
350
260
  3
Layout1
350
261
  0
ACDBPLACEHOLDER
  5
F
102
{ACAD_REACTORS
330
E
102
}
  0
MLINESTYLE
  5
18
102
{ACAD_REACTORS
330
17
102
}
100
AcDbMlineStyle
  2
STANDARD
 70
0
  3

 62
256
 51
90.0
 52
90.0
 71
2
 49
0.5
 62
256
  6
BYLAYER
 49
-0.5
 62
256
  6
BYLAYER
  0
LAYOUT
  5
260
102
{ACAD_REACTORS
330
1A
102
}
100
AcDbPlotSettings
  1

  2
none_device
  4

  6

 40
0.0
 41
0.0
 42
0.0
 43
0.0
 44
210.0
 45
297.0
 46
0.0
 47
0.0
 48
0.0
 49
0.0
140
0.0
141
0.0
142
1.0
143
1.0
 70
1024
 72
1
 73
0
 74
0
  7

 75
0
147
1.0
148
0.0
149
0.0
100
AcDbLayout
  1
Model
 70
0
 71
0
 10
0.0
 20
0.0
 11
210.0
 21
297.0
 12
0.0
 22
0.0
 32
0.0
 14
0.0
 24
0.0
 34
0.0
 15
0.0
 25
0.0
 35
0.0
146
0.0
 13
0.0
 23
0.0
 33
0.0
 16
1.0
 26
0.0
 36
0.0
 17
0.0
 27
1.0
 37
0.0
 76
0
330
210
345
0
346
0
  0
LAYOUT
  5
261
102
{ACAD_REACTORS
330
1A
102
}
100
AcDbPlotSettings
  1

  2
none_device
  4

  6

 40
0.0
 41
0.0
 42
0.0
 43
0.0
 44
210.0
 45
297.0
 46
0.0
 47
0.0
 48
0.0
 49
0.0
140
0.0
141
0.0
142
1.0
143
1.0
 70
0
 72
1
 73
0
 74
0
  7

 75
0
147
1.0
148
0.0
149
0.0
100
AcDbLayout
  1
Layout1
 70
0
 71
1
 10
0.0
 20
0.0
 11
210.0
 21
297.0
 12
0.0
 22
0.0
 32
0.0
 14
0.0
 24
0.0
 34
0.0
 15
0.0
 25
0.0
 35
0.0
146
0.0
 13
0.0
 23
0.0
 33
0.0
 16
1.0
 26
0.0
 36
0.0
 17
0.0
 27
1.0
 37
0.0
 76
0
330
211
345
0
346
0
  0
ENDSEC
  0
EOF
