999
DXF file: C:\Users\sesa63760\Dev\_Creo\CAD\MCADID0002914_3D-CAD\drw0001_1.dxf
999
Pro/ENGINEER 2019471 by Parametric Technology Corporation
  0
SECTION
  2
HEADER
  9
$ACADVER
  1
AC1024
  9
$DWGCODEPAGE
  3
ANSI_1252
  9
$EXTMAX
 10
87.0036281988
 20
123.0479884526
 30
0.0
  9
$EXTMIN
 10
0.0
 20
0.0
 30
0.0
  9
$LIMMIN
 10
0.0
 20
0.0
  9
$LIMMAX
 10
87.0036281988
 20
123.0479884526
  9
$VIEWCTR
 10
43.5018140994
 20
61.5239942263
  9
$VIEWSIZE
 40
123.0479884526
  9
$CLAYER
  8
0
  9
$LTSCALE
 40
8.0209059139
  9
$CELTYPE
  6
BYLAYER
  9
$DIMSCALE
 40
1.0
  9
$DIMASZ
 40
1.0357574786
  9
$DIMEXO
 40
1.0
  9
$DIMDLI
 40
5.5417168133
  9
$DIMEXE
 40
1.0
  9
$DIMCEN
 40
1.3125118768
  9
$DIMLFAC
 40
1.0
  9
$DIMBLK
  1
_FILLED
  9
$DIMALT
 70
0
  9
$DIMALTF
 40
0.0393700787
  9
$DIMTXT
 40
1.45006047
  9
$DIMTOL
 70
1
  9
$DIMLIM
 70
0
  9
$DIMTFAC
 40
1.0
  9
$DIMTP
 40
0.01
  9
$DIMTM
 40
0.01
  9
$DIMGAP
 40
0.625
  9
$DIMDSEP
 70
46
  9
$AUNITS
 70
0
  9
$PDMODE
 70
3
  9
$PDSIZE
 40
0.3125
  9
$HANDSEED
  5
268
  9
$TILEMODE
 70
1
  9
$MEASUREMENT
 70
1
  9
$INSUNITS
 70
4
  0
ENDSEC
  0
SECTION
  2
CLASSES
  0
CLASS
  1
ACDBDICTIONARYWDFLT
  2
AcDbDictionaryWithDefault
  3
AutoCAD 2000
 90
0
 91
1
280
0
281
0
  0
CLASS
  1
ACDBPLACEHOLDER
  2
AcDbPlaceHolder
  3
AutoCAD 2000
 90
0
 91
1
280
0
281
0
  0
CLASS
  1
LAYOUT
  2
AcDbLayout
  3
AutoCAD 2000
 90
0
 91
0
280
0
281
0
  0
ENDSEC
  0
SECTION
  2
TABLES
  0
TABLE
  2
VPORT
  5
8
100
AcDbSymbolTable
 70
2
  0
VPORT
  5
1F4
100
AcDbSymbolTableRecord
100
AcDbViewportTableRecord
  2
*ACTIVE
 70
0
 10
0.0
 20
0.0
 11
1.0
 21
1.0
 12
43.5018140994
 22
61.5239942263
 13
0.0
 23
0.0
 14
1.0
 24
1.0
 15
0.0
 25
0.0
 16
0.0
 26
0.0
 36
1.0
 17
0.0
 27
0.0
 37
0.0
 40
123.0479884526
 41
0.7070707071
 42
50.0
 43
0.0
 44
0.0
 50
0.0
 51
0.0
 71
0
 72
100
 73
1
 74
1
 75
0
 76
0
 77
0
 78
0
  0
ENDTAB
  0
TABLE
  2
LTYPE
  5
5
100
AcDbSymbolTable
 70
6
  0
LTYPE
  5
14
100
AcDbSymbolTableRecord
100
AcDbLinetypeTableRecord
  2
BYBLOCK
 70
0
  3

 72
65
 73
0
 40
0.0
  0
LTYPE
  5
15
100
AcDbSymbolTableRecord
100
AcDbLinetypeTableRecord
  2
BYLAYER
 70
0
  3

 72
65
 73
0
 40
0.0
  0
LTYPE
  5
16
100
AcDbSymbolTableRecord
100
AcDbLinetypeTableRecord
  2
CONTINUOUS
 70
64
  3
Solid line
 72
65
 73
0
 40
0.0
  0
LTYPE
  5
1F5
100
AcDbSymbolTableRecord
100
AcDbLinetypeTableRecord
  2
CENTER
 70
64
  3
____ _ ____ _ ____ _ ____ _ ____ _ ____ _ ____
 72
65
 73
4
 40
0.6
 49
0.375
 74
0
 49
-0.075
 74
0
 49
0.075
 74
0
 49
-0.075
 74
0
  0
LTYPE
  5
1F6
100
AcDbSymbolTableRecord
100
AcDbLinetypeTableRecord
  2
HIDDEN
 70
64
  3
- - - - - - - - - - - - - - - - - - - -
 72
65
 73
2
 40
0.2
 49
0.1
 74
0
 49
-0.1
 74
0
  0
LTYPE
  5
1F7
100
AcDbSymbolTableRecord
100
AcDbLinetypeTableRecord
  2
PHANTOM
 70
64
  3
_____ _ _ _____ _ _ _____ _ _ _____
 72
65
 73
6
 40
0.8
 49
0.45
 74
0
 49
-0.05
 74
0
 49
0.1
 74
0
 49
-0.05
 74
0
 49
0.1
 74
0
 49
-0.05
 74
0
  0
LTYPE
  5
1F8
100
AcDbSymbolTableRecord
100
AcDbLinetypeTableRecord
  2
DOT
 70
64
  3
. . . . . . . . . . . . . . . . . . . .
 72
65
 73
2
 40
0.2
 49
0.1
 74
0
 49
-0.1
 74
0
  0
LTYPE
  5
1F9
100
AcDbSymbolTableRecord
100
AcDbLinetypeTableRecord
  2
DASHED
 70
64
  3
- - - - - - - - - - - - - - - - - - - -
 72
65
 73
2
 40
0.2
 49
0.1
 74
0
 49
-0.1
 74
0
  0
ENDTAB
  0
TABLE
  2
LAYER
  5
2
100
AcDbSymbolTable
 70
36
  0
LAYER
  5
10
100
AcDbSymbolTableRecord
100
AcDbLayerTableRecord
  2
0
 70
0
 62
7
  6
CONTINUOUS
370
-3
390
F
  0
LAYER
  5
1FA
100
AcDbSymbolTableRecord
100
AcDbLayerTableRecord
  2
DEFAULT_1
 70
0
 62
7
  6
CENTER
370
-3
390
F
  0
LAYER
  5
1FB
100
AcDbSymbolTableRecord
100
AcDbLayerTableRecord
  2
DEFAULT_2
 70
0
 62
7
  6
HIDDEN
370
-3
390
F
  0
LAYER
  5
1FC
100
AcDbSymbolTableRecord
100
AcDbLayerTableRecord
  2
DEFAULT_3
 70
0
 62
7
  6
PHANTOM
370
-3
390
F
  0
LAYER
  5
1FD
100
AcDbSymbolTableRecord
100
AcDbLayerTableRecord
  2
00_COMPONENTS
 70
0
 62
7
  6
CONTINUOUS
370
-3
390
F
  0
LAYER
  5
1FE
100
AcDbSymbolTableRecord
100
AcDbLayerTableRecord
  2
01_1_DEFAULT_DATUMS
 70
0
 62
7
  6
CONTINUOUS
370
-3
390
F
  0
LAYER
  5
1FF
100
AcDbSymbolTableRecord
100
AcDbLayerTableRecord
  2
01_PLANES
 70
0
 62
7
  6
CONTINUOUS
370
-3
390
F
  0
LAYER
  5
200
100
AcDbSymbolTableRecord
100
AcDbLayerTableRecord
  2
02_COORD_SYS
 70
0
 62
7
  6
CONTINUOUS
370
-3
390
F
  0
LAYER
  5
201
100
AcDbSymbolTableRecord
100
AcDbLayerTableRecord
  2
03_AXES
 70
0
 62
7
  6
CONTINUOUS
370
-3
390
F
  0
LAYER
  5
202
100
AcDbSymbolTableRecord
100
AcDbLayerTableRecord
  2
04_POINTS
 70
0
 62
7
  6
CONTINUOUS
370
-3
390
F
  0
LAYER
  5
203
100
AcDbSymbolTableRecord
100
AcDbLayerTableRecord
  2
05_CURVES
 70
0
 62
7
  6
CONTINUOUS
370
-3
390
F
  0
LAYER
  5
204
100
AcDbSymbolTableRecord
100
AcDbLayerTableRecord
  2
06_SURFS
 70
0
 62
7
  6
CONTINUOUS
370
-3
390
F
  0
LAYER
  5
205
100
AcDbSymbolTableRecord
100
AcDbLayerTableRecord
  2
07_COSMETICS
 70
0
 62
7
  6
CONTINUOUS
370
-3
390
F
  0
LAYER
  5
206
100
AcDbSymbolTableRecord
100
AcDbLayerTableRecord
  2
10_NOTES
 70
0
 62
7
  6
CONTINUOUS
370
-3
390
F
  0
LAYER
  5
207
100
AcDbSymbolTableRecord
100
AcDbLayerTableRecord
  2
11_NOTES_PUB
 70
0
 62
7
  6
CONTINUOUS
370
-3
390
F
  0
LAYER
  5
208
100
AcDbSymbolTableRecord
100
AcDbLayerTableRecord
  2
13_REF_GTOL
 70
0
 62
7
  6
CONTINUOUS
370
-3
390
F
  0
LAYER
  5
209
100
AcDbSymbolTableRecord
100
AcDbLayerTableRecord
  2
16_MISC
 70
0
 62
7
  6
CONTINUOUS
370
-3
390
F
  0
LAYER
  5
20A
100
AcDbSymbolTableRecord
100
AcDbLayerTableRecord
  2
17_NO_PRINT
 70
0
 62
7
  6
CONTINUOUS
370
-3
390
F
  0
LAYER
  5
20B
100
AcDbSymbolTableRecord
100
AcDbLayerTableRecord
  2
18_DATUM_CAMS_JOINTS
 70
0
 62
7
  6
CONTINUOUS
370
-3
390
F
  0
LAYER
  5
20C
100
AcDbSymbolTableRecord
100
AcDbLayerTableRecord
  2
19_DATUM_FUNCTIONAL
 70
0
 62
7
  6
CONTINUOUS
370
-3
390
F
  0
LAYER
  5
20D
100
AcDbSymbolTableRecord
100
AcDbLayerTableRecord
  2
20_DATUM_KINEMATIC_SCHEME
 70
0
 62
7
  6
CONTINUOUS
370
-3
390
F
  0
ENDTAB
  0
TABLE
  2
STYLE
  5
3
100
AcDbSymbolTable
 70
1
  0
STYLE
  5
11
100
AcDbSymbolTableRecord
100
AcDbTextStyleTableRecord
  2
STANDARD
 70
0
 40
0.0
 41
1.0
 50
0.0
 71
0
 42
0.2
  3
ARIAL.TTF
  4

  0
STYLE
  5
20E
100
AcDbSymbolTableRecord
100
AcDbTextStyleTableRecord
  2
TEXTSTYLE_1
 70
0
 40
0.0
 41
0.8
 50
0.0
 71
0
 42
0.2
  3
gdt
  4

  0
ENDTAB
  0
TABLE
  2
VIEW
  5
6
100
AcDbSymbolTable
 70
0
  0
ENDTAB
  0
TABLE
  2
UCS
  5
7
100
AcDbSymbolTable
 70
0
  0
ENDTAB
  0
TABLE
  2
APPID
  5
9
100
AcDbSymbolTable
 70
1
  0
APPID
  5
20F
100
AcDbSymbolTableRecord
100
AcDbRegAppTableRecord
  2
ACAD
 70
0
  0
ENDTAB
  0
TABLE
  2
BLOCK_RECORD
  5
1
100
AcDbSymbolTable
 70
0
  0
BLOCK_RECORD
  5
210
100
AcDbSymbolTableRecord
100
AcDbBlockTableRecord
  2
*Model_Space
  0
BLOCK_RECORD
  5
211
100
AcDbSymbolTableRecord
100
AcDbBlockTableRecord
  2
*Paper_Space
  0
BLOCK_RECORD
  5
212
100
AcDbSymbolTableRecord
100
AcDbBlockTableRecord
  2
_FILLED
  0
ENDTAB
  0
TABLE
  2
DIMSTYLE
  5
A
100
AcDbSymbolTable
 70
1
100
AcDbDimStyleTable
 71
0
  0
DIMSTYLE
105
213
100
AcDbSymbolTableRecord
100
AcDbDimStyleTableRecord
  2
STANDARD
 70
0
  3

  4

 40
1.0
 41
1.0357574786
 42
1.0
 43
0.38
 44
1.0
 45
0.0
 46
0.0
 47
0.01
 48
0.01
140
1.45006047
141
0.09
142
0.0
143
25.4
144
1.0
145
0.0
146
1.0
147
0.625
 71
1
 72
0
 73
0
 74
0
 75
0
 76
0
 77
1
 78
8
 79
2
170
0
171
1
172
0
173
0
174
0
175
0
176
0
177
0
178
0
270
2
179
2
271
2
272
2
273
2
274
2
275
0
280
0
281
0
282
0
283
1
284
8
285
0
286
0
287
3
288
0
340
11
278
46
341
212
342
212
343
212
344
212
  0
ENDTAB
  0
ENDSEC
  0
SECTION
  2
BLOCKS
  0
BLOCK
  5
20
100
AcDbEntity
  8
0
100
AcDbBlockBegin
  2
*Model_Space
 70
0
 10
0.0
 20
0.0
 30
0.0
  3
*Model_Space
  1

  0
ENDBLK
  5
21
100
AcDbEntity
  8
0
100
AcDbBlockEnd
  0
BLOCK
  5
1C
100
AcDbEntity
  8
0
100
AcDbBlockBegin
  2
*Paper_Space
 70
0
 10
0.0
 20
0.0
 30
0.0
  3
*Paper_Space
  1

  0
ENDBLK
  5
1D
100
AcDbEntity
  8
0
100
AcDbBlockEnd
  0
BLOCK
  5
214
100
AcDbEntity
  8
0
100
AcDbBlockBegin
  2
_FILLED
 70
64
 10
0.0
 20
0.0
  3
_FILLED
  1

  0
SOLID
  5
215
100
AcDbEntity
  8
0
  6
BYBLOCK
 62
0
100
AcDbTrace
 10
0.0
 20
0.0
 11
-1.0
 21
0.25
 12
-1.0
 22
-0.25
 13
-1.0
 23
-0.25
  0
ENDBLK
  5
216
100
AcDbEntity
  8
0
  6
BYBLOCK
 62
0
100
AcDbBlockEnd
  0
ENDSEC
  0
SECTION
  2
ENTITIES
  0
LINE
  5
217
100
AcDbEntity
  8
0
100
AcDbLine
 62
7
  6
BYLAYER
 10
10.0934218716
 20
48.3275386261
 11
10.0934218716
 21
53.5123289749
  0
LINE
  5
218
100
AcDbEntity
  8
0
100
AcDbLine
 62
7
  6
BYLAYER
 10
10.0934218716
 20
48.3275386261
 11
29.536327653
 21
37.1024256854
  0
LINE
  5
219
100
AcDbEntity
  8
0
100
AcDbLine
 62
7
  6
BYLAYER
 10
18.2837614702
 20
43.598950829
 11
18.2837614702
 21
39.4744321911
  0
LINE
  5
21A
100
AcDbEntity
  8
0
100
AcDbLine
 62
7
  6
BYLAYER
 10
20.6650114702
 20
51.1402104759
 11
20.6650114702
 21
55.1584229962
  0
LINE
  5
21B
100
AcDbEntity
  8
0
100
AcDbLine
 62
7
  6
BYLAYER
 10
29.536327653
 20
42.2872160341
 11
10.0934218716
 21
53.5123289749
  0
LINE
  5
21C
100
AcDbEntity
  8
0
100
AcDbLine
 62
7
  6
BYLAYER
 10
23.2843864702
 20
55.676902031
 11
23.2843864702
 21
55.1584229962
  0
LINE
  5
21D
100
AcDbEntity
  8
0
100
AcDbLine
 62
7
  6
BYLAYER
 10
27.5706364702
 20
55.676902031
 11
27.5706364702
 21
55.1584229962
  0
LINE
  5
21E
100
AcDbEntity
  8
0
100
AcDbLine
 62
7
  6
BYLAYER
 10
28.6225302881
 20
49.4252319692
 11
28.6225302881
 21
52.6657259372
  0
LINE
  5
21F
100
AcDbEntity
  8
0
100
AcDbLine
 62
7
  6
BYLAYER
 10
29.536327653
 20
42.2872160341
 11
29.536327653
 21
37.1024256854
  0
LINE
  5
220
100
AcDbEntity
  8
0
100
AcDbLine
 62
7
  6
BYLAYER
 10
30.1900114702
 20
54.7047538406
 11
30.1900114702
 21
55.1584229962
  0
LINE
  5
221
100
AcDbEntity
  8
0
100
AcDbLine
 62
7
  6
BYLAYER
 10
60.199522803
 20
82.615092428
 11
56.4448334733
 21
80.2188484969
  0
LINE
  5
222
100
AcDbEntity
  8
0
100
AcDbLine
 62
7
  6
BYLAYER
 10
55.1119207024
 20
77.7479361562
 11
23.6182366475
 21
57.6462147157
  0
LINE
  5
223
100
AcDbEntity
  8
0
100
AcDbLine
 62
7
  6
BYLAYER
 10
60.366166798
 20
77.3068263676
 11
41.4094863171
 21
66.3622471193
  0
LINE
  5
224
100
AcDbEntity
  8
0
100
AcDbLine
 62
7
  6
BYLAYER
 10
41.3025114702
 20
51.1402104759
 11
41.3025114702
 21
45.9554201271
  0
LINE
  5
225
100
AcDbEntity
  8
0
100
AcDbLine
 62
7
  6
BYLAYER
 10
40.2869589756
 20
64.4179619379
 11
41.4094863171
 21
66.3622471193
  0
LINE
  5
226
100
AcDbEntity
  8
0
100
AcDbLine
 62
7
  6
BYLAYER
 10
62.3306060032
 20
76.1726825214
 11
43.3739255223
 21
65.2281032732
  0
LINE
  5
227
100
AcDbEntity
  8
0
100
AcDbLine
 62
7
  6
BYLAYER
 10
43.3739255223
 20
65.2281032732
 11
42.2513981807
 21
63.2838180917
  0
LINE
  5
228
100
AcDbEntity
  8
0
100
AcDbLine
 62
7
  6
BYLAYER
 10
42.2513981807
 20
63.2838180917
 11
61.2080786616
 21
74.22839734
  0
LINE
  5
229
100
AcDbEntity
  8
0
100
AcDbLine
 62
7
  6
BYLAYER
 10
66.8132029987
 20
74.2328029828
 11
75.6536364965
 21
78.8501247564
  0
LINE
  5
22A
100
AcDbEntity
  8
0
100
AcDbLine
 62
7
  6
BYLAYER
 10
56.4448334733
 20
80.2188484969
 11
55.1119207024
 21
77.7479361562
  0
LINE
  5
22B
100
AcDbEntity
  8
0
100
AcDbLine
 62
7
  6
BYLAYER
 10
28.6225302881
 20
52.6657259372
 11
65.3397974157
 21
71.8430023699
  0
LINE
  5
22C
100
AcDbEntity
  8
0
100
AcDbLine
 62
7
  6
BYLAYER
 10
40.2869589756
 20
64.4179619379
 11
42.2513981807
 21
63.2838180917
  0
LINE
  5
22D
100
AcDbEntity
  8
0
100
AcDbLine
 62
7
  6
BYLAYER
 10
43.3739255223
 20
65.2281032732
 11
41.4094863171
 21
66.3622471193
  0
LINE
  5
22E
100
AcDbEntity
  8
0
100
AcDbLine
 62
7
  6
BYLAYER
 10
65.3397974157
 20
68.6025084019
 11
28.6225302881
 21
49.4252319692
  0
LINE
  5
22F
100
AcDbEntity
  8
0
100
AcDbLine
 62
7
  6
BYLAYER
 10
75.6536364965
 20
72.3691368204
 11
66.8132029987
 21
67.7518150469
  0
LINE
  5
230
100
AcDbEntity
  8
0
100
AcDbLine
 62
7
  6
BYLAYER
 10
61.2080786616
 20
74.22839734
 11
62.3306060032
 21
76.1726825214
  0
LINE
  5
231
100
AcDbEntity
  8
0
100
AcDbLine
 62
7
  6
BYLAYER
 10
57.2317177799
 20
80.721038313
 11
57.2316970864
 21
83.590612314
  0
LINE
  5
232
100
AcDbEntity
  8
0
100
AcDbLine
 62
7
  6
BYLAYER
 10
65.3397974157
 20
71.8430023699
 11
66.8132029987
 21
74.2328029828
  0
LINE
  5
233
100
AcDbEntity
  8
0
100
AcDbLine
 62
7
  6
BYLAYER
 10
61.2004470863
 20
86.8311349019
 11
61.200472202
 21
83.3483191936
  0
LINE
  5
234
100
AcDbEntity
  8
0
100
AcDbLine
 62
7
  6
BYLAYER
 10
66.8132029987
 20
67.7518150469
 11
65.3397974157
 21
68.6025084019
  0
LINE
  5
235
100
AcDbEntity
  8
0
100
AcDbLine
 62
7
  6
BYLAYER
 10
64.7726145651
 20
82.2485044994
 11
64.8087574679
 21
82.6151035072
  0
LINE
  5
236
100
AcDbEntity
  8
0
100
AcDbLine
 62
7
  6
BYLAYER
 10
65.3397974157
 20
71.8430023699
 11
61.2080786616
 21
74.22839734
  0
LINE
  5
237
100
AcDbEntity
  8
0
100
AcDbLine
 62
7
  6
BYLAYER
 10
58.1210833697
 20
76.0106345831
 11
55.1119207024
 21
77.7479361562
  0
LINE
  5
238
100
AcDbEntity
  8
0
100
AcDbLine
 62
7
  6
BYLAYER
 10
64.8087574679
 20
82.1093682997
 11
64.8087574679
 21
82.6151035072
  0
LINE
  5
239
100
AcDbEntity
  8
0
100
AcDbLine
 62
7
  6
BYLAYER
 10
65.1091250963
 20
83.3483285889
 11
65.1091250963
 21
81.2103886925
  0
LINE
  5
23A
100
AcDbEntity
  8
0
100
AcDbLine
 62
7
  6
BYLAYER
 10
64.8087574679
 20
82.6151035072
 11
60.199522803
 21
82.615092428
  0
LINE
  5
23B
100
AcDbEntity
  8
0
100
AcDbLine
 62
7
  6
BYLAYER
 10
61.200472202
 20
83.3483191936
 11
65.1091250963
 21
83.3483285889
  0
LINE
  5
23C
100
AcDbEntity
  8
0
100
AcDbLine
 62
7
  6
BYLAYER
 10
62.3306060032
 20
76.1726825214
 11
60.366166798
 21
77.3068263676
  0
LINE
  5
23D
100
AcDbEntity
  8
0
100
AcDbLine
 62
7
  6
BYLAYER
 10
66.8132029987
 20
74.2328029828
 11
56.4448334733
 21
80.2188484969
  0
LINE
  5
23E
100
AcDbEntity
  8
0
100
AcDbLine
 62
7
  6
BYLAYER
 10
70.3285720863
 20
86.8311568432
 11
61.2004470863
 21
86.8311349019
  0
LINE
  5
23F
100
AcDbEntity
  8
0
100
AcDbLine
 62
7
  6
BYLAYER
 10
75.6536364965
 20
78.8501247564
 11
75.6536364965
 21
72.3691368204
  0
LINE
  5
240
100
AcDbEntity
  8
0
100
AcDbLine
 62
7
  6
BYLAYER
 10
78.2661051332
 20
75.7675166595
 11
78.2661051332
 21
82.2485045955
  0
ARC
  5
241
100
AcDbEntity
  8
0
100
AcDbCircle
 62
7
  6
BYLAYER
 10
26.4796284003
 20
53.2069858734
 40
4.6313766039
100
AcDbArc
 50
297.5609679633
 51
299.8229072963
  0
SPLINE
  5
242
100
AcDbEntity
  8
0
100
AcDbSpline
 62
7
  6
BYLAYER
 70
0
 71
3
 72
11
 73
7
 74
0
 42
0.0000001
 43
0.0000001
 44
0.0000000001
 40
0.0
 40
0.0
 40
0.0
 40
0.0
 40
0.2320657867
 40
0.4774809528
 40
0.7342754008
 40
1.0
 40
1.0
 40
1.0
 40
1.0
 10
36.6528783569
 20
39.4745981491
 30
0.0
 10
36.1477134854
 20
39.1829428155
 30
0.0
 10
35.0728050581
 20
38.6430241798
 30
0.0
 10
33.3468397545
 20
37.9819986398
 30
0.0
 10
31.4871944592
 20
37.4559553211
 30
0.0
 10
30.1963929036
 20
37.2045383757
 30
0.0
 10
29.536327653
 20
37.1024256854
 30
0.0
  0
SPLINE
  5
243
100
AcDbEntity
  8
0
100
AcDbSpline
 62
7
  6
BYLAYER
 70
0
 71
3
 72
9
 73
5
 74
0
 42
0.0000001
 43
0.0000001
 44
0.0000000001
 40
0.0
 40
0.0
 40
0.0
 40
0.0
 40
0.4782010405
 40
1.0
 40
1.0
 40
1.0
 40
1.0
 10
31.7885315819
 20
37.5973565468
 30
0.0
 10
31.6113119116
 20
37.3971752787
 30
0.0
 10
31.1985238284
 20
37.0151534059
 30
0.0
 10
30.7315736439
 20
36.7039272869
 30
0.0
 10
30.4789265692
 20
36.558062301
 30
0.0
  0
SPLINE
  5
244
100
AcDbEntity
  8
0
100
AcDbSpline
 62
7
  6
BYLAYER
 70
0
 71
3
 72
18
 73
14
 74
0
 42
0.0000001
 43
0.0000001
 44
0.0000000001
 40
0.0
 40
0.0
 40
0.0
 40
0.0
 40
0.0428471136
 40
0.0874607635
 40
0.1352819816
 40
0.1872299537
 40
0.243719655
 40
0.3047240555
 40
0.4383545628
 40
0.582658744
 40
0.7297846258
 40
0.8713404636
 40
1.0
 40
1.0
 40
1.0
 40
1.0
 10
27.5706291641
 20
55.6769020352
 30
0.0
 10
27.5706337823
 20
55.7379093903
 30
0.0
 10
27.5542802684
 20
55.8629634465
 30
0.0
 10
27.4825989603
 20
56.0435561529
 30
0.0
 10
27.3661876593
 20
56.2147285466
 30
0.0
 10
27.2084575876
 20
56.3731426655
 30
0.0
 10
27.0129946163
 20
56.5159983238
 30
0.0
 10
26.6981020891
 20
56.6871621829
 30
0.0
 10
26.23671498
 20
56.8412846343
 30
0.0
 10
25.6346444604
 20
56.9258382293
 30
0.0
 10
25.0153547677
 20
56.9087296731
 30
0.0
 10
24.4299410252
 20
56.7916175475
 30
0.0
 10
24.0707346803
 20
56.6434077667
 30
0.0
 10
23.9120869404
 20
56.5518129981
 30
0.0
  0
SPLINE
  5
245
100
AcDbEntity
  8
0
100
AcDbSpline
 62
7
  6
BYLAYER
 70
0
 71
3
 72
11
 73
7
 74
0
 42
0.0000001
 43
0.0000001
 44
0.0000000001
 40
0.0
 40
0.0
 40
0.0
 40
0.0
 40
0.2780736586
 40
0.5367143743
 40
0.7765974938
 40
1.0
 40
1.0
 40
1.0
 40
1.0
 10
14.2021445834
 20
57.6210324539
 30
0.0
 10
13.7289408383
 20
57.347829775
 30
0.0
 10
12.8431395669
 20
56.7700529589
 30
0.0
 10
11.6795986899
 20
55.7751860217
 30
0.0
 10
10.7477158986
 20
54.6979504646
 30
0.0
 10
10.2782207947
 20
53.9105162527
 30
0.0
 10
10.0934218716
 20
53.5123289749
 30
0.0
  0
SPLINE
  5
246
100
AcDbEntity
  8
0
100
AcDbSpline
 62
7
  6
BYLAYER
 70
0
 71
3
 72
21
 73
17
 74
0
 42
0.0000001
 43
0.0000001
 44
0.0000000001
 40
0.0
 40
0.0
 40
0.0
 40
0.0
 40
0.0427931627
 40
0.0872824838
 40
0.1348545534
 40
0.1864245713
 40
0.2424183375
 40
0.3028458506
 40
0.3673886904
 40
0.4354714538
 40
0.5789432464
 40
0.7260281602
 40
0.7984707507
 40
0.8688285518
 40
0.9362724685
 40
1.0
 40
1.0
 40
1.0
 40
1.0
 10
30.1900048034
 20
55.1584229947
 30
0.0
 10
30.1900026361
 20
55.2910954456
 30
0.0
 10
30.1553271625
 20
55.5628062352
 30
0.0
 10
30.0027603812
 20
55.9558454453
 30
0.0
 10
29.7548751131
 20
56.329390542
 30
0.0
 10
29.4183707326
 20
56.6762176255
 30
0.0
 10
29.0007961753
 20
56.9904493458
 30
0.0
 10
28.5107147405
 20
57.2664296169
 30
0.0
 10
27.9579179882
 20
57.4989495145
 30
0.0
 10
27.1380412551
 20
57.7491393645
 30
0.0
 10
26.0336469078
 20
57.9228902987
 30
0.0
 10
24.9029240306
 20
57.9135957411
 30
0.0
 10
24.0112916266
 20
57.7935289472
 30
0.0
 10
23.3745137992
 20
57.6499066811
 30
0.0
 10
22.7798265371
 20
57.455247723
 30
0.0
 10
22.4076202465
 20
57.2889193162
 30
0.0
 10
22.2324926522
 20
57.1974508996
 30
0.0
  0
SPLINE
  5
247
100
AcDbEntity
  8
0
100
AcDbSpline
 62
7
  6
BYLAYER
 70
0
 71
3
 72
11
 73
7
 74
0
 42
0.0000001
 43
0.0000001
 44
0.0000000001
 40
0.0
 40
0.0
 40
0.0
 40
0.0
 40
0.2435013434
 40
0.4898017412
 40
0.7413573121
 40
1.0
 40
1.0
 40
1.0
 40
1.0
 10
57.2317098837
 20
83.5906123146
 30
0.0
 10
57.2317103819
 20
83.7569132826
 30
0.0
 10
57.263546576
 20
84.0922584026
 30
0.0
 10
57.4051779963
 20
84.5812309163
 30
0.0
 10
57.6368212682
 20
85.0459761475
 30
0.0
 10
57.8444835159
 20
85.3281229206
 30
0.0
 10
57.9601158933
 20
85.4616575558
 30
0.0
  0
SPLINE
  5
248
100
AcDbEntity
  8
0
100
AcDbSpline
 62
7
  6
BYLAYER
 70
0
 71
3
 72
11
 73
7
 74
0
 42
0.0000001
 43
0.0000001
 44
0.0000000001
 40
0.0
 40
0.0
 40
0.0
 40
0.0
 40
0.2361470621
 40
0.4833432734
 40
0.7392680598
 40
1.0
 40
1.0
 40
1.0
 40
1.0
 10
57.9601158933
 20
85.4616575558
 30
0.0
 10
58.1465492242
 20
85.6769545803
 30
0.0
 10
58.5862263973
 20
86.0696894471
 30
0.0
 10
59.3736404795
 20
86.5018142239
 30
0.0
 10
60.2611622434
 20
86.7706115912
 30
0.0
 10
60.8859986684
 20
86.831134146
 30
0.0
 10
61.2004470863
 20
86.8311349019
 30
0.0
  0
SPLINE
  5
249
100
AcDbEntity
  8
0
100
AcDbSpline
 62
7
  6
BYLAYER
 70
0
 71
3
 72
14
 73
10
 74
0
 42
0.0000001
 43
0.0000001
 44
0.0000000001
 40
0.0
 40
0.0
 40
0.0
 40
0.0
 40
0.108043907
 40
0.2181283542
 40
0.3321075472
 40
0.4514899711
 40
0.5774360035
 40
0.710737479
 40
1.0
 40
1.0
 40
1.0
 40
1.0
 10
75.8848329584
 20
82.2485045962
 30
0.0
 10
75.8848224734
 20
82.1433215977
 30
0.0
 10
75.8665738589
 20
81.9305423619
 30
0.0
 10
75.7850360502
 20
81.6162515327
 30
0.0
 10
75.6504262577
 20
81.3087581044
 30
0.0
 10
75.4645756595
 20
81.011118402
 30
0.0
 10
75.2293615513
 20
80.7260391711
 30
0.0
 10
74.8429242644
 20
80.3562013515
 30
0.0
 10
74.5013593487
 20
80.1210178245
 30
0.0
 10
74.2574835436
 20
79.9802169032
 30
0.0
  0
SPLINE
  5
24A
100
AcDbEntity
  8
0
100
AcDbSpline
 62
7
  6
BYLAYER
 70
0
 71
3
 72
9
 73
5
 74
0
 42
0.0000001
 43
0.0000001
 44
0.0000000001
 40
0.0
 40
0.0
 40
0.0
 40
0.0
 40
0.4877784162
 40
1.0
 40
1.0
 40
1.0
 40
1.0
 10
58.0336445403
 20
81.3277401428
 30
0.0
 10
58.2513744333
 20
81.5631042504
 30
0.0
 10
58.7678408129
 20
81.9835956699
 30
0.0
 10
59.3699813038
 20
82.2635799742
 30
0.0
 10
59.689122109
 20
82.3708785744
 30
0.0
  0
SPLINE
  5
24B
100
AcDbEntity
  8
0
100
AcDbSpline
 62
7
  6
BYLAYER
 70
0
 71
3
 72
19
 73
15
 74
0
 42
0.0000001
 43
0.0000001
 44
0.0000000001
 40
0.0
 40
0.0
 40
0.0
 40
0.0
 40
0.0450640514
 40
0.090977941
 40
0.138514629
 40
0.1883121228
 40
0.2408483415
 40
0.2964303317
 40
0.3552146687
 40
0.4172145148
 40
0.5502682558
 40
0.6938337778
 40
0.8449483963
 40
1.0
 40
1.0
 40
1.0
 40
1.0
 10
78.2660869502
 20
82.2485046222
 30
0.0
 10
78.2660992511
 20
82.3987706191
 30
0.0
 10
78.239950821
 20
82.7027417812
 30
0.0
 10
78.1235273478
 20
83.1517370683
 30
0.0
 10
77.9312224001
 20
83.5910308687
 30
0.0
 10
77.6656496418
 20
84.0162438887
 30
0.0
 10
77.3296378373
 20
84.4234333869
 30
0.0
 10
76.9268049837
 20
84.8090757993
 30
0.0
 10
76.4609620298
 20
85.1696244253
 30
0.0
 10
75.7451573356
 20
85.623269406
 30
0.0
 10
74.7169154366
 20
86.1019267966
 30
0.0
 10
73.3485861683
 20
86.517872833
 30
0.0
 10
71.8674681451
 20
86.773825928
 30
0.0
 10
70.8455913762
 20
86.8311580859
 30
0.0
 10
70.3285720863
 20
86.8311568432
 30
0.0
  0
SPLINE
  5
24C
100
AcDbEntity
  8
0
100
AcDbSpline
 62
7
  6
BYLAYER
 70
0
 71
3
 72
14
 73
10
 74
0
 42
0.0000001
 43
0.0000001
 44
0.0000000001
 40
0.0
 40
0.0
 40
0.0
 40
0.0
 40
0.1095270601
 40
0.2208705287
 40
0.335703811
 40
0.4554208484
 40
0.5811284646
 40
0.7136291122
 40
1.0
 40
1.0
 40
1.0
 40
1.0
 10
78.2660869401
 20
75.7675166863
 30
0.0
 10
78.2660754238
 20
75.6268562578
 30
0.0
 10
78.2432572238
 20
75.3427035714
 30
0.0
 10
78.1413430316
 20
74.9221175406
 30
0.0
 10
77.9727603407
 20
74.5094344232
 30
0.0
 10
77.7396024936
 20
74.1082670268
 30
0.0
 10
77.4438950665
 20
73.7218689648
 30
0.0
 10
76.9576180321
 20
73.2176455327
 30
0.0
 10
76.5249175769
 20
72.8910338275
 30
0.0
 10
76.2149001673
 20
72.6931806175
 30
0.0
  0
SPLINE
  5
24D
100
AcDbEntity
  8
0
100
AcDbSpline
 62
7
  6
BYLAYER
 70
0
 71
3
 72
9
 73
5
 74
0
 42
0.0000001
 43
0.0000001
 44
0.0000000001
 40
0.0
 40
0.0
 40
0.0
 40
0.0
 40
0.2453211626
 40
1.0
 40
1.0
 40
1.0
 40
1.0
 10
76.2149001673
 20
72.6931806175
 30
0.0
 10
76.1702180731
 20
72.6646644908
 30
0.0
 10
75.9867508009
 20
72.5505167854
 30
0.0
 10
75.7981721812
 20
72.4446272095
 30
0.0
 10
75.6536364965
 20
72.3691368204
 30
0.0
  0
SPLINE
  5
24E
100
AcDbEntity
  8
0
100
AcDbSpline
 62
7
  6
BYLAYER
 70
0
 71
3
 72
15
 73
11
 74
0
 42
0.0000001
 43
0.0000001
 44
0.0000000001
 40
0.0
 40
0.0
 40
0.0
 40
0.0
 40
0.1080129866
 40
0.2180600082
 40
0.3319953729
 40
0.4513562373
 40
0.577270091
 40
0.7104873414
 40
0.851425722
 40
1.0
 40
1.0
 40
1.0
 40
1.0
 10
41.3025044969
 20
45.9554201271
 30
0.0
 10
41.302504433
 20
45.6548856803
 30
0.0
 10
41.2502702802
 20
45.0469412462
 30
0.0
 10
41.0173581906
 20
44.1489812537
 30
0.0
 10
40.6328589187
 20
43.2703491421
 30
0.0
 10
40.101589132
 20
42.4200241887
 30
0.0
 10
39.429724883
 20
41.6055637928
 30
0.0
 10
38.6239231511
 20
40.8342598466
 30
0.0
 10
37.6922990155
 20
40.1132340475
 30
0.0
 10
37.0108867358
 20
39.6812931492
 30
0.0
 10
36.6528783569
 20
39.4745981491
 30
0.0
  0
SPLINE
  5
24F
100
AcDbEntity
  8
0
100
AcDbSpline
 62
7
  6
BYLAYER
 70
0
 71
3
 72
11
 73
7
 74
0
 42
0.0000001
 43
0.0000001
 44
0.0000000001
 40
0.0
 40
0.0
 40
0.0
 40
0.0
 40
0.2360455975
 40
0.4780799491
 40
0.7313737609
 40
1.0
 40
1.0
 40
1.0
 40
1.0
 10
41.3025043038
 20
51.1402104755
 30
0.0
 10
41.3025046812
 20
51.4904864433
 30
0.0
 10
41.2311055255
 20
52.2018213454
 30
0.0
 10
40.9136761743
 20
53.2461051238
 30
0.0
 10
40.392290287
 20
54.2588777906
 30
0.0
 10
39.9294268514
 20
54.884134565
 30
0.0
 10
39.6708306472
 20
55.1874968507
 30
0.0
  0
SPLINE
  5
250
100
AcDbEntity
  8
0
100
AcDbSpline
 62
7
  6
BYLAYER
 70
0
 71
3
 72
14
 73
10
 74
0
 42
0.0000001
 43
0.0000001
 44
0.0000000001
 40
0.0
 40
0.0
 40
0.0
 40
0.0
 40
0.2639881888
 40
0.3952300897
 40
0.5243869619
 40
0.6503726935
 40
0.7721792151
 40
0.8889757302
 40
1.0
 40
1.0
 40
1.0
 40
1.0
 10
27.6149179325
 20
60.2180847884
 30
0.0
 10
26.3998639848
 20
60.3156578835
 30
0.0
 10
24.5678564945
 20
60.3394559824
 30
0.0
 10
22.1544159525
 20
60.1292887346
 30
0.0
 10
20.3901866845
 20
59.8532323938
 30
0.0
 10
18.6925784316
 20
59.462162424
 30
0.0
 10
17.0835023526
 20
58.9612196131
 30
0.0
 10
15.5845345244
 20
58.356881757
 30
0.0
 10
14.6461170945
 20
57.8773585726
 30
0.0
 10
14.2021445834
 20
57.6210324539
 30
0.0
  0
SPLINE
  5
251
100
AcDbEntity
  8
0
100
AcDbSpline
 62
7
  6
BYLAYER
 70
0
 71
3
 72
23
 73
19
 74
0
 42
0.0000001
 43
0.0000001
 44
0.0000000001
 40
0.0
 40
0.0
 40
0.0
 40
0.0
 40
0.06237879
 40
0.1287476373
 40
0.1983419032
 40
0.2703294241
 40
0.343717565
 40
0.4174585838
 40
0.4904935769
 40
0.561790104
 40
0.6303967988
 40
0.695494678
 40
0.7564521574
 40
0.8128976445
 40
0.8648074266
 40
0.9125901583
 40
0.957167707
 40
1.0
 40
1.0
 40
1.0
 40
1.0
 10
74.2574835436
 20
79.9802169032
 30
0.0
 10
74.0579046143
 20
79.8649906425
 30
0.0
 10
73.6300701975
 20
79.6541009179
 30
0.0
 10
72.9400206429
 20
79.4039862883
 30
0.0
 10
72.1942294223
 20
79.2146938754
 30
0.0
 10
71.4088231843
 20
79.0901351766
 30
0.0
 10
70.6003432306
 20
79.0329893923
 30
0.0
 10
69.7860755766
 20
79.0444393161
 30
0.0
 10
68.9833807292
 20
79.1242318473
 30
0.0
 10
68.2093665694
 20
79.2707293843
 30
0.0
 10
67.4804721299
 20
79.480789255
 30
0.0
 10
66.8120925439
 20
79.7500153501
 30
0.0
 10
66.2182880677
 20
80.0729542892
 30
0.0
 10
65.711494542
 20
80.4432574246
 30
0.0
 10
65.3024984824
 20
80.8539471458
 30
0.0
 10
65.0007019096
 20
81.2977308901
 30
0.0
 10
64.8146395223
 20
81.7659469278
 30
0.0
 10
64.772411262
 20
82.0902639499
 30
0.0
 10
64.7724154849
 20
82.2485045011
 30
0.0
  0
SPLINE
  5
252
100
AcDbEntity
  8
0
100
AcDbSpline
 62
7
  6
BYLAYER
 70
0
 71
3
 72
23
 73
19
 74
0
 42
0.0000001
 43
0.0000001
 44
0.0000000001
 40
0.0
 40
0.0
 40
0.0
 40
0.0
 40
0.0623831646
 40
0.1287487299
 40
0.1983461418
 40
0.2703358237
 40
0.3437242918
 40
0.4174675868
 40
0.4905050163
 40
0.5618042938
 40
0.6304129373
 40
0.6955106184
 40
0.7564679969
 40
0.8129146532
 40
0.8648229142
 40
0.9126046442
 40
0.9571860824
 40
1.0
 40
1.0
 40
1.0
 40
1.0
 10
30.4789265692
 20
36.558062301
 30
0.0
 10
30.2223070441
 20
36.4099038335
 30
0.0
 10
29.6722369549
 20
36.1387412396
 30
0.0
 10
28.7850006157
 20
35.8171846773
 30
0.0
 10
27.826115842
 20
35.5738148051
 30
0.0
 10
26.8162834212
 20
35.4136488329
 30
0.0
 10
25.7767852708
 20
35.3401802117
 30
0.0
 10
24.7298453611
 20
35.3549270976
 30
0.0
 10
23.6977772835
 20
35.4575468783
 30
0.0
 10
22.7025790741
 20
35.6458869971
 30
0.0
 10
21.7654131877
 20
35.9159944614
 30
0.0
 10
20.9060830151
 20
36.2622008328
 30
0.0
 10
20.1426284732
 20
36.6774281262
 30
0.0
 10
19.4910360543
 20
37.153529181
 30
0.0
 10
18.9652155738
 20
37.6815852619
 30
0.0
 10
18.5772656246
 20
38.2522303654
 30
0.0
 10
18.3381653768
 20
38.8541758943
 30
0.0
 10
18.283771664
 20
39.271067298
 30
0.0
 10
18.2837698663
 20
39.4744321919
 30
0.0
  0
SPLINE
  5
253
100
AcDbEntity
  8
0
100
AcDbSpline
 62
7
  6
BYLAYER
 70
0
 71
3
 72
11
 73
7
 74
0
 42
0.0000001
 43
0.0000001
 44
0.0000000001
 40
0.0
 40
0.0
 40
0.0
 40
0.0
 40
0.2897031353
 40
0.5490914015
 40
0.7822201129
 40
1.0
 40
1.0
 40
1.0
 40
1.0
 10
23.9120869404
 20
56.5518129981
 30
0.0
 10
23.8180499205
 20
56.4975210234
 30
0.0
 10
23.6474420852
 20
56.3800118532
 30
0.0
 10
23.4435380734
 20
56.1657249729
 30
0.0
 10
23.314557758
 20
55.9286654774
 30
0.0
 10
23.2843999552
 20
55.7585287101
 30
0.0
 10
23.2843937762
 20
55.6769020269
 30
0.0
  0
SPLINE
  5
254
100
AcDbEntity
  8
0
100
AcDbSpline
 62
7
  6
BYLAYER
 70
0
 71
3
 72
14
 73
10
 74
0
 42
0.0000001
 43
0.0000001
 44
0.0000000001
 40
0.0
 40
0.0
 40
0.0
 40
0.0
 40
0.2919960394
 40
0.4260727993
 40
0.5522855799
 40
0.6713870014
 40
0.7845566171
 40
0.8934119624
 40
1.0
 40
1.0
 40
1.0
 40
1.0
 10
22.2324926522
 20
57.1974508996
 30
0.0
 10
21.9995663413
 20
57.0757944529
 30
0.0
 10
21.6722769189
 20
56.8699324318
 30
0.0
 10
21.2995936739
 20
56.5397356949
 30
0.0
 10
21.0724422519
 20
56.2835320174
 30
0.0
 10
20.8925623153
 20
56.01439383
 30
0.0
 10
20.7619650794
 20
55.7350864449
 30
0.0
 10
20.6828242575
 20
55.4486692299
 30
0.0
 10
20.6650165699
 20
55.2543473634
 30
0.0
 10
20.6650181369
 20
55.1584229976
 30
0.0
  0
SPLINE
  5
255
100
AcDbEntity
  8
0
100
AcDbSpline
 62
7
  6
BYLAYER
 70
0
 71
3
 72
20
 73
16
 74
0
 42
0.0000001
 43
0.0000001
 44
0.0000000001
 40
0.0
 40
0.0
 40
0.0
 40
0.0
 40
0.05519643
 40
0.111254603
 40
0.1686767795
 40
0.2278539863
 40
0.2889378092
 40
0.3519007866
 40
0.4822403691
 40
0.6161087905
 40
0.7493287404
 40
0.8145576374
 40
0.8782238216
 40
0.9400706815
 40
1.0
 40
1.0
 40
1.0
 40
1.0
 10
58.0304224575
 20
85.5685223744
 30
0.0
 10
58.0397258403
 20
85.7036868793
 30
0.0
 10
58.0847127134
 20
85.9750094879
 30
0.0
 10
58.2285044381
 20
86.3656615785
 30
0.0
 10
58.4448863648
 20
86.7326199431
 30
0.0
 10
58.7280485976
 20
87.06690568
 30
0.0
 10
59.0709893096
 20
87.360700373
 30
0.0
 10
59.6020074447
 20
87.6928472622
 30
0.0
 10
60.3678104797
 20
87.9685223871
 30
0.0
 10
61.3493186808
 20
88.0548700748
 30
0.0
 10
62.163951979
 20
87.9200101887
 30
0.0
 10
62.7668561304
 20
87.6906691854
 30
0.0
 10
63.1788026335
 20
87.4647206097
 30
0.0
 10
63.5431014714
 20
87.1891267712
 30
0.0
 10
63.751648986
 20
86.9728489853
 30
0.0
 10
63.8445279811
 20
86.8587772252
 30
0.0
  0
SPLINE
  5
256
100
AcDbEntity
  8
0
100
AcDbSpline
 62
7
  6
BYLAYER
 70
0
 71
3
 72
11
 73
7
 74
0
 42
0.0000001
 43
0.0000001
 44
0.0000000001
 40
0.0
 40
0.0
 40
0.0
 40
0.0
 40
0.2177827477
 40
0.4509152641
 40
0.7103063952
 40
1.0
 40
1.0
 40
1.0
 40
1.0
 10
27.5706266164
 20
55.1584230206
 30
0.0
 10
27.5706154632
 20
55.0767953356
 30
0.0
 10
27.5404678147
 20
54.9066554509
 30
0.0
 10
27.4114780982
 20
54.6695948341
 30
0.0
 10
27.2075758342
 20
54.4553097458
 30
0.0
 10
27.0369698457
 20
54.3378021713
 30
0.0
 10
26.9429359999
 20
54.2835120291
 30
0.0
  0
SPLINE
  5
257
100
AcDbEntity
  8
0
100
AcDbSpline
 62
7
  6
BYLAYER
 70
0
 71
3
 72
15
 73
11
 74
0
 42
0.0000001
 43
0.0000001
 44
0.0000000001
 40
0.0
 40
0.0
 40
0.0
 40
0.0
 40
0.1485730788
 40
0.2895090246
 40
0.4227256509
 40
0.5486398978
 40
0.668001256
 40
0.7819375079
 40
0.8919856627
 40
1.0
 40
1.0
 40
1.0
 40
1.0
 10
36.6528783569
 20
44.6593884978
 30
0.0
 10
37.0108838544
 20
44.8660818344
 30
0.0
 10
37.6922893577
 20
45.298014663
 30
0.0
 10
38.623902804
 20
46.0190348843
 30
0.0
 10
39.4297027268
 20
46.7903297142
 30
0.0
 10
40.1015710403
 20
47.6047879191
 30
0.0
 10
40.6328460096
 20
48.4551153764
 30
0.0
 10
41.0173528995
 20
49.3337519462
 30
0.0
 10
41.2502680132
 20
50.2317210204
 30
0.0
 10
41.3025039801
 20
50.8396722636
 30
0.0
 10
41.3025043038
 20
51.1402104755
 30
0.0
  0
SPLINE
  5
258
100
AcDbEntity
  8
0
100
AcDbSpline
 62
7
  6
BYLAYER
 70
0
 71
3
 72
11
 73
7
 74
0
 42
0.0000001
 43
0.0000001
 44
0.0000000001
 40
0.0
 40
0.0
 40
0.0
 40
0.0
 40
0.2657245992
 40
0.5225190472
 40
0.7679342133
 40
1.0
 40
1.0
 40
1.0
 40
1.0
 10
29.536327653
 20
42.2872160341
 30
0.0
 10
30.1963929036
 20
42.3893287245
 30
0.0
 10
31.4871944592
 20
42.6407456699
 30
0.0
 10
33.3468397545
 20
43.1667889886
 30
0.0
 10
35.0728050581
 20
43.8278145286
 30
0.0
 10
36.1477134854
 20
44.3677331643
 30
0.0
 10
36.6528783569
 20
44.6593884978
 30
0.0
  0
SPLINE
  5
259
100
AcDbEntity
  8
0
100
AcDbSpline
 62
7
  6
BYLAYER
 70
0
 71
3
 72
21
 73
17
 74
0
 42
0.0000001
 43
0.0000001
 44
0.0000000001
 40
0.0
 40
0.0
 40
0.0
 40
0.0
 40
0.0637288375
 40
0.1311697995
 40
0.2015263778
 40
0.2739682117
 40
0.4210515795
 40
0.564525394
 40
0.6326091495
 40
0.6971535671
 40
0.7575822988
 40
0.8135758361
 40
0.8651458834
 40
0.9127184109
 40
0.9572072413
 40
1.0
 40
1.0
 40
1.0
 40
1.0
 10
28.6225302881
 20
49.1011825724
 30
0.0
 10
28.4473990897
 20
49.0097122734
 30
0.0
 10
28.0751994596
 20
48.8433812512
 30
0.0
 10
27.4805184405
 20
48.6487306132
 30
0.0
 10
26.8437557888
 20
48.5051132804
 30
0.0
 10
25.9521362556
 20
48.3850286164
 30
0.0
 10
24.821414613
 20
48.3757519376
 30
0.0
 10
23.7170107019
 20
48.5494759075
 30
0.0
 10
22.8971250103
 20
48.7996857546
 30
0.0
 10
22.344312111
 20
49.0321959251
 30
0.0
 10
21.8542202471
 20
49.3081762817
 30
0.0
 10
21.4366539276
 20
49.6224253381
 30
0.0
 10
21.100150016
 20
49.9692494903
 30
0.0
 10
20.8522396687
 20
50.3427828399
 30
0.0
 10
20.6997127576
 20
50.7358333865
 30
0.0
 10
20.6650126773
 20
51.0075392658
 30
0.0
 10
20.6650257608
 20
51.1402104752
 30
0.0
  0
SPLINE
  5
25A
100
AcDbEntity
  8
0
100
AcDbSpline
 62
7
  6
BYLAYER
 70
0
 71
3
 72
14
 73
10
 74
0
 42
0.0000001
 43
0.0000001
 44
0.0000000001
 40
0.0
 40
0.0
 40
0.0
 40
0.0
 40
0.1065871071
 40
0.2154421883
 40
0.3286119512
 40
0.4477130552
 40
0.5739264517
 40
0.7080048346
 40
1.0
 40
1.0
 40
1.0
 40
1.0
 10
30.1900034881
 20
54.7047538404
 30
0.0
 10
30.1900027501
 20
54.6088303492
 30
0.0
 10
30.1721986144
 20
54.4145096449
 30
0.0
 10
30.0930567999
 20
54.128093395
 30
0.0
 10
29.9624604308
 20
53.8487864681
 30
0.0
 10
29.7825825272
 20
53.5796464859
 30
0.0
 10
29.5554293941
 20
53.3234420689
 30
0.0
 10
29.1827454442
 20
52.9932446682
 30
0.0
 10
28.8554558116
 20
52.7873819727
 30
0.0
 10
28.6225302881
 20
52.6657259372
 30
0.0
  0
SPLINE
  5
25B
100
AcDbEntity
  8
0
100
AcDbSpline
 62
7
  6
BYLAYER
 70
0
 71
3
 72
23
 73
19
 74
0
 42
0.0000001
 43
0.0000001
 44
0.0000000001
 40
0.0
 40
0.0
 40
0.0
 40
0.0
 40
0.0623787977
 40
0.1287509231
 40
0.1983473557
 40
0.2703369654
 40
0.3437261742
 40
0.417468411
 40
0.4905061449
 40
0.5618047829
 40
0.6304132163
 40
0.6955120638
 40
0.7564687235
 40
0.8129139939
 40
0.8648231559
 40
0.9126056487
 40
0.9571866807
 40
1.0
 40
1.0
 40
1.0
 40
1.0
 10
66.3997267229
 20
84.5167922878
 30
0.0
 10
66.5993055236
 20
84.6320184743
 30
0.0
 10
67.0271526116
 20
84.8429090837
 30
0.0
 10
67.7172189431
 20
85.0930341669
 30
0.0
 10
68.4630373932
 20
85.2823325414
 30
0.0
 10
69.2484651018
 20
85.4068772229
 30
0.0
 10
70.0569602217
 20
85.4640243426
 30
0.0
 10
70.8712461019
 20
85.4525686347
 30
0.0
 10
71.6739614524
 20
85.372758799
 30
0.0
 10
72.4479951792
 20
85.2262376157
 30
0.0
 10
73.1769037559
 20
85.016165693
 30
0.0
 10
73.8452852972
 20
84.7469246945
 30
0.0
 10
74.4390695139
 20
84.4239485113
 30
0.0
 10
74.9458382257
 20
84.0536253573
 30
0.0
 10
75.3548361691
 20
83.64294583
 30
0.0
 10
75.6565997078
 20
83.1991130864
 30
0.0
 10
75.8425043649
 20
82.7309154245
 30
0.0
 10
75.8848487253
 20
82.4066749283
 30
0.0
 10
75.8848329584
 20
82.2485045962
 30
0.0
  0
SPLINE
  5
25C
100
AcDbEntity
  8
0
100
AcDbSpline
 62
7
  6
BYLAYER
 70
0
 71
3
 72
10
 73
6
 74
0
 42
0.0000001
 43
0.0000001
 44
0.0000000001
 40
0.0
 40
0.0
 40
0.0
 40
0.0
 40
0.2274774992
 40
0.5960404846
 40
1.0
 40
1.0
 40
1.0
 40
1.0
 10
65.1091250963
 20
83.3483285889
 30
0.0
 10
65.1802645428
 20
83.4608618386
 30
0.0
 10
65.3900637044
 20
83.7412957593
 30
0.0
 10
65.817775676
 20
84.1457521799
 30
0.0
 10
66.1949793563
 20
84.3985820462
 30
0.0
 10
66.3997267229
 20
84.5167922878
 30
0.0
  0
SPLINE
  5
25D
100
AcDbEntity
  8
0
100
AcDbSpline
 62
7
  6
BYLAYER
 70
0
 71
3
 72
14
 73
10
 74
0
 42
0.0000001
 43
0.0000001
 44
0.0000000001
 40
0.0
 40
0.0
 40
0.0
 40
0.0
 40
0.2863708865
 40
0.4188715277
 40
0.5445791436
 40
0.6642961837
 40
0.7791294679
 40
0.8904729375
 40
1.0
 40
1.0
 40
1.0
 40
1.0
 10
76.2149001673
 20
79.1741685535
 30
0.0
 10
76.5249175758
 20
79.3720217628
 30
0.0
 10
76.9576180297
 20
79.6986334552
 30
0.0
 10
77.4438950515
 20
80.202856886
 30
0.0
 10
77.7396024827
 20
80.5892549394
 30
0.0
 10
77.972760332
 20
80.9904223406
 30
0.0
 10
78.1413430457
 20
81.4031054586
 30
0.0
 10
78.2432572155
 20
81.8236915016
 30
0.0
 10
78.2660754357
 20
82.1078441906
 30
0.0
 10
78.2660869502
 20
82.2485046222
 30
0.0
  0
SPLINE
  5
25E
100
AcDbEntity
  8
0
100
AcDbSpline
 62
7
  6
BYLAYER
 70
0
 71
3
 72
9
 73
5
 74
0
 42
0.0000001
 43
0.0000001
 44
0.0000000001
 40
0.0
 40
0.0
 40
0.0
 40
0.0
 40
0.2546961818
 40
1.0
 40
1.0
 40
1.0
 40
1.0
 10
75.6536364965
 20
78.8501247564
 30
0.0
 10
75.7024155574
 20
78.8756018577
 30
0.0
 10
75.892900851
 20
78.977591054
 30
0.0
 10
76.0791532614
 20
79.0875348347
 30
0.0
 10
76.2149001673
 20
79.1741685535
 30
0.0
  0
SPLINE
  5
25F
100
AcDbEntity
  8
0
100
AcDbSpline
 62
7
  6
BYLAYER
 70
0
 71
3
 72
18
 73
14
 74
0
 42
0.0000001
 43
0.0000001
 44
0.0000000001
 40
0.0
 40
0.0
 40
0.0
 40
0.0
 40
0.0428471136
 40
0.0874607635
 40
0.1352819816
 40
0.1872299537
 40
0.243719655
 40
0.3047240555
 40
0.4383545628
 40
0.582658744
 40
0.7297846258
 40
0.8713404636
 40
1.0
 40
1.0
 40
1.0
 40
1.0
 10
23.2843937762
 20
55.6769020269
 30
0.0
 10
23.284389158
 20
55.6158946718
 30
0.0
 10
23.3007426719
 20
55.4908406156
 30
0.0
 10
23.37242398
 20
55.3102479091
 30
0.0
 10
23.488835281
 20
55.1390755154
 30
0.0
 10
23.6465653527
 20
54.9806613966
 30
0.0
 10
23.842028324
 20
54.8378057383
 30
0.0
 10
24.1569208513
 20
54.6666418792
 30
0.0
 10
24.6183079603
 20
54.5125194278
 30
0.0
 10
25.2203784799
 20
54.4279658327
 30
0.0
 10
25.8396681726
 20
54.4450743889
 30
0.0
 10
26.4250819152
 20
54.5621865145
 30
0.0
 10
26.78428826
 20
54.7103962954
 30
0.0
 10
26.9429359999
 20
54.801991064
 30
0.0
  0
SPLINE
  5
260
100
AcDbEntity
  8
0
100
AcDbSpline
 62
7
  6
BYLAYER
 70
0
 71
3
 72
21
 73
17
 74
0
 42
0.0000001
 43
0.0000001
 44
0.0000000001
 40
0.0
 40
0.0
 40
0.0
 40
0.0
 40
0.0427931627
 40
0.0872824838
 40
0.1348545534
 40
0.1864245713
 40
0.2424183375
 40
0.3028458506
 40
0.3673886904
 40
0.4354714538
 40
0.5789432464
 40
0.7260281602
 40
0.7984707507
 40
0.8688285518
 40
0.9362724685
 40
1.0
 40
1.0
 40
1.0
 40
1.0
 10
20.6650181369
 20
55.1584229976
 30
0.0
 10
20.6650203042
 20
55.0257505467
 30
0.0
 10
20.6996957778
 20
54.7540397571
 30
0.0
 10
20.8522625591
 20
54.361000547
 30
0.0
 10
21.1001478272
 20
53.9874554503
 30
0.0
 10
21.4366522077
 20
53.6406283668
 30
0.0
 10
21.854226765
 20
53.3263966466
 30
0.0
 10
22.3443081999
 20
53.0504163754
 30
0.0
 10
22.8971049522
 20
52.8178964778
 30
0.0
 10
23.7169816852
 20
52.5677066278
 30
0.0
 10
24.8213760325
 20
52.3939556936
 30
0.0
 10
25.9520989097
 20
52.4032502512
 30
0.0
 10
26.8437313137
 20
52.5233170451
 30
0.0
 10
27.4805091411
 20
52.6669393112
 30
0.0
 10
28.0751964032
 20
52.8615982693
 30
0.0
 10
28.4474026938
 20
53.0279266761
 30
0.0
 10
28.6225302881
 20
53.1193950927
 30
0.0
  0
SPLINE
  5
261
100
AcDbEntity
  8
0
100
AcDbSpline
 62
7
  6
BYLAYER
 70
0
 71
3
 72
11
 73
7
 74
0
 42
0.0000001
 43
0.0000001
 44
0.0000000001
 40
0.0
 40
0.0
 40
0.0
 40
0.0
 40
0.2897031353
 40
0.5490914015
 40
0.7822201129
 40
1.0
 40
1.0
 40
1.0
 40
1.0
 10
26.9429359999
 20
54.801991064
 30
0.0
 10
27.0369730198
 20
54.8562830387
 30
0.0
 10
27.2075808551
 20
54.9737922088
 30
0.0
 10
27.4114848669
 20
55.1880790891
 30
0.0
 10
27.5404651823
 20
55.4251385847
 30
0.0
 10
27.5706229851
 20
55.595275352
 30
0.0
 10
27.5706291641
 20
55.6769020352
 30
0.0
  0
SPLINE
  5
262
100
AcDbEntity
  8
0
100
AcDbSpline
 62
7
  6
BYLAYER
 70
0
 71
3
 72
13
 73
9
 74
0
 42
0.0000001
 43
0.0000001
 44
0.0000000001
 40
0.0
 40
0.0
 40
0.0
 40
0.0
 40
0.268490631
 40
0.5272889203
 40
0.6513501167
 40
0.7712077002
 40
0.887159918
 40
1.0
 40
1.0
 40
1.0
 40
1.0
 10
61.200472202
 20
83.3483191936
 30
0.0
 10
60.75456788
 20
83.3483181218
 30
0.0
 10
59.8741828736
 20
83.2278608796
 30
0.0
 10
58.8711482244
 20
82.7780207159
 30
0.0
 10
58.2102507055
 20
82.2622172709
 30
0.0
 10
57.8063397753
 20
81.8173101599
 30
0.0
 10
57.5000705581
 20
81.3220547546
 30
0.0
 10
57.3658110691
 20
80.963355223
 30
0.0
 10
57.3185803767
 20
80.7820018411
 30
0.0
  0
SPLINE
  5
263
100
AcDbEntity
  8
0
100
AcDbSpline
 62
7
  6
BYLAYER
 70
0
 71
3
 72
18
 73
14
 74
0
 42
0.0000001
 43
0.0000001
 44
0.0000000001
 40
0.0
 40
0.0
 40
0.0
 40
0.0
 40
0.1286585538
 40
0.2702079607
 40
0.4173278027
 40
0.5616316029
 40
0.6952660325
 40
0.7562716512
 40
0.8127630549
 40
0.864711743
 40
0.9125345558
 40
0.9571501792
 40
1.0
 40
1.0
 40
1.0
 40
1.0
 10
26.9429359999
 20
54.2835120291
 30
0.0
 10
26.7842895032
 20
54.1919179783
 30
0.0
 10
26.4250934471
 20
54.0437113838
 30
0.0
 10
25.8396995837
 20
53.9266004975
 30
0.0
 10
25.2204285841
 20
53.9094835624
 30
0.0
 10
24.6183614989
 20
53.9940288597
 30
0.0
 10
24.1569621667
 20
54.1481399333
 30
0.0
 10
23.8420628601
 20
54.3193101056
 30
0.0
 10
23.6465867932
 20
54.4621575374
 30
0.0
 10
23.4888573235
 20
54.6205794736
 30
0.0
 10
23.3724294656
 20
54.7917485928
 30
0.0
 10
23.300751375
 20
54.9723518285
 30
0.0
 10
23.2843879876
 20
55.0974117746
 30
0.0
 10
23.2843963239
 20
55.1584229717
 30
0.0
  0
SPLINE
  5
264
100
AcDbEntity
  8
0
100
AcDbSpline
 62
7
  6
BYLAYER
 70
0
 71
3
 72
9
 73
5
 74
0
 42
0.0000001
 43
0.0000001
 44
0.0000000001
 40
0.0
 40
0.0
 40
0.0
 40
0.0
 40
0.2334151446
 40
1.0
 40
1.0
 40
1.0
 40
1.0
 10
29.6851290297
 20
49.9081448707
 30
0.0
 10
29.6261155854
 20
49.8401722721
 30
0.0
 10
29.3583611997
 20
49.5619241742
 30
0.0
 10
29.0393734409
 20
49.3360075976
 30
0.0
 10
28.7829085989
 20
49.1889578031
 30
0.0
  0
SPLINE
  5
265
100
AcDbEntity
  8
0
100
AcDbSpline
 62
7
  6
BYLAYER
 70
0
 71
3
 72
14
 73
10
 74
0
 42
0.0000001
 43
0.0000001
 44
0.0000000001
 40
0.0
 40
0.0
 40
0.0
 40
0.0
 40
0.2919960394
 40
0.4260727993
 40
0.5522855799
 40
0.6713870014
 40
0.7845566171
 40
0.8934119624
 40
1.0
 40
1.0
 40
1.0
 40
1.0
 10
28.6225302881
 20
53.1193950927
 30
0.0
 10
28.855456599
 20
53.2410515394
 30
0.0
 10
29.1827460214
 20
53.4469135605
 30
0.0
 10
29.5554292664
 20
53.7771102974
 30
0.0
 10
29.7825806884
 20
54.0333139749
 30
0.0
 10
29.962460625
 20
54.3024521623
 30
0.0
 10
30.093057861
 20
54.5817595474
 30
0.0
 10
30.1721986828
 20
54.8681767624
 30
0.0
 10
30.1900063704
 20
55.0624986289
 30
0.0
 10
30.1900048034
 20
55.1584229947
 30
0.0
  0
ENDSEC
  0
SECTION
  2
OBJECTS
  0
DICTIONARY
  5
C
100
AcDbDictionary
280
0
281
1
  3
ACAD_GROUP
350
D
  3
ACAD_MLINESTYLE
350
17
  3
ACAD_LAYOUT
350
1A
  3
ACAD_PLOTSETTINGS
350
19
  3
ACAD_PLOTSTYLENAME
350
E
  0
DICTIONARY
  5
D
102
{ACAD_REACTORS
330
C
102
}
100
AcDbDictionary
280
0
281
1
  0
ACDBDICTIONARYWDFLT
  5
E
102
{ACAD_REACTORS
330
C
102
}
100
AcDbDictionary
281
1
  3
Normal
350
F
100
AcDbDictionaryWithDefault
340
F
  0
DICTIONARY
  5
17
102
{ACAD_REACTORS
330
C
102
}
100
AcDbDictionary
280
0
281
1
  3
Standard
350
18
  0
DICTIONARY
  5
19
102
{ACAD_REACTORS
330
C
102
}
100
AcDbDictionary
281
1
  0
DICTIONARY
  5
1A
102
{ACAD_REACTORS
330
C
102
}
100
AcDbDictionary
281
1
  3
Model
350
266
  3
Layout1
350
267
  0
ACDBPLACEHOLDER
  5
F
102
{ACAD_REACTORS
330
E
102
}
  0
MLINESTYLE
  5
18
102
{ACAD_REACTORS
330
17
102
}
100
AcDbMlineStyle
  2
STANDARD
 70
0
  3

 62
256
 51
90.0
 52
90.0
 71
2
 49
0.5
 62
256
  6
BYLAYER
 49
-0.5
 62
256
  6
BYLAYER
  0
LAYOUT
  5
266
102
{ACAD_REACTORS
330
1A
102
}
100
AcDbPlotSettings
  1

  2
none_device
  4

  6

 40
0.0
 41
0.0
 42
0.0
 43
0.0
 44
210.0
 45
297.0
 46
0.0
 47
0.0
 48
0.0
 49
0.0
140
0.0
141
0.0
142
1.0
143
1.0
 70
1024
 72
1
 73
0
 74
0
  7

 75
0
147
1.0
148
0.0
149
0.0
100
AcDbLayout
  1
Model
 70
0
 71
0
 10
0.0
 20
0.0
 11
210.0
 21
297.0
 12
0.0
 22
0.0
 32
0.0
 14
0.0
 24
0.0
 34
0.0
 15
0.0
 25
0.0
 35
0.0
146
0.0
 13
0.0
 23
0.0
 33
0.0
 16
1.0
 26
0.0
 36
0.0
 17
0.0
 27
1.0
 37
0.0
 76
0
330
210
345
0
346
0
  0
LAYOUT
  5
267
102
{ACAD_REACTORS
330
1A
102
}
100
AcDbPlotSettings
  1

  2
none_device
  4

  6

 40
0.0
 41
0.0
 42
0.0
 43
0.0
 44
210.0
 45
297.0
 46
0.0
 47
0.0
 48
0.0
 49
0.0
140
0.0
141
0.0
142
1.0
143
1.0
 70
0
 72
1
 73
0
 74
0
  7

 75
0
147
1.0
148
0.0
149
0.0
100
AcDbLayout
  1
Layout1
 70
0
 71
1
 10
0.0
 20
0.0
 11
210.0
 21
297.0
 12
0.0
 22
0.0
 32
0.0
 14
0.0
 24
0.0
 34
0.0
 15
0.0
 25
0.0
 35
0.0
146
0.0
 13
0.0
 23
0.0
 33
0.0
 16
1.0
 26
0.0
 36
0.0
 17
0.0
 27
1.0
 37
0.0
 76
0
330
211
345
0
346
0
  0
ENDSEC
  0
EOF
