999
DXF file: C:\Users\sesa63760\Dev\_Creo\CAD\MCADID0002904_3D-CAD\drw0001_5.dxf
999
Pro/ENGINEER 2019471 by Parametric Technology Corporation
  0
SECTION
  2
HEADER
  9
$ACADVER
  1
AC1024
  9
$DWGCODEPAGE
  3
ANSI_1252
  9
$EXTMAX
 10
101.8944542158
 20
144.1078709623
 30
0.0
  9
$EXTMIN
 10
0.0
 20
0.0
 30
0.0
  9
$LIMMIN
 10
0.0
 20
0.0
  9
$LIMMAX
 10
101.8944542158
 20
144.1078709623
  9
$VIEWCTR
 10
50.9472271079
 20
72.0539354812
  9
$VIEWSIZE
 40
144.1078709623
  9
$CLAYER
  8
0
  9
$LTSCALE
 40
9.3936982553
  9
$CELTYPE
  6
BYLAYER
  9
$DIMSCALE
 40
1.0
  9
$DIMASZ
 40
1.2130292169
  9
$DIMEXO
 40
1.0
  9
$DIMDLI
 40
6.4901915219
  9
$DIMEXE
 40
1.0
  9
$DIMCEN
 40
1.5371506236
  9
$DIMLFAC
 40
1.0
  9
$DIMBLK
  1
_FILLED
  9
$DIMALT
 70
0
  9
$DIMALTF
 40
0.0393700787
  9
$DIMTXT
 40
1.6982409036
  9
$DIMTOL
 70
1
  9
$DIMLIM
 70
0
  9
$DIMTFAC
 40
1.0
  9
$DIMTP
 40
0.01
  9
$DIMTM
 40
0.01
  9
$DIMGAP
 40
0.625
  9
$DIMDSEP
 70
46
  9
$AUNITS
 70
0
  9
$PDMODE
 70
3
  9
$PDSIZE
 40
0.3125
  9
$HANDSEED
  5
242
  9
$TILEMODE
 70
1
  9
$MEASUREMENT
 70
1
  9
$INSUNITS
 70
4
  0
ENDSEC
  0
SECTION
  2
CLASSES
  0
CLASS
  1
ACDBDICTIONARYWDFLT
  2
AcDbDictionaryWithDefault
  3
AutoCAD 2000
 90
0
 91
1
280
0
281
0
  0
CLASS
  1
ACDBPLACEHOLDER
  2
AcDbPlaceHolder
  3
AutoCAD 2000
 90
0
 91
1
280
0
281
0
  0
CLASS
  1
LAYOUT
  2
AcDbLayout
  3
AutoCAD 2000
 90
0
 91
0
280
0
281
0
  0
ENDSEC
  0
SECTION
  2
TABLES
  0
TABLE
  2
VPORT
  5
8
100
AcDbSymbolTable
 70
2
  0
VPORT
  5
1F4
100
AcDbSymbolTableRecord
100
AcDbViewportTableRecord
  2
*ACTIVE
 70
0
 10
0.0
 20
0.0
 11
1.0
 21
1.0
 12
50.9472271079
 22
72.0539354812
 13
0.0
 23
0.0
 14
1.0
 24
1.0
 15
0.0
 25
0.0
 16
0.0
 26
0.0
 36
1.0
 17
0.0
 27
0.0
 37
0.0
 40
144.1078709623
 41
0.7070707071
 42
50.0
 43
0.0
 44
0.0
 50
0.0
 51
0.0
 71
0
 72
100
 73
1
 74
1
 75
0
 76
0
 77
0
 78
0
  0
ENDTAB
  0
TABLE
  2
LTYPE
  5
5
100
AcDbSymbolTable
 70
6
  0
LTYPE
  5
14
100
AcDbSymbolTableRecord
100
AcDbLinetypeTableRecord
  2
BYBLOCK
 70
0
  3

 72
65
 73
0
 40
0.0
  0
LTYPE
  5
15
100
AcDbSymbolTableRecord
100
AcDbLinetypeTableRecord
  2
BYLAYER
 70
0
  3

 72
65
 73
0
 40
0.0
  0
LTYPE
  5
16
100
AcDbSymbolTableRecord
100
AcDbLinetypeTableRecord
  2
CONTINUOUS
 70
64
  3
Solid line
 72
65
 73
0
 40
0.0
  0
LTYPE
  5
1F5
100
AcDbSymbolTableRecord
100
AcDbLinetypeTableRecord
  2
CENTER
 70
64
  3
____ _ ____ _ ____ _ ____ _ ____ _ ____ _ ____
 72
65
 73
4
 40
0.6
 49
0.375
 74
0
 49
-0.075
 74
0
 49
0.075
 74
0
 49
-0.075
 74
0
  0
LTYPE
  5
1F6
100
AcDbSymbolTableRecord
100
AcDbLinetypeTableRecord
  2
HIDDEN
 70
64
  3
- - - - - - - - - - - - - - - - - - - -
 72
65
 73
2
 40
0.2
 49
0.1
 74
0
 49
-0.1
 74
0
  0
LTYPE
  5
1F7
100
AcDbSymbolTableRecord
100
AcDbLinetypeTableRecord
  2
PHANTOM
 70
64
  3
_____ _ _ _____ _ _ _____ _ _ _____
 72
65
 73
6
 40
0.8
 49
0.45
 74
0
 49
-0.05
 74
0
 49
0.1
 74
0
 49
-0.05
 74
0
 49
0.1
 74
0
 49
-0.05
 74
0
  0
LTYPE
  5
1F8
100
AcDbSymbolTableRecord
100
AcDbLinetypeTableRecord
  2
DOT
 70
64
  3
. . . . . . . . . . . . . . . . . . . .
 72
65
 73
2
 40
0.2
 49
0.1
 74
0
 49
-0.1
 74
0
  0
LTYPE
  5
1F9
100
AcDbSymbolTableRecord
100
AcDbLinetypeTableRecord
  2
DASHED
 70
64
  3
- - - - - - - - - - - - - - - - - - - -
 72
65
 73
2
 40
0.2
 49
0.1
 74
0
 49
-0.1
 74
0
  0
ENDTAB
  0
TABLE
  2
LAYER
  5
2
100
AcDbSymbolTable
 70
36
  0
LAYER
  5
10
100
AcDbSymbolTableRecord
100
AcDbLayerTableRecord
  2
0
 70
0
 62
7
  6
CONTINUOUS
370
-3
390
F
  0
LAYER
  5
1FA
100
AcDbSymbolTableRecord
100
AcDbLayerTableRecord
  2
DEFAULT_1
 70
0
 62
7
  6
CENTER
370
-3
390
F
  0
LAYER
  5
1FB
100
AcDbSymbolTableRecord
100
AcDbLayerTableRecord
  2
DEFAULT_2
 70
0
 62
7
  6
HIDDEN
370
-3
390
F
  0
LAYER
  5
1FC
100
AcDbSymbolTableRecord
100
AcDbLayerTableRecord
  2
DEFAULT_3
 70
0
 62
7
  6
PHANTOM
370
-3
390
F
  0
LAYER
  5
1FD
100
AcDbSymbolTableRecord
100
AcDbLayerTableRecord
  2
00_COMPONENTS
 70
0
 62
7
  6
CONTINUOUS
370
-3
390
F
  0
LAYER
  5
1FE
100
AcDbSymbolTableRecord
100
AcDbLayerTableRecord
  2
01_1_DEFAULT_DATUMS
 70
0
 62
7
  6
CONTINUOUS
370
-3
390
F
  0
LAYER
  5
1FF
100
AcDbSymbolTableRecord
100
AcDbLayerTableRecord
  2
01_PLANES
 70
0
 62
7
  6
CONTINUOUS
370
-3
390
F
  0
LAYER
  5
200
100
AcDbSymbolTableRecord
100
AcDbLayerTableRecord
  2
02_COORD_SYS
 70
0
 62
7
  6
CONTINUOUS
370
-3
390
F
  0
LAYER
  5
201
100
AcDbSymbolTableRecord
100
AcDbLayerTableRecord
  2
03_AXES
 70
0
 62
7
  6
CONTINUOUS
370
-3
390
F
  0
LAYER
  5
202
100
AcDbSymbolTableRecord
100
AcDbLayerTableRecord
  2
04_POINTS
 70
0
 62
7
  6
CONTINUOUS
370
-3
390
F
  0
LAYER
  5
203
100
AcDbSymbolTableRecord
100
AcDbLayerTableRecord
  2
05_CURVES
 70
0
 62
7
  6
CONTINUOUS
370
-3
390
F
  0
LAYER
  5
204
100
AcDbSymbolTableRecord
100
AcDbLayerTableRecord
  2
06_SURFS
 70
0
 62
7
  6
CONTINUOUS
370
-3
390
F
  0
LAYER
  5
205
100
AcDbSymbolTableRecord
100
AcDbLayerTableRecord
  2
07_COSMETICS
 70
0
 62
7
  6
CONTINUOUS
370
-3
390
F
  0
LAYER
  5
206
100
AcDbSymbolTableRecord
100
AcDbLayerTableRecord
  2
10_NOTES
 70
0
 62
7
  6
CONTINUOUS
370
-3
390
F
  0
LAYER
  5
207
100
AcDbSymbolTableRecord
100
AcDbLayerTableRecord
  2
11_NOTES_PUB
 70
0
 62
7
  6
CONTINUOUS
370
-3
390
F
  0
LAYER
  5
208
100
AcDbSymbolTableRecord
100
AcDbLayerTableRecord
  2
13_REF_GTOL
 70
0
 62
7
  6
CONTINUOUS
370
-3
390
F
  0
LAYER
  5
209
100
AcDbSymbolTableRecord
100
AcDbLayerTableRecord
  2
16_MISC
 70
0
 62
7
  6
CONTINUOUS
370
-3
390
F
  0
LAYER
  5
20A
100
AcDbSymbolTableRecord
100
AcDbLayerTableRecord
  2
17_NO_PRINT
 70
0
 62
7
  6
CONTINUOUS
370
-3
390
F
  0
LAYER
  5
20B
100
AcDbSymbolTableRecord
100
AcDbLayerTableRecord
  2
18_DATUM_CAMS_JOINTS
 70
0
 62
7
  6
CONTINUOUS
370
-3
390
F
  0
LAYER
  5
20C
100
AcDbSymbolTableRecord
100
AcDbLayerTableRecord
  2
19_DATUM_FUNCTIONAL
 70
0
 62
7
  6
CONTINUOUS
370
-3
390
F
  0
LAYER
  5
20D
100
AcDbSymbolTableRecord
100
AcDbLayerTableRecord
  2
20_DATUM_KINEMATIC_SCHEME
 70
0
 62
7
  6
CONTINUOUS
370
-3
390
F
  0
ENDTAB
  0
TABLE
  2
STYLE
  5
3
100
AcDbSymbolTable
 70
1
  0
STYLE
  5
11
100
AcDbSymbolTableRecord
100
AcDbTextStyleTableRecord
  2
STANDARD
 70
0
 40
0.0
 41
1.0
 50
0.0
 71
0
 42
0.2
  3
ARIAL.TTF
  4

  0
STYLE
  5
20E
100
AcDbSymbolTableRecord
100
AcDbTextStyleTableRecord
  2
TEXTSTYLE_1
 70
0
 40
0.0
 41
0.8
 50
0.0
 71
0
 42
0.2
  3
gdt
  4

  0
ENDTAB
  0
TABLE
  2
VIEW
  5
6
100
AcDbSymbolTable
 70
0
  0
ENDTAB
  0
TABLE
  2
UCS
  5
7
100
AcDbSymbolTable
 70
0
  0
ENDTAB
  0
TABLE
  2
APPID
  5
9
100
AcDbSymbolTable
 70
1
  0
APPID
  5
20F
100
AcDbSymbolTableRecord
100
AcDbRegAppTableRecord
  2
ACAD
 70
0
  0
ENDTAB
  0
TABLE
  2
BLOCK_RECORD
  5
1
100
AcDbSymbolTable
 70
0
  0
BLOCK_RECORD
  5
210
100
AcDbSymbolTableRecord
100
AcDbBlockTableRecord
  2
*Model_Space
  0
BLOCK_RECORD
  5
211
100
AcDbSymbolTableRecord
100
AcDbBlockTableRecord
  2
*Paper_Space
  0
BLOCK_RECORD
  5
212
100
AcDbSymbolTableRecord
100
AcDbBlockTableRecord
  2
_FILLED
  0
ENDTAB
  0
TABLE
  2
DIMSTYLE
  5
A
100
AcDbSymbolTable
 70
1
100
AcDbDimStyleTable
 71
0
  0
DIMSTYLE
105
213
100
AcDbSymbolTableRecord
100
AcDbDimStyleTableRecord
  2
STANDARD
 70
0
  3

  4

 40
1.0
 41
1.2130292169
 42
1.0
 43
0.38
 44
1.0
 45
0.0
 46
0.0
 47
0.01
 48
0.01
140
1.6982409036
141
0.09
142
0.0
143
25.4
144
1.0
145
0.0
146
1.0
147
0.625
 71
1
 72
0
 73
0
 74
0
 75
0
 76
0
 77
1
 78
8
 79
2
170
0
171
1
172
0
173
0
174
0
175
0
176
0
177
0
178
0
270
2
179
2
271
2
272
2
273
2
274
2
275
0
280
0
281
0
282
0
283
1
284
8
285
0
286
0
287
3
288
0
340
11
278
46
341
212
342
212
343
212
344
212
  0
ENDTAB
  0
ENDSEC
  0
SECTION
  2
BLOCKS
  0
BLOCK
  5
20
100
AcDbEntity
  8
0
100
AcDbBlockBegin
  2
*Model_Space
 70
0
 10
0.0
 20
0.0
 30
0.0
  3
*Model_Space
  1

  0
ENDBLK
  5
21
100
AcDbEntity
  8
0
100
AcDbBlockEnd
  0
BLOCK
  5
1C
100
AcDbEntity
  8
0
100
AcDbBlockBegin
  2
*Paper_Space
 70
0
 10
0.0
 20
0.0
 30
0.0
  3
*Paper_Space
  1

  0
ENDBLK
  5
1D
100
AcDbEntity
  8
0
100
AcDbBlockEnd
  0
BLOCK
  5
214
100
AcDbEntity
  8
0
100
AcDbBlockBegin
  2
_FILLED
 70
64
 10
0.0
 20
0.0
  3
_FILLED
  1

  0
SOLID
  5
215
100
AcDbEntity
  8
0
  6
BYBLOCK
 62
0
100
AcDbTrace
 10
0.0
 20
0.0
 11
-1.0
 21
0.25
 12
-1.0
 22
-0.25
 13
-1.0
 23
-0.25
  0
ENDBLK
  5
216
100
AcDbEntity
  8
0
  6
BYBLOCK
 62
0
100
AcDbBlockEnd
  0
ENDSEC
  0
SECTION
  2
ENTITIES
  0
LINE
  5
217
100
AcDbEntity
  8
0
100
AcDbLine
 62
7
  6
BYLAYER
 10
11.8765540437
 20
71.8334471041
 11
11.8765540437
 21
79.7709471041
  0
LINE
  5
218
100
AcDbEntity
  8
0
100
AcDbLine
 62
7
  6
BYLAYER
 10
14.2013939681
 20
71.8334471041
 11
14.2013939681
 21
79.7709471041
  0
LINE
  5
219
100
AcDbEntity
  8
0
100
AcDbLine
 62
7
  6
BYLAYER
 10
26.5273821712
 20
71.8334471041
 11
26.5273821712
 21
71.9617457924
  0
LINE
  5
21A
100
AcDbEntity
  8
0
100
AcDbLine
 62
7
  6
BYLAYER
 10
26.5273821712
 20
79.6426484159
 11
26.5273821712
 21
79.7709471041
  0
LINE
  5
21B
100
AcDbEntity
  8
0
100
AcDbLine
 62
7
  6
BYLAYER
 10
34.1015540437
 20
73.8178221041
 11
32.1171790437
 21
71.8334471041
  0
LINE
  5
21C
100
AcDbEntity
  8
0
100
AcDbLine
 62
7
  6
BYLAYER
 10
32.1171790437
 20
79.7709471041
 11
34.1015540437
 21
77.7865721041
  0
LINE
  5
21D
100
AcDbEntity
  8
0
100
AcDbLine
 62
7
  6
BYLAYER
 10
88.076360642
 20
64.6896971041
 11
78.5517474455
 21
64.6896971041
  0
LINE
  5
21E
100
AcDbEntity
  8
0
100
AcDbLine
 62
7
  6
BYLAYER
 10
92.8390414336
 20
67.0709471041
 11
73.7890666539
 21
67.0709471041
  0
LINE
  5
21F
100
AcDbEntity
  8
0
100
AcDbLine
 62
7
  6
BYLAYER
 10
32.1171790437
 20
71.8334471041
 11
11.8765837799
 21
71.8334471041
  0
LINE
  5
220
100
AcDbEntity
  8
0
100
AcDbLine
 62
7
  6
BYLAYER
 10
32.5140540437
 20
72.2303221041
 11
59.3229602937
 21
72.2303221041
  0
LINE
  5
221
100
AcDbEntity
  8
0
100
AcDbLine
 62
7
  6
BYLAYER
 10
18.4108890248
 20
72.6271971041
 11
20.6559530551
 21
72.6271971041
  0
LINE
  5
222
100
AcDbEntity
  8
0
100
AcDbLine
 62
7
  6
BYLAYER
 10
73.7890666539
 20
73.4209471041
 11
92.8390414336
 21
73.4209471041
  0
LINE
  5
223
100
AcDbEntity
  8
0
100
AcDbLine
 62
7
  6
BYLAYER
 10
83.5521790437
 20
73.8178221041
 11
34.1015540437
 21
73.8178221041
  0
LINE
  5
224
100
AcDbEntity
  8
0
100
AcDbLine
 62
7
  6
BYLAYER
 10
59.3229602937
 20
72.2303221041
 11
60.9104602937
 21
73.8178221041
  0
LINE
  5
225
100
AcDbEntity
  8
0
100
AcDbLine
 62
7
  6
BYLAYER
 10
34.1015540437
 20
77.7865721041
 11
83.5521790437
 21
77.7865721041
  0
LINE
  5
226
100
AcDbEntity
  8
0
100
AcDbLine
 62
7
  6
BYLAYER
 10
78.5516780454
 20
78.3421971041
 11
88.0764300421
 21
78.3421971041
  0
LINE
  5
227
100
AcDbEntity
  8
0
100
AcDbLine
 62
7
  6
BYLAYER
 10
18.4108890248
 20
78.9771971041
 11
20.6559530551
 21
78.9771971041
  0
LINE
  5
228
100
AcDbEntity
  8
0
100
AcDbLine
 62
7
  6
BYLAYER
 10
81.1709413253
 20
78.9771971041
 11
85.4571667621
 21
78.9771971041
  0
LINE
  5
229
100
AcDbEntity
  8
0
100
AcDbLine
 62
7
  6
BYLAYER
 10
32.5140540437
 20
79.3740721041
 11
59.3229602937
 21
79.3740721041
  0
LINE
  5
22A
100
AcDbEntity
  8
0
100
AcDbLine
 62
7
  6
BYLAYER
 10
11.87658371
 20
79.7709471041
 11
32.1171790437
 21
79.7709471041
  0
LINE
  5
22B
100
AcDbEntity
  8
0
100
AcDbLine
 62
7
  6
BYLAYER
 10
60.9104602937
 20
77.7865721041
 11
59.3229602937
 21
79.3740721041
  0
LINE
  5
22C
100
AcDbEntity
  8
0
100
AcDbLine
 62
7
  6
BYLAYER
 10
73.7890540437
 20
73.4209471041
 11
73.7890540437
 21
67.0709471041
  0
LINE
  5
22D
100
AcDbEntity
  8
0
100
AcDbLine
 62
7
  6
BYLAYER
 10
78.5515540437
 20
67.0709471041
 11
78.5515540437
 21
64.6896971041
  0
LINE
  5
22E
100
AcDbEntity
  8
0
100
AcDbLine
 62
7
  6
BYLAYER
 10
78.5515540437
 20
73.4209471041
 11
78.5515540437
 21
73.8178221041
  0
LINE
  5
22F
100
AcDbEntity
  8
0
100
AcDbLine
 62
7
  6
BYLAYER
 10
78.5515540437
 20
77.7865721041
 11
78.5515540437
 21
78.3421971041
  0
LINE
  5
230
100
AcDbEntity
  8
0
100
AcDbLine
 62
7
  6
BYLAYER
 10
81.1709290437
 20
78.9771971041
 11
81.1709290437
 21
78.3421971041
  0
LINE
  5
231
100
AcDbEntity
  8
0
100
AcDbLine
 62
7
  6
BYLAYER
 10
83.5521790437
 20
77.7865721041
 11
83.5521790437
 21
73.8178221041
  0
LINE
  5
232
100
AcDbEntity
  8
0
100
AcDbLine
 62
7
  6
BYLAYER
 10
85.4571790437
 20
78.9771971041
 11
85.4571790437
 21
78.3421971041
  0
LINE
  5
233
100
AcDbEntity
  8
0
100
AcDbLine
 62
7
  6
BYLAYER
 10
88.0765540437
 20
67.0709471041
 11
88.0765540437
 21
64.6896971041
  0
LINE
  5
234
100
AcDbEntity
  8
0
100
AcDbLine
 62
7
  6
BYLAYER
 10
88.0765540437
 20
73.4209471041
 11
88.0765540437
 21
78.3421971041
  0
LINE
  5
235
100
AcDbEntity
  8
0
100
AcDbLine
 62
7
  6
BYLAYER
 10
92.8390540437
 20
73.4209471041
 11
92.8390540437
 21
67.0709471041
  0
SPLINE
  5
236
100
AcDbEntity
  8
0
100
AcDbSpline
 62
7
  6
BYLAYER
 70
0
 71
3
 72
14
 73
10
 74
0
 42
0.0000001
 43
0.0000001
 44
0.0000000001
 40
0.0
 40
0.0
 40
0.0
 40
0.0
 40
0.1033588726
 40
0.210471696
 40
0.3241959366
 40
0.4460165496
 40
0.5760443979
 40
0.7131881983
 40
1.0
 40
1.0
 40
1.0
 40
1.0
 10
18.4108890263
 20
78.9771552229
 30
0.0
 10
18.2634893376
 20
78.9771565364
 30
0.0
 10
17.9618082487
 20
78.9343854541
 30
0.0
 10
17.5337045507
 20
78.7472223665
 30
0.0
 10
17.1427736568
 20
78.4469690015
 30
0.0
 10
16.8030440343
 20
78.0471552479
 30
0.0
 10
16.5257607637
 20
77.5633537973
 30
0.0
 10
16.2481129529
 20
76.8211817021
 30
0.0
 10
16.1658249945
 20
76.2112183058
 30
0.0
 10
16.1658249945
 20
75.8021971041
 30
0.0
  0
SPLINE
  5
237
100
AcDbEntity
  8
0
100
AcDbSpline
 62
7
  6
BYLAYER
 70
0
 71
3
 72
14
 73
10
 74
0
 42
0.0000001
 43
0.0000001
 44
0.0000000001
 40
0.0
 40
0.0
 40
0.0
 40
0.0
 40
0.2868089353
 40
0.4239501304
 40
0.5539755203
 40
0.6757959495
 40
0.7895229188
 40
0.8966388252
 40
1.0
 40
1.0
 40
1.0
 40
1.0
 10
16.1658249945
 20
75.8021971041
 30
0.0
 10
16.1658249945
 20
75.3931798144
 30
0.0
 10
16.2481105841
 20
74.7832242248
 30
0.0
 10
16.5257498351
 20
74.0410606969
 30
0.0
 10
16.8030267758
 20
73.5572640377
 30
0.0
 10
17.1427520116
 20
73.1574466359
 30
0.0
 10
17.5336826204
 20
72.8571795181
 30
0.0
 10
17.9617968943
 20
72.6700072939
 30
0.0
 10
18.2634859881
 20
72.627240299
 30
0.0
 10
18.4108890234
 20
72.6272389854
 30
0.0
  0
SPLINE
  5
238
100
AcDbEntity
  8
0
100
AcDbSpline
 62
7
  6
BYLAYER
 70
0
 71
3
 72
23
 73
19
 74
0
 42
0.0000001
 43
0.0000001
 44
0.0000000001
 40
0.0
 40
0.0
 40
0.0
 40
0.0
 40
0.0516396093
 40
0.1051664135
 40
0.1619855776
 40
0.2228527319
 40
0.2878143272
 40
0.3563446163
 40
0.4274843851
 40
0.4999969942
 40
0.5725093767
 40
0.6436485933
 40
0.712178744
 40
0.7771411882
 40
0.8380101049
 40
0.8948309681
 40
0.948359686
 40
1.0
 40
1.0
 40
1.0
 40
1.0
 10
24.9215747126
 20
79.7709471041
 30
0.0
 10
25.1058156886
 20
79.7709471041
 30
0.0
 10
25.4829324051
 20
79.7174411083
 30
0.0
 10
26.0180937406
 20
79.4835047418
 30
0.0
 10
26.5067240886
 20
79.1081066756
 30
0.0
 10
26.9314011097
 20
78.608339659
 30
0.0
 10
27.2779960909
 20
78.0037625224
 30
0.0
 10
27.5347082863
 20
77.3171773897
 30
0.0
 10
27.692508312
 20
76.5741034301
 30
0.0
 10
27.7457559873
 20
75.8022309565
 30
0.0
 10
27.6925183053
 20
75.0303597987
 30
0.0
 10
27.5347291416
 20
74.2872869238
 30
0.0
 10
27.2780268558
 20
73.6006975765
 30
0.0
 10
26.9314369413
 20
72.9961071919
 30
0.0
 10
26.5067570251
 20
72.4963226155
 30
0.0
 10
26.0181186522
 20
72.1209028349
 30
0.0
 10
25.4829440086
 20
71.8869569113
 30
0.0
 10
25.1058182027
 20
71.8334471041
 30
0.0
 10
24.9215747126
 20
71.8334471041
 30
0.0
  0
SPLINE
  5
239
100
AcDbEntity
  8
0
100
AcDbSpline
 62
7
  6
BYLAYER
 70
0
 71
3
 72
14
 73
10
 74
0
 42
0.0000001
 43
0.0000001
 44
0.0000000001
 40
0.0
 40
0.0
 40
0.0
 40
0.0
 40
0.1033588726
 40
0.210471696
 40
0.3241959366
 40
0.4460165496
 40
0.5760443979
 40
0.7131881983
 40
1.0
 40
1.0
 40
1.0
 40
1.0
 10
18.4108890234
 20
72.6272389854
 30
0.0
 10
18.558288712
 20
72.6272376718
 30
0.0
 10
18.859969801
 20
72.6700087541
 30
0.0
 10
19.2880734989
 20
72.8571718417
 30
0.0
 10
19.6790043929
 20
73.1574252068
 30
0.0
 10
20.0187340153
 20
73.5572389603
 30
0.0
 10
20.2960172859
 20
74.041040411
 30
0.0
 10
20.5736650967
 20
74.7832125061
 30
0.0
 10
20.6559530551
 20
75.3931759025
 30
0.0
 10
20.6559530551
 20
75.8021971041
 30
0.0
  0
SPLINE
  5
23A
100
AcDbEntity
  8
0
100
AcDbSpline
 62
7
  6
BYLAYER
 70
0
 71
3
 72
14
 73
10
 74
0
 42
0.0000001
 43
0.0000001
 44
0.0000000001
 40
0.0
 40
0.0
 40
0.0
 40
0.0
 40
0.1033588726
 40
0.210471696
 40
0.3241959366
 40
0.4460165496
 40
0.5760443979
 40
0.7131881983
 40
1.0
 40
1.0
 40
1.0
 40
1.0
 10
20.6559530536
 20
78.9771552229
 30
0.0
 10
20.8033527423
 20
78.9771565364
 30
0.0
 10
21.1050338312
 20
78.9343854541
 30
0.0
 10
21.5331375292
 20
78.7472223665
 30
0.0
 10
21.9240684231
 20
78.4469690015
 30
0.0
 10
22.2637980456
 20
78.0471552479
 30
0.0
 10
22.5410813161
 20
77.5633537973
 30
0.0
 10
22.818729127
 20
76.8211817021
 30
0.0
 10
22.9010170853
 20
76.2112183058
 30
0.0
 10
22.9010170853
 20
75.8021971041
 30
0.0
  0
SPLINE
  5
23B
100
AcDbEntity
  8
0
100
AcDbSpline
 62
7
  6
BYLAYER
 70
0
 71
3
 72
14
 73
10
 74
0
 42
0.0000001
 43
0.0000001
 44
0.0000000001
 40
0.0
 40
0.0
 40
0.0
 40
0.0
 40
0.2868089353
 40
0.4239501304
 40
0.5539755203
 40
0.6757959495
 40
0.7895229188
 40
0.8966388252
 40
1.0
 40
1.0
 40
1.0
 40
1.0
 10
20.6559530551
 20
75.8021971041
 30
0.0
 10
20.6559530551
 20
76.2112143939
 30
0.0
 10
20.5736674655
 20
76.8211699835
 30
0.0
 10
20.2960282146
 20
77.5633335113
 30
0.0
 10
20.0187512738
 20
78.0471301705
 30
0.0
 10
19.679026038
 20
78.4469475723
 30
0.0
 10
19.2880954293
 20
78.7472146901
 30
0.0
 10
18.8599811554
 20
78.9343869144
 30
0.0
 10
18.5582920615
 20
78.9771539093
 30
0.0
 10
18.4108890263
 20
78.9771552229
 30
0.0
  0
SPLINE
  5
23C
100
AcDbEntity
  8
0
100
AcDbSpline
 62
7
  6
BYLAYER
 70
0
 71
3
 72
14
 73
10
 74
0
 42
0.0000001
 43
0.0000001
 44
0.0000000001
 40
0.0
 40
0.0
 40
0.0
 40
0.0
 40
0.2868089353
 40
0.4239501304
 40
0.5539755203
 40
0.6757959495
 40
0.7895229188
 40
0.8966388252
 40
1.0
 40
1.0
 40
1.0
 40
1.0
 10
22.9010170853
 20
75.8021971041
 30
0.0
 10
22.9010170853
 20
75.3931798144
 30
0.0
 10
22.8187314958
 20
74.7832242248
 30
0.0
 10
22.5410922448
 20
74.0410606969
 30
0.0
 10
22.2638153041
 20
73.5572640377
 30
0.0
 10
21.9240900683
 20
73.1574466359
 30
0.0
 10
21.5331594595
 20
72.8571795181
 30
0.0
 10
21.1050451856
 20
72.6700072939
 30
0.0
 10
20.8033560918
 20
72.627240299
 30
0.0
 10
20.6559530565
 20
72.6272389854
 30
0.0
  0
SPLINE
  5
23D
100
AcDbEntity
  8
0
100
AcDbSpline
 62
7
  6
BYLAYER
 70
0
 71
3
 72
19
 73
15
 74
0
 42
0.0000001
 43
0.0000001
 44
0.0000000001
 40
0.0
 40
0.0
 40
0.0
 40
0.0
 40
0.0524582094
 40
0.1077494965
 40
0.1663000081
 40
0.2282215708
 40
0.3605286403
 40
0.4999999808
 40
0.6394713249
 40
0.7717784033
 40
0.8336999721
 40
0.8922504893
 40
0.9475417859
 40
1.0
 40
1.0
 40
1.0
 40
1.0
 10
26.5273821712
 20
71.9617457924
 30
0.0
 10
26.6792421732
 20
72.0177203349
 30
0.0
 10
26.9789540296
 20
72.1681696816
 30
0.0
 10
27.3849139863
 20
72.4865706313
 30
0.0
 10
27.7473316813
 20
72.8934904223
 30
0.0
 10
28.1692373019
 20
73.5525566183
 30
0.0
 10
28.5301396562
 20
74.5307597099
 30
0.0
 10
28.6750760424
 20
75.8021969332
 30
0.0
 10
28.5301397284
 20
77.0736341939
 30
0.0
 10
28.1692374066
 20
78.0518373584
 30
0.0
 10
27.7473317971
 20
78.710903637
 30
0.0
 10
27.3849140784
 20
79.1178234973
 30
0.0
 10
26.9789540744
 20
79.4362244855
 30
0.0
 10
26.6792421867
 20
79.5866738684
 30
0.0
 10
26.5273821712
 20
79.6426484159
 30
0.0
  0
SPLINE
  5
23E
100
AcDbEntity
  8
0
100
AcDbSpline
 62
7
  6
BYLAYER
 70
0
 71
3
 72
23
 73
19
 74
0
 42
0.0000001
 43
0.0000001
 44
0.0000000001
 40
0.0
 40
0.0
 40
0.0
 40
0.0
 40
0.0516396093
 40
0.1051664135
 40
0.1619855776
 40
0.2228527319
 40
0.2878143272
 40
0.3563446163
 40
0.4274843851
 40
0.4999969942
 40
0.5725093767
 40
0.6436485933
 40
0.712178744
 40
0.7771411882
 40
0.8380101049
 40
0.8948309681
 40
0.948359686
 40
1.0
 40
1.0
 40
1.0
 40
1.0
 10
20.6559530551
 20
71.8334471041
 30
0.0
 10
20.8401940311
 20
71.8334471041
 30
0.0
 10
21.2173107476
 20
71.8869530999
 30
0.0
 10
21.7524720831
 20
72.1208894665
 30
0.0
 10
22.2411024311
 20
72.4962875326
 30
0.0
 10
22.6657794522
 20
72.9960545492
 30
0.0
 10
23.0123744334
 20
73.6006316858
 30
0.0
 10
23.2690866288
 20
74.2872168186
 30
0.0
 10
23.4268866545
 20
75.0302907782
 30
0.0
 10
23.4801343298
 20
75.8021632518
 30
0.0
 10
23.4268966478
 20
76.5740344095
 30
0.0
 10
23.2691074841
 20
77.3171072844
 30
0.0
 10
23.0124051983
 20
78.0036966318
 30
0.0
 10
22.6658152838
 20
78.6082870164
 30
0.0
 10
22.2411353675
 20
79.1080715928
 30
0.0
 10
21.7524969947
 20
79.4834913734
 30
0.0
 10
21.2173223511
 20
79.7174372969
 30
0.0
 10
20.8401965452
 20
79.7709471041
 30
0.0
 10
20.6559530551
 20
79.7709471041
 30
0.0
  0
ELLIPSE
  5
23F
100
AcDbEntity
  8
0
100
AcDbEllipse
 62
7
  6
BYLAYER
 10
25.0372169045
 20
75.8021971041
 30
0.0
 11
5.9084526819
 21
-0.0
 31
0.0
 40
0.6717071649
 41
-1.3158338952
 42
1.3158338952
  0
ENDSEC
  0
SECTION
  2
OBJECTS
  0
DICTIONARY
  5
C
100
AcDbDictionary
280
0
281
1
  3
ACAD_GROUP
350
D
  3
ACAD_MLINESTYLE
350
17
  3
ACAD_LAYOUT
350
1A
  3
ACAD_PLOTSETTINGS
350
19
  3
ACAD_PLOTSTYLENAME
350
E
  0
DICTIONARY
  5
D
102
{ACAD_REACTORS
330
C
102
}
100
AcDbDictionary
280
0
281
1
  0
ACDBDICTIONARYWDFLT
  5
E
102
{ACAD_REACTORS
330
C
102
}
100
AcDbDictionary
281
1
  3
Normal
350
F
100
AcDbDictionaryWithDefault
340
F
  0
DICTIONARY
  5
17
102
{ACAD_REACTORS
330
C
102
}
100
AcDbDictionary
280
0
281
1
  3
Standard
350
18
  0
DICTIONARY
  5
19
102
{ACAD_REACTORS
330
C
102
}
100
AcDbDictionary
281
1
  0
DICTIONARY
  5
1A
102
{ACAD_REACTORS
330
C
102
}
100
AcDbDictionary
281
1
  3
Model
350
240
  3
Layout1
350
241
  0
ACDBPLACEHOLDER
  5
F
102
{ACAD_REACTORS
330
E
102
}
  0
MLINESTYLE
  5
18
102
{ACAD_REACTORS
330
17
102
}
100
AcDbMlineStyle
  2
STANDARD
 70
0
  3

 62
256
 51
90.0
 52
90.0
 71
2
 49
0.5
 62
256
  6
BYLAYER
 49
-0.5
 62
256
  6
BYLAYER
  0
LAYOUT
  5
240
102
{ACAD_REACTORS
330
1A
102
}
100
AcDbPlotSettings
  1

  2
none_device
  4

  6

 40
0.0
 41
0.0
 42
0.0
 43
0.0
 44
210.0
 45
297.0
 46
0.0
 47
0.0
 48
0.0
 49
0.0
140
0.0
141
0.0
142
1.0
143
1.0
 70
1024
 72
1
 73
0
 74
0
  7

 75
0
147
1.0
148
0.0
149
0.0
100
AcDbLayout
  1
Model
 70
0
 71
0
 10
0.0
 20
0.0
 11
210.0
 21
297.0
 12
0.0
 22
0.0
 32
0.0
 14
0.0
 24
0.0
 34
0.0
 15
0.0
 25
0.0
 35
0.0
146
0.0
 13
0.0
 23
0.0
 33
0.0
 16
1.0
 26
0.0
 36
0.0
 17
0.0
 27
1.0
 37
0.0
 76
0
330
210
345
0
346
0
  0
LAYOUT
  5
241
102
{ACAD_REACTORS
330
1A
102
}
100
AcDbPlotSettings
  1

  2
none_device
  4

  6

 40
0.0
 41
0.0
 42
0.0
 43
0.0
 44
210.0
 45
297.0
 46
0.0
 47
0.0
 48
0.0
 49
0.0
140
0.0
141
0.0
142
1.0
143
1.0
 70
0
 72
1
 73
0
 74
0
  7

 75
0
147
1.0
148
0.0
149
0.0
100
AcDbLayout
  1
Layout1
 70
0
 71
1
 10
0.0
 20
0.0
 11
210.0
 21
297.0
 12
0.0
 22
0.0
 32
0.0
 14
0.0
 24
0.0
 34
0.0
 15
0.0
 25
0.0
 35
0.0
146
0.0
 13
0.0
 23
0.0
 33
0.0
 16
1.0
 26
0.0
 36
0.0
 17
0.0
 27
1.0
 37
0.0
 76
0
330
211
345
0
346
0
  0
ENDSEC
  0
EOF
