999
DXF file: C:\Users\sesa63760\Dev\_Creo\CAD\MCADID0002891_3D-CAD\drw0001_1.dxf
999
Pro/ENGINEER 2019471 by Parametric Technology Corporation
  0
SECTION
  2
HEADER
  9
$ACADVER
  1
AC1024
  9
$DWGCODEPAGE
  3
ANSI_1252
  9
$EXTMAX
 10
201.1831330582
 20
284.5304310395
 30
0.0
  9
$EXTMIN
 10
0.0
 20
0.0
 30
0.0
  9
$LIMMIN
 10
0.0
 20
0.0
  9
$LIMMAX
 10
201.1831330582
 20
284.5304310395
  9
$VIEWCTR
 10
100.5915665291
 20
142.2652155197
  9
$VIEWSIZE
 40
284.5304310395
  9
$CLAYER
  8
0
  9
$LTSCALE
 40
18.5471688381
  9
$CELTYPE
  6
BYLAYER
  9
$DIMSCALE
 40
1.0
  9
$DIMASZ
 40
2.3950372983
  9
$DIMEXO
 40
1.0
  9
$DIMDLI
 40
12.8144075609
  9
$DIMEXE
 40
1.0
  9
$DIMCEN
 40
3.0349912644
  9
$DIMLFAC
 40
1.0
  9
$DIMBLK
  1
_FILLED
  9
$DIMALT
 70
0
  9
$DIMALTF
 40
0.0393700787
  9
$DIMTXT
 40
3.3530522176
  9
$DIMTOL
 70
1
  9
$DIMLIM
 70
0
  9
$DIMTFAC
 40
1.0
  9
$DIMTP
 40
0.01
  9
$DIMTM
 40
0.01
  9
$DIMGAP
 40
0.625
  9
$DIMDSEP
 70
46
  9
$AUNITS
 70
0
  9
$PDMODE
 70
3
  9
$PDSIZE
 40
0.3125
  9
$HANDSEED
  5
31E
  9
$TILEMODE
 70
1
  9
$MEASUREMENT
 70
1
  9
$INSUNITS
 70
4
  0
ENDSEC
  0
SECTION
  2
CLASSES
  0
CLASS
  1
ACDBDICTIONARYWDFLT
  2
AcDbDictionaryWithDefault
  3
AutoCAD 2000
 90
0
 91
1
280
0
281
0
  0
CLASS
  1
ACDBPLACEHOLDER
  2
AcDbPlaceHolder
  3
AutoCAD 2000
 90
0
 91
1
280
0
281
0
  0
CLASS
  1
LAYOUT
  2
AcDbLayout
  3
AutoCAD 2000
 90
0
 91
0
280
0
281
0
  0
ENDSEC
  0
SECTION
  2
TABLES
  0
TABLE
  2
VPORT
  5
8
100
AcDbSymbolTable
 70
2
  0
VPORT
  5
1F4
100
AcDbSymbolTableRecord
100
AcDbViewportTableRecord
  2
*ACTIVE
 70
0
 10
0.0
 20
0.0
 11
1.0
 21
1.0
 12
100.5915665291
 22
142.2652155197
 13
0.0
 23
0.0
 14
1.0
 24
1.0
 15
0.0
 25
0.0
 16
0.0
 26
0.0
 36
1.0
 17
0.0
 27
0.0
 37
0.0
 40
284.5304310395
 41
0.7070707071
 42
50.0
 43
0.0
 44
0.0
 50
0.0
 51
0.0
 71
0
 72
100
 73
1
 74
1
 75
0
 76
0
 77
0
 78
0
  0
ENDTAB
  0
TABLE
  2
LTYPE
  5
5
100
AcDbSymbolTable
 70
6
  0
LTYPE
  5
14
100
AcDbSymbolTableRecord
100
AcDbLinetypeTableRecord
  2
BYBLOCK
 70
0
  3

 72
65
 73
0
 40
0.0
  0
LTYPE
  5
15
100
AcDbSymbolTableRecord
100
AcDbLinetypeTableRecord
  2
BYLAYER
 70
0
  3

 72
65
 73
0
 40
0.0
  0
LTYPE
  5
16
100
AcDbSymbolTableRecord
100
AcDbLinetypeTableRecord
  2
CONTINUOUS
 70
64
  3
Solid line
 72
65
 73
0
 40
0.0
  0
LTYPE
  5
1F5
100
AcDbSymbolTableRecord
100
AcDbLinetypeTableRecord
  2
CENTER
 70
64
  3
____ _ ____ _ ____ _ ____ _ ____ _ ____ _ ____
 72
65
 73
4
 40
0.6
 49
0.375
 74
0
 49
-0.075
 74
0
 49
0.075
 74
0
 49
-0.075
 74
0
  0
LTYPE
  5
1F6
100
AcDbSymbolTableRecord
100
AcDbLinetypeTableRecord
  2
HIDDEN
 70
64
  3
- - - - - - - - - - - - - - - - - - - -
 72
65
 73
2
 40
0.2
 49
0.1
 74
0
 49
-0.1
 74
0
  0
LTYPE
  5
1F7
100
AcDbSymbolTableRecord
100
AcDbLinetypeTableRecord
  2
PHANTOM
 70
64
  3
_____ _ _ _____ _ _ _____ _ _ _____
 72
65
 73
6
 40
0.8
 49
0.45
 74
0
 49
-0.05
 74
0
 49
0.1
 74
0
 49
-0.05
 74
0
 49
0.1
 74
0
 49
-0.05
 74
0
  0
LTYPE
  5
1F8
100
AcDbSymbolTableRecord
100
AcDbLinetypeTableRecord
  2
DOT
 70
64
  3
. . . . . . . . . . . . . . . . . . . .
 72
65
 73
2
 40
0.2
 49
0.1
 74
0
 49
-0.1
 74
0
  0
LTYPE
  5
1F9
100
AcDbSymbolTableRecord
100
AcDbLinetypeTableRecord
  2
DASHED
 70
64
  3
- - - - - - - - - - - - - - - - - - - -
 72
65
 73
2
 40
0.2
 49
0.1
 74
0
 49
-0.1
 74
0
  0
ENDTAB
  0
TABLE
  2
LAYER
  5
2
100
AcDbSymbolTable
 70
36
  0
LAYER
  5
10
100
AcDbSymbolTableRecord
100
AcDbLayerTableRecord
  2
0
 70
0
 62
7
  6
CONTINUOUS
370
-3
390
F
  0
LAYER
  5
1FA
100
AcDbSymbolTableRecord
100
AcDbLayerTableRecord
  2
DEFAULT_1
 70
0
 62
7
  6
CENTER
370
-3
390
F
  0
LAYER
  5
1FB
100
AcDbSymbolTableRecord
100
AcDbLayerTableRecord
  2
DEFAULT_2
 70
0
 62
7
  6
HIDDEN
370
-3
390
F
  0
LAYER
  5
1FC
100
AcDbSymbolTableRecord
100
AcDbLayerTableRecord
  2
DEFAULT_3
 70
0
 62
7
  6
PHANTOM
370
-3
390
F
  0
LAYER
  5
1FD
100
AcDbSymbolTableRecord
100
AcDbLayerTableRecord
  2
00_COMPONENTS
 70
0
 62
7
  6
CONTINUOUS
370
-3
390
F
  0
LAYER
  5
1FE
100
AcDbSymbolTableRecord
100
AcDbLayerTableRecord
  2
01_1_DEFAULT_DATUMS
 70
0
 62
7
  6
CONTINUOUS
370
-3
390
F
  0
LAYER
  5
1FF
100
AcDbSymbolTableRecord
100
AcDbLayerTableRecord
  2
01_PLANES
 70
0
 62
7
  6
CONTINUOUS
370
-3
390
F
  0
LAYER
  5
200
100
AcDbSymbolTableRecord
100
AcDbLayerTableRecord
  2
02_COORD_SYS
 70
0
 62
7
  6
CONTINUOUS
370
-3
390
F
  0
LAYER
  5
201
100
AcDbSymbolTableRecord
100
AcDbLayerTableRecord
  2
03_AXES
 70
0
 62
7
  6
CONTINUOUS
370
-3
390
F
  0
LAYER
  5
202
100
AcDbSymbolTableRecord
100
AcDbLayerTableRecord
  2
04_POINTS
 70
0
 62
7
  6
CONTINUOUS
370
-3
390
F
  0
LAYER
  5
203
100
AcDbSymbolTableRecord
100
AcDbLayerTableRecord
  2
05_CURVES
 70
0
 62
7
  6
CONTINUOUS
370
-3
390
F
  0
LAYER
  5
204
100
AcDbSymbolTableRecord
100
AcDbLayerTableRecord
  2
06_SURFS
 70
0
 62
7
  6
CONTINUOUS
370
-3
390
F
  0
LAYER
  5
205
100
AcDbSymbolTableRecord
100
AcDbLayerTableRecord
  2
07_COSMETICS
 70
0
 62
7
  6
CONTINUOUS
370
-3
390
F
  0
LAYER
  5
206
100
AcDbSymbolTableRecord
100
AcDbLayerTableRecord
  2
10_NOTES
 70
0
 62
7
  6
CONTINUOUS
370
-3
390
F
  0
LAYER
  5
207
100
AcDbSymbolTableRecord
100
AcDbLayerTableRecord
  2
11_NOTES_PUB
 70
0
 62
7
  6
CONTINUOUS
370
-3
390
F
  0
LAYER
  5
208
100
AcDbSymbolTableRecord
100
AcDbLayerTableRecord
  2
13_REF_GTOL
 70
0
 62
7
  6
CONTINUOUS
370
-3
390
F
  0
LAYER
  5
209
100
AcDbSymbolTableRecord
100
AcDbLayerTableRecord
  2
16_MISC
 70
0
 62
7
  6
CONTINUOUS
370
-3
390
F
  0
LAYER
  5
20A
100
AcDbSymbolTableRecord
100
AcDbLayerTableRecord
  2
17_NO_PRINT
 70
0
 62
7
  6
CONTINUOUS
370
-3
390
F
  0
LAYER
  5
20B
100
AcDbSymbolTableRecord
100
AcDbLayerTableRecord
  2
18_DATUM_CAMS_JOINTS
 70
0
 62
7
  6
CONTINUOUS
370
-3
390
F
  0
LAYER
  5
20C
100
AcDbSymbolTableRecord
100
AcDbLayerTableRecord
  2
19_DATUM_FUNCTIONAL
 70
0
 62
7
  6
CONTINUOUS
370
-3
390
F
  0
LAYER
  5
20D
100
AcDbSymbolTableRecord
100
AcDbLayerTableRecord
  2
20_DATUM_KINEMATIC_SCHEME
 70
0
 62
7
  6
CONTINUOUS
370
-3
390
F
  0
ENDTAB
  0
TABLE
  2
STYLE
  5
3
100
AcDbSymbolTable
 70
1
  0
STYLE
  5
11
100
AcDbSymbolTableRecord
100
AcDbTextStyleTableRecord
  2
STANDARD
 70
0
 40
0.0
 41
1.0
 50
0.0
 71
0
 42
0.2
  3
ARIAL.TTF
  4

  0
STYLE
  5
20E
100
AcDbSymbolTableRecord
100
AcDbTextStyleTableRecord
  2
TEXTSTYLE_1
 70
0
 40
0.0
 41
0.8
 50
0.0
 71
0
 42
0.2
  3
gdt
  4

  0
ENDTAB
  0
TABLE
  2
VIEW
  5
6
100
AcDbSymbolTable
 70
0
  0
ENDTAB
  0
TABLE
  2
UCS
  5
7
100
AcDbSymbolTable
 70
0
  0
ENDTAB
  0
TABLE
  2
APPID
  5
9
100
AcDbSymbolTable
 70
1
  0
APPID
  5
20F
100
AcDbSymbolTableRecord
100
AcDbRegAppTableRecord
  2
ACAD
 70
0
  0
ENDTAB
  0
TABLE
  2
BLOCK_RECORD
  5
1
100
AcDbSymbolTable
 70
0
  0
BLOCK_RECORD
  5
210
100
AcDbSymbolTableRecord
100
AcDbBlockTableRecord
  2
*Model_Space
  0
BLOCK_RECORD
  5
211
100
AcDbSymbolTableRecord
100
AcDbBlockTableRecord
  2
*Paper_Space
  0
BLOCK_RECORD
  5
212
100
AcDbSymbolTableRecord
100
AcDbBlockTableRecord
  2
_FILLED
  0
ENDTAB
  0
TABLE
  2
DIMSTYLE
  5
A
100
AcDbSymbolTable
 70
1
100
AcDbDimStyleTable
 71
0
  0
DIMSTYLE
105
213
100
AcDbSymbolTableRecord
100
AcDbDimStyleTableRecord
  2
STANDARD
 70
0
  3

  4

 40
1.0
 41
2.3950372983
 42
1.0
 43
0.38
 44
1.0
 45
0.0
 46
0.0
 47
0.01
 48
0.01
140
3.3530522176
141
0.09
142
0.0
143
25.4
144
1.0
145
0.0
146
1.0
147
0.625
 71
1
 72
0
 73
0
 74
0
 75
0
 76
0
 77
1
 78
8
 79
2
170
0
171
1
172
0
173
0
174
0
175
0
176
0
177
0
178
0
270
2
179
2
271
2
272
2
273
2
274
2
275
0
280
0
281
0
282
0
283
1
284
8
285
0
286
0
287
3
288
0
340
11
278
46
341
212
342
212
343
212
344
212
  0
ENDTAB
  0
ENDSEC
  0
SECTION
  2
BLOCKS
  0
BLOCK
  5
20
100
AcDbEntity
  8
0
100
AcDbBlockBegin
  2
*Model_Space
 70
0
 10
0.0
 20
0.0
 30
0.0
  3
*Model_Space
  1

  0
ENDBLK
  5
21
100
AcDbEntity
  8
0
100
AcDbBlockEnd
  0
BLOCK
  5
1C
100
AcDbEntity
  8
0
100
AcDbBlockBegin
  2
*Paper_Space
 70
0
 10
0.0
 20
0.0
 30
0.0
  3
*Paper_Space
  1

  0
ENDBLK
  5
1D
100
AcDbEntity
  8
0
100
AcDbBlockEnd
  0
BLOCK
  5
214
100
AcDbEntity
  8
0
100
AcDbBlockBegin
  2
_FILLED
 70
64
 10
0.0
 20
0.0
  3
_FILLED
  1

  0
SOLID
  5
215
100
AcDbEntity
  8
0
  6
BYBLOCK
 62
0
100
AcDbTrace
 10
0.0
 20
0.0
 11
-1.0
 21
0.25
 12
-1.0
 22
-0.25
 13
-1.0
 23
-0.25
  0
ENDBLK
  5
216
100
AcDbEntity
  8
0
  6
BYBLOCK
 62
0
100
AcDbBlockEnd
  0
ENDSEC
  0
SECTION
  2
ENTITIES
  0
LINE
  5
217
100
AcDbEntity
  8
0
100
AcDbLine
 62
7
  6
BYLAYER
 10
36.0087160166
 20
97.4479317251
 11
36.4443358421
 21
97.1964321913
  0
LINE
  5
218
100
AcDbEntity
  8
0
100
AcDbLine
 62
7
  6
BYLAYER
 10
39.7707506744
 20
95.2759691391
 11
57.0988086615
 21
85.2718365194
  0
LINE
  5
219
100
AcDbEntity
  8
0
100
AcDbLine
 62
7
  6
BYLAYER
 10
60.4270488639
 20
83.3503196132
 11
62.9495965447
 21
81.8939589779
  0
LINE
  5
21A
100
AcDbEntity
  8
0
100
AcDbLine
 62
7
  6
BYLAYER
 10
36.027595842
 20
97.458832447
 11
36.4254613466
 21
97.2291298874
  0
LINE
  5
21B
100
AcDbEntity
  8
0
100
AcDbLine
 62
7
  6
BYLAYER
 10
60.451624006
 20
83.3579322168
 11
62.9168958849
 21
81.9346390331
  0
LINE
  5
21C
100
AcDbEntity
  8
0
100
AcDbLine
 62
7
  6
BYLAYER
 10
36.0087160166
 20
128.5566738178
 11
36.0087160166
 21
125.6439870834
  0
LINE
  5
21D
100
AcDbEntity
  8
0
100
AcDbLine
 62
7
  6
BYLAYER
 10
36.0087160166
 20
121.806367611
 11
36.0087160166
 21
101.7946776218
  0
LINE
  5
21E
100
AcDbEntity
  8
0
100
AcDbLine
 62
7
  6
BYLAYER
 10
36.0087160166
 20
97.951088902
 11
36.0087160166
 21
97.4479317251
  0
LINE
  5
21F
100
AcDbEntity
  8
0
100
AcDbLine
 62
7
  6
BYLAYER
 10
36.027595842
 20
128.5080143478
 11
36.027595842
 21
125.6614551921
  0
LINE
  5
220
100
AcDbEntity
  8
0
100
AcDbLine
 62
7
  6
BYLAYER
 10
36.027595842
 20
97.9183819723
 11
36.027595842
 21
97.458832447
  0
LINE
  5
221
100
AcDbEntity
  8
0
100
AcDbLine
 62
7
  6
BYLAYER
 10
56.1176750247
 20
90.3929601178
 11
39.9531467078
 21
99.7253437662
  0
LINE
  5
222
100
AcDbEntity
  8
0
100
AcDbLine
 62
7
  6
BYLAYER
 10
62.9495965447
 20
81.8939589779
 11
62.9168958849
 21
81.9346390331
  0
LINE
  5
223
100
AcDbEntity
  8
0
100
AcDbLine
 62
7
  6
BYLAYER
 10
56.1462851374
 20
90.3573687575
 11
56.1176750247
 21
90.3929601178
  0
LINE
  5
224
100
AcDbEntity
  8
0
100
AcDbLine
 62
7
  6
BYLAYER
 10
39.9531467078
 20
118.3905890218
 11
39.9366285721
 21
118.4331616466
  0
LINE
  5
225
100
AcDbEntity
  8
0
100
AcDbLine
 62
7
  6
BYLAYER
 10
36.027595842
 20
128.5080143478
 11
36.0087160166
 21
128.5566738178
  0
LINE
  5
226
100
AcDbEntity
  8
0
100
AcDbLine
 62
7
  6
BYLAYER
 10
39.9531467078
 20
99.7253437662
 11
39.9531467078
 21
118.3905890218
  0
LINE
  5
227
100
AcDbEntity
  8
0
100
AcDbLine
 62
7
  6
BYLAYER
 10
36.0087160166
 20
109.0322400435
 11
31.8615769533
 21
111.4265377318
  0
LINE
  5
228
100
AcDbEntity
  8
0
100
AcDbLine
 62
7
  6
BYLAYER
 10
64.9090570678
 20
92.3469978285
 11
71.0156566542
 21
88.8214306725
  0
LINE
  5
229
100
AcDbEntity
  8
0
100
AcDbLine
 62
7
  6
BYLAYER
 10
49.6261230494
 20
136.3771625398
 11
49.6261230494
 21
155.0984226176
  0
LINE
  5
22A
100
AcDbEntity
  8
0
100
AcDbLine
 62
7
  6
BYLAYER
 10
30.1562006534
 20
119.4501295956
 11
24.3127788968
 21
122.8237543981
  0
LINE
  5
22B
100
AcDbEntity
  8
0
100
AcDbLine
 62
7
  6
BYLAYER
 10
76.0392695107
 20
92.9601267235
 11
80.3498103952
 21
90.4714910839
  0
LINE
  5
22C
100
AcDbEntity
  8
0
100
AcDbLine
 62
7
  6
BYLAYER
 10
83.7632782231
 20
91.6448905317
 11
95.6307585883
 21
84.7933525507
  0
LINE
  5
22D
100
AcDbEntity
  8
0
100
AcDbLine
 62
7
  6
BYLAYER
 10
50.3700792993
 20
136.8066833171
 11
50.3700792993
 21
154.0614824668
  0
LINE
  5
22E
100
AcDbEntity
  8
0
100
AcDbLine
 62
7
  6
BYLAYER
 10
56.1176750247
 20
109.0582053734
 11
56.1176750247
 21
90.3929601178
  0
LINE
  5
22F
100
AcDbEntity
  8
0
100
AcDbLine
 62
7
  6
BYLAYER
 10
39.9531467078
 20
118.3905890218
 11
56.1176750247
 21
109.0582053734
  0
LINE
  5
230
100
AcDbEntity
  8
0
100
AcDbLine
 62
7
  6
BYLAYER
 10
34.8801545689
 20
127.5746295169
 11
29.0116991687
 21
130.9627071734
  0
LINE
  5
231
100
AcDbEntity
  8
0
100
AcDbLine
 62
7
  6
BYLAYER
 10
80.7381897827
 20
101.0990794987
 11
85.0487306672
 21
98.6104438592
  0
LINE
  5
232
100
AcDbEntity
  8
0
100
AcDbLine
 62
7
  6
BYLAYER
 10
86.45289862
 20
97.972953929
 11
95.6307585729
 21
92.6742338877
  0
LINE
  5
233
100
AcDbEntity
  8
0
100
AcDbLine
 62
7
  6
BYLAYER
 10
86.45289862
 20
97.9936930904
 11
95.6487190258
 21
92.6846032824
  0
LINE
  5
234
100
AcDbEntity
  8
0
100
AcDbLine
 62
7
  6
BYLAYER
 10
62.9168958849
 20
81.9346390331
 11
62.9168958849
 21
85.998192915
  0
LINE
  5
235
100
AcDbEntity
  8
0
100
AcDbLine
 62
7
  6
BYLAYER
 10
62.9168958849
 20
108.920267052
 11
62.9168958849
 21
112.9838209339
  0
LINE
  5
236
100
AcDbEntity
  8
0
100
AcDbLine
 62
7
  6
BYLAYER
 10
62.9495965447
 20
81.8939589779
 11
62.9495965447
 21
92.2587572197
  0
LINE
  5
237
100
AcDbEntity
  8
0
100
AcDbLine
 62
7
  6
BYLAYER
 10
62.9495965447
 20
102.6379028287
 11
62.9495965447
 21
113.0027010705
  0
LINE
  5
238
100
AcDbEntity
  8
0
100
AcDbLine
 62
7
  6
BYLAYER
 10
74.636570149
 20
111.4544735922
 11
75.7038697053
 21
111.0445847611
  0
LINE
  5
239
100
AcDbEntity
  8
0
100
AcDbLine
 62
7
  6
BYLAYER
 10
62.9168958849
 20
112.9838209339
 11
59.3977654962
 21
115.0155458474
  0
LINE
  5
23A
100
AcDbEntity
  8
0
100
AcDbLine
 62
7
  6
BYLAYER
 10
39.5467262307
 20
126.4762894344
 11
36.027595842
 21
128.5080143478
  0
LINE
  5
23B
100
AcDbEntity
  8
0
100
AcDbLine
 62
7
  6
BYLAYER
 10
62.9495965447
 20
113.0027010705
 11
36.0087160166
 21
128.5566738178
  0
LINE
  5
23C
100
AcDbEntity
  8
0
100
AcDbLine
 62
7
  6
BYLAYER
 10
75.7038739087
 20
111.044592042
 11
81.8104734951
 21
107.519024886
  0
LINE
  5
23D
100
AcDbEntity
  8
0
100
AcDbLine
 62
7
  6
BYLAYER
 10
131.3716372986
 20
202.9013549289
 11
111.0763429764
 21
191.1839312323
  0
LINE
  5
23E
100
AcDbEntity
  8
0
100
AcDbLine
 62
7
  6
BYLAYER
 10
64.3792055668
 20
164.2234873106
 11
50.3700643576
 21
156.135354142
  0
LINE
  5
23F
100
AcDbEntity
  8
0
100
AcDbLine
 62
7
  6
BYLAYER
 10
67.9713229706
 20
162.1496242777
 11
114.6684603802
 21
189.1100681993
  0
LINE
  5
240
100
AcDbEntity
  8
0
100
AcDbLine
 62
7
  6
BYLAYER
 10
77.3110360997
 20
112.9985680118
 11
77.2930755127
 21
113.008937327
  0
LINE
  5
241
100
AcDbEntity
  8
0
100
AcDbLine
 62
7
  6
BYLAYER
 10
73.7189486067
 20
119.2203522682
 11
66.5347137992
 21
123.3680783341
  0
LINE
  5
242
100
AcDbEntity
  8
0
100
AcDbLine
 62
7
  6
BYLAYER
 10
53.962302886
 20
130.6265989495
 11
46.7780680786
 21
134.7743250154
  0
LINE
  5
243
100
AcDbEntity
  8
0
100
AcDbLine
 62
7
  6
BYLAYER
 10
70.1268012922
 20
125.4212194744
 11
70.1268012922
 21
125.4419586358
  0
LINE
  5
244
100
AcDbEntity
  8
0
100
AcDbLine
 62
7
  6
BYLAYER
 10
73.7189486067
 20
88.1116101755
 11
73.7189486067
 21
88.1427186521
  0
LINE
  5
245
100
AcDbEntity
  8
0
100
AcDbLine
 62
7
  6
BYLAYER
 10
73.7189486067
 20
111.5502728604
 11
73.7189486067
 21
119.2203522682
  0
LINE
  5
246
100
AcDbEntity
  8
0
100
AcDbLine
 62
7
  6
BYLAYER
 10
70.1268012922
 20
125.4419586358
 11
57.5543903791
 21
132.7004792511
  0
LINE
  5
247
100
AcDbEntity
  8
0
100
AcDbLine
 62
7
  6
BYLAYER
 10
77.3110360997
 20
110.1167175097
 11
77.3110360997
 21
112.9985680118
  0
LINE
  5
248
100
AcDbEntity
  8
0
100
AcDbLine
 62
7
  6
BYLAYER
 10
46.7780680786
 20
134.7743250154
 11
36.0087160166
 21
128.5566738178
  0
LINE
  5
249
100
AcDbEntity
  8
0
100
AcDbLine
 62
7
  6
BYLAYER
 10
59.5479392659
 20
142.1054916098
 11
46.7960286656
 21
134.7432165388
  0
LINE
  5
24A
100
AcDbEntity
  8
0
100
AcDbLine
 62
7
  6
BYLAYER
 10
86.45289862
 20
126.5722574929
 11
59.5479392659
 21
142.1054916098
  0
LINE
  5
24B
100
AcDbEntity
  8
0
100
AcDbLine
 62
7
  6
BYLAYER
 10
86.4528986217
 20
95.504993724
 11
86.45289862
 21
126.5722574929
  0
LINE
  5
24C
100
AcDbEntity
  8
0
100
AcDbLine
 62
7
  6
BYLAYER
 10
36.1622906082
 20
125.7860983342
 11
37.2399168561
 21
126.4082624247
  0
LINE
  5
24D
100
AcDbEntity
  8
0
100
AcDbLine
 62
7
  6
BYLAYER
 10
57.5543903791
 20
132.7004792511
 11
53.962302886
 21
130.6265989495
  0
LINE
  5
24E
100
AcDbEntity
  8
0
100
AcDbLine
 62
7
  6
BYLAYER
 10
50.3700793129
 20
154.0614824589
 11
95.6307585729
 21
127.9308082593
  0
LINE
  5
24F
100
AcDbEntity
  8
0
100
AcDbLine
 62
7
  6
BYLAYER
 10
95.6307585865
 20
127.9308082515
 11
95.6307585865
 21
92.6949730412
  0
LINE
  5
250
100
AcDbEntity
  8
0
100
AcDbLine
 62
7
  6
BYLAYER
 10
95.6307585883
 20
92.6742338808
 11
95.6307585883
 21
84.7933525507
  0
LINE
  5
251
100
AcDbEntity
  8
0
100
AcDbLine
 62
7
  6
BYLAYER
 10
95.6487190258
 20
92.7053424437
 11
95.6487190258
 21
92.6846032824
  0
LINE
  5
252
100
AcDbEntity
  8
0
100
AcDbLine
 62
7
  6
BYLAYER
 10
39.9722735513
 20
119.1869749096
 11
41.0498997992
 21
119.8091390001
  0
LINE
  5
253
100
AcDbEntity
  8
0
100
AcDbLine
 62
7
  6
BYLAYER
 10
99.2049004461
 20
92.6846118304
 11
99.2049004461
 21
92.7053509918
  0
LINE
  5
254
100
AcDbEntity
  8
0
100
AcDbLine
 62
7
  6
BYLAYER
 10
99.2228610331
 20
84.7933611851
 11
99.2228610331
 21
92.6742425152
  0
LINE
  5
255
100
AcDbEntity
  8
0
100
AcDbLine
 62
7
  6
BYLAYER
 10
99.2228610349
 20
92.6949816756
 11
99.2228610349
 21
127.9308168858
  0
LINE
  5
256
100
AcDbEntity
  8
0
100
AcDbLine
 62
7
  6
BYLAYER
 10
70.1268012922
 20
125.4419586358
 11
66.5347137992
 21
123.3680783341
  0
LINE
  5
257
100
AcDbEntity
  8
0
100
AcDbLine
 62
7
  6
BYLAYER
 10
70.1268012922
 20
125.4212194744
 11
66.5347137992
 21
123.3473391727
  0
LINE
  5
258
100
AcDbEntity
  8
0
100
AcDbLine
 62
7
  6
BYLAYER
 10
64.3792055668
 20
164.2234873106
 11
67.9713229706
 21
162.1496242777
  0
LINE
  5
259
100
AcDbEntity
  8
0
100
AcDbLine
 62
7
  6
BYLAYER
 10
109.6398848541
 20
138.0928130953
 11
113.2320022578
 21
136.0189500623
  0
LINE
  5
25A
100
AcDbEntity
  8
0
100
AcDbLine
 62
7
  6
BYLAYER
 10
110.762081473
 20
186.8547327482
 11
111.0763429764
 21
191.1839312323
  0
LINE
  5
25B
100
AcDbEntity
  8
0
100
AcDbLine
 62
7
  6
BYLAYER
 10
56.8169656798
 20
113.8613858947
 11
57.8945919277
 21
114.4835499852
  0
LINE
  5
25C
100
AcDbEntity
  8
0
100
AcDbLine
 62
7
  6
BYLAYER
 10
36.1622906082
 20
101.9360627299
 11
37.2399168561
 21
102.5582268204
  0
LINE
  5
25D
100
AcDbEntity
  8
0
100
AcDbLine
 62
7
  6
BYLAYER
 10
39.9531467078
 20
99.7253437662
 11
39.9366285721
 21
99.7158066228
  0
LINE
  5
25E
100
AcDbEntity
  8
0
100
AcDbLine
 62
7
  6
BYLAYER
 10
36.027595842
 20
97.458832447
 11
36.0087160166
 21
97.4479317251
  0
LINE
  5
25F
100
AcDbEntity
  8
0
100
AcDbLine
 62
7
  6
BYLAYER
 10
56.1176750247
 20
109.0582053734
 11
56.1462851374
 21
109.0747237813
  0
LINE
  5
260
100
AcDbEntity
  8
0
100
AcDbLine
 62
7
  6
BYLAYER
 10
86.45289862
 20
126.5722574929
 11
62.9168958849
 21
112.9838209339
  0
LINE
  5
261
100
AcDbEntity
  8
0
100
AcDbLine
 62
7
  6
BYLAYER
 10
115.274737329
 20
110.2374068521
 11
113.2320022578
 21
136.0189500623
  0
LINE
  5
262
100
AcDbEntity
  8
0
100
AcDbLine
 62
7
  6
BYLAYER
 10
156.3370222637
 20
165.053257017
 11
109.6398848541
 21
138.0928130953
  0
LINE
  5
263
100
AcDbEntity
  8
0
100
AcDbLine
 62
7
  6
BYLAYER
 10
60.6269486229
 20
107.2622624701
 11
61.7045748708
 21
107.8844265606
  0
LINE
  5
264
100
AcDbEntity
  8
0
100
AcDbLine
 62
7
  6
BYLAYER
 10
39.9722735513
 20
95.3369393052
 11
41.0498997992
 21
95.9591033957
  0
LINE
  5
265
100
AcDbEntity
  8
0
100
AcDbLine
 62
7
  6
BYLAYER
 10
99.2228610485
 20
127.9308168937
 11
113.2320022578
 21
136.0189500623
  0
LINE
  5
266
100
AcDbEntity
  8
0
100
AcDbLine
 62
7
  6
BYLAYER
 10
159.9291396674
 20
162.979393984
 11
180.2244339895
 21
174.6968176806
  0
LINE
  5
267
100
AcDbEntity
  8
0
100
AcDbLine
 62
7
  6
BYLAYER
 10
74.6091514907
 20
111.45938232
 11
77.2930755127
 21
113.008937327
  0
LINE
  5
268
100
AcDbEntity
  8
0
100
AcDbLine
 62
7
  6
BYLAYER
 10
77.3110360997
 20
112.9985680118
 11
74.636570149
 21
111.4544735922
  0
LINE
  5
269
100
AcDbEntity
  8
0
100
AcDbLine
 62
7
  6
BYLAYER
 10
56.8169656798
 20
90.0113502903
 11
57.8945919277
 21
90.6335143808
  0
LINE
  5
26A
100
AcDbEntity
  8
0
100
AcDbLine
 62
7
  6
BYLAYER
 10
154.2942871924
 20
136.9129805999
 11
157.8864045962
 21
134.839117567
  0
LINE
  5
26B
100
AcDbEntity
  8
0
100
AcDbLine
 62
7
  6
BYLAYER
 10
60.6269486229
 20
83.4122268657
 11
61.7045748708
 21
84.0343909562
  0
LINE
  5
26C
100
AcDbEntity
  8
0
100
AcDbLine
 62
7
  6
BYLAYER
 10
154.2942871924
 20
136.9129805999
 11
114.9604758256
 21
114.203729575
  0
LINE
  5
26D
100
AcDbEntity
  8
0
100
AcDbLine
 62
7
  6
BYLAYER
 10
86.4528986217
 20
95.504993724
 11
85.7401835256
 21
95.0935099276
  0
LINE
  5
26E
100
AcDbEntity
  8
0
100
AcDbLine
 62
7
  6
BYLAYER
 10
74.8044989157
 20
88.779827162
 11
73.7009880196
 21
88.1427186521
  0
LINE
  5
26F
100
AcDbEntity
  8
0
100
AcDbLine
 62
7
  6
BYLAYER
 10
73.7189486067
 20
88.1116101755
 11
62.9495965447
 21
81.8939589779
  0
LINE
  5
270
100
AcDbEntity
  8
0
100
AcDbLine
 62
7
  6
BYLAYER
 10
115.274737329
 20
110.2374068521
 11
157.8864045962
 21
134.839117567
  0
LINE
  5
271
100
AcDbEntity
  8
0
100
AcDbLine
 62
7
  6
BYLAYER
 10
99.2049004461
 20
92.6846118304
 11
180.2244339895
 21
139.4609824703
  0
LINE
  5
272
100
AcDbEntity
  8
0
100
AcDbLine
 62
7
  6
BYLAYER
 10
99.2228610485
 20
92.674242522
 11
180.2244339895
 21
139.4402433089
  0
LINE
  5
273
100
AcDbEntity
  8
0
100
AcDbLine
 62
7
  6
BYLAYER
 10
159.9291396674
 20
162.979393984
 11
156.3370222637
 21
165.053257017
  0
LINE
  5
274
100
AcDbEntity
  8
0
100
AcDbLine
 62
7
  6
BYLAYER
 10
114.6684603802
 20
189.1100681993
 11
111.0763429764
 21
191.1839312323
  0
LINE
  5
275
100
AcDbEntity
  8
0
100
AcDbLine
 62
7
  6
BYLAYER
 10
154.2942871924
 20
136.9129805999
 11
156.3370222637
 21
165.053257017
  0
LINE
  5
276
100
AcDbEntity
  8
0
100
AcDbLine
 62
7
  6
BYLAYER
 10
99.2228610331
 20
84.7933611851
 11
180.2244340013
 21
131.5593619877
  0
LINE
  5
277
100
AcDbEntity
  8
0
100
AcDbLine
 62
7
  6
BYLAYER
 10
159.9291396674
 20
162.979393984
 11
157.8864045962
 21
134.839117567
  0
LINE
  5
278
100
AcDbEntity
  8
0
100
AcDbLine
 62
7
  6
BYLAYER
 10
180.2244190342
 20
176.7706893636
 11
134.9637397742
 21
202.9013635632
  0
LINE
  5
279
100
AcDbEntity
  8
0
100
AcDbLine
 62
7
  6
BYLAYER
 10
180.2064734143
 20
139.4713517944
 11
180.2064734143
 21
139.450612633
  0
LINE
  5
27A
100
AcDbEntity
  8
0
100
AcDbLine
 62
7
  6
BYLAYER
 10
180.2244340031
 20
174.6968176884
 11
180.2244340031
 21
139.4609824781
  0
LINE
  5
27B
100
AcDbEntity
  8
0
100
AcDbLine
 62
7
  6
BYLAYER
 10
180.2244340013
 20
139.4402433178
 11
180.2244340013
 21
131.5593619877
  0
LINE
  5
27C
100
AcDbEntity
  8
0
100
AcDbLine
 62
7
  6
BYLAYER
 10
180.9683752977
 20
140.4771748332
 11
180.9683752977
 21
132.5962935031
  0
LINE
  5
27D
100
AcDbEntity
  8
0
100
AcDbLine
 62
7
  6
BYLAYER
 10
180.9683752977
 20
140.4979139946
 11
180.9683752977
 21
175.7337492049
  0
ARC
  5
27E
100
AcDbEntity
  8
0
100
AcDbCircle
 62
7
  6
BYLAYER
 10
40.6423541932
 20
97.8316294003
 40
2.638417244
100
AcDbArc
 50
255.8547730881
 51
256.8931554618
  0
ARC
  5
27F
100
AcDbEntity
  8
0
100
AcDbCircle
 62
7
  6
BYLAYER
 10
38.6490871965
 20
101.2715041763
 40
2.6293468488
100
AcDbArc
 50
162.8245404797
 51
164.1071616689
  0
ARC
  5
280
100
AcDbEntity
  8
0
100
AcDbCircle
 62
7
  6
BYLAYER
 10
61.2926045287
 20
109.7410290133
 40
2.6219169854
100
AcDbArc
 50
256.1528282633
 51
256.9298729546
  0
ARC
  5
281
100
AcDbEntity
  8
0
100
AcDbCircle
 62
7
  6
BYLAYER
 10
59.2801955333
 20
113.2034621447
 40
2.6049541816
100
AcDbArc
 50
162.8744010451
 51
163.8651433923
  0
ARC
  5
282
100
AcDbEntity
  8
0
100
AcDbCircle
 62
7
  6
BYLAYER
 10
59.2641676095
 20
89.3585828303
 40
2.588094839
100
AcDbArc
 50
162.3962845827
 51
163.8768372172
  0
ARC
  5
283
100
AcDbEntity
  8
0
100
AcDbCircle
 62
7
  6
BYLAYER
 10
40.6298519918
 20
121.630628574
 40
2.5859498898
100
AcDbArc
 50
256.2472745995
 51
257.519791484
  0
ARC
  5
284
100
AcDbEntity
  8
0
100
AcDbCircle
 62
7
  6
BYLAYER
 10
96.8231648521
 20
94.760371622
 40
2.3848907732
100
AcDbArc
 50
240.0010848746
 51
240.4245677618
  0
ARC
  5
285
100
AcDbEntity
  8
0
100
AcDbCircle
 62
7
  6
BYLAYER
 10
98.0304521332
 20
94.760350428
 40
2.3848662589
100
AcDbArc
 50
299.5758325112
 51
299.9993282702
  0
ARC
  5
286
100
AcDbEntity
  8
0
100
AcDbCircle
 62
7
  6
BYLAYER
 10
179.0429047281
 20
141.466036988
 40
2.3271930342
100
AcDbArc
 50
299.9992088022
 51
300.5493914793
  0
ARC
  5
287
100
AcDbEntity
  8
0
100
AcDbCircle
 62
7
  6
BYLAYER
 10
37.701830497
 20
101.7740884909
 40
1.5455224139
100
AcDbArc
 50
128.1637469535
 51
135.0201228731
  0
ARC
  5
288
100
AcDbEntity
  8
0
100
AcDbCircle
 62
7
  6
BYLAYER
 10
40.6097097457
 20
96.7301265495
 40
1.5230029274
100
AcDbArc
 50
289.5666856682
 51
292.3997919352
  0
ARC
  5
289
100
AcDbEntity
  8
0
100
AcDbCircle
 62
7
  6
BYLAYER
 10
58.5316507791
 20
89.5291162021
 40
1.2749488794
100
AcDbArc
 50
113.3403938005
 51
119.9779841998
  0
ARC
  5
28A
100
AcDbEntity
  8
0
100
AcDbCircle
 62
7
  6
BYLAYER
 10
40.4162998688
 20
120.9067321114
 40
1.2673259663
100
AcDbArc
 50
299.996253155
 51
304.2722950375
  0
ARC
  5
28B
100
AcDbEntity
  8
0
100
AcDbCircle
 62
7
  6
BYLAYER
 10
180.1259752748
 20
140.4979216644
 40
0.8423873486
100
AcDbArc
 50
358.2809056469
 51
359.9994783323
  0
ARC
  5
28C
100
AcDbEntity
  8
0
100
AcDbCircle
 62
7
  6
BYLAYER
 10
180.1259762042
 20
140.477167243
 40
0.8423864192
100
AcDbArc
 50
0.000516253
 51
1.7190975859
  0
SPLINE
  5
28D
100
AcDbEntity
  8
0
100
AcDbSpline
 62
7
  6
BYLAYER
 70
0
 71
3
 72
9
 73
5
 74
0
 42
0.0000001
 43
0.0000001
 44
0.0000000001
 40
0.0
 40
0.0
 40
0.0
 40
0.0
 40
0.474127535
 40
1.0
 40
1.0
 40
1.0
 40
1.0
 10
168.3438878502
 20
178.4909193415
 30
0.0
 10
168.3438367237
 20
178.3697494609
 30
0.0
 10
168.2845618742
 20
178.1121078397
 30
0.0
 10
168.1319777697
 20
177.9001513682
 30
0.0
 10
168.039601656
 20
177.8025378009
 30
0.0
  0
SPLINE
  5
28E
100
AcDbEntity
  8
0
100
AcDbSpline
 62
7
  6
BYLAYER
 70
0
 71
3
 72
9
 73
5
 74
0
 42
0.0000001
 43
0.0000001
 44
0.0000000001
 40
0.0
 40
0.0
 40
0.0
 40
0.0
 40
0.2423250685
 40
1.0
 40
1.0
 40
1.0
 40
1.0
 10
168.039601656
 20
177.8025378009
 30
0.0
 10
168.0249997013
 20
177.7871079584
 30
0.0
 10
167.9633458501
 20
177.7247606144
 30
0.0
 10
167.8964757515
 20
177.6676474862
 30
0.0
 10
167.8437774335
 20
177.6272142237
 30
0.0
  0
SPLINE
  5
28F
100
AcDbEntity
  8
0
100
AcDbSpline
 62
7
  6
BYLAYER
 70
0
 71
3
 72
9
 73
5
 74
0
 42
0.0000001
 43
0.0000001
 44
0.0000000001
 40
0.0
 40
0.0
 40
0.0
 40
0.0
 40
0.2582536085
 40
1.0
 40
1.0
 40
1.0
 40
1.0
 10
163.8643084412
 20
177.630120187
 30
0.0
 10
163.8457612191
 20
177.6444245708
 30
0.0
 10
163.7750041001
 20
177.7011633024
 30
0.0
 10
163.7086152398
 20
177.763441962
 30
0.0
 10
163.6628609583
 20
177.8127597527
 30
0.0
  0
SPLINE
  5
290
100
AcDbEntity
  8
0
100
AcDbSpline
 62
7
  6
BYLAYER
 70
0
 71
3
 72
9
 73
5
 74
0
 42
0.0000001
 43
0.0000001
 44
0.0000000001
 40
0.0
 40
0.0
 40
0.0
 40
0.0
 40
0.5251493613
 40
1.0
 40
1.0
 40
1.0
 40
1.0
 10
163.6628609583
 20
177.8127597527
 30
0.0
 10
163.5732239041
 20
177.9093780652
 30
0.0
 10
163.4253957887
 20
178.1187657166
 30
0.0
 10
163.3680474731
 20
178.3717477228
 30
0.0
 10
163.3680977564
 20
178.4909193317
 30
0.0
  0
SPLINE
  5
291
100
AcDbEntity
  8
0
100
AcDbSpline
 62
7
  6
BYLAYER
 70
0
 71
3
 72
9
 73
5
 74
0
 42
0.0000001
 43
0.0000001
 44
0.0000000001
 40
0.0
 40
0.0
 40
0.0
 40
0.0
 40
0.474127535
 40
1.0
 40
1.0
 40
1.0
 40
1.0
 10
67.2264005907
 20
151.2192638593
 30
0.0
 10
67.2263494642
 20
151.0980939787
 30
0.0
 10
67.1670746147
 20
150.8404523575
 30
0.0
 10
67.0144905102
 20
150.628495886
 30
0.0
 10
66.9221143965
 20
150.5308823187
 30
0.0
  0
SPLINE
  5
292
100
AcDbEntity
  8
0
100
AcDbSpline
 62
7
  6
BYLAYER
 70
0
 71
3
 72
9
 73
5
 74
0
 42
0.0000001
 43
0.0000001
 44
0.0000000001
 40
0.0
 40
0.0
 40
0.0
 40
0.0
 40
0.2423250685
 40
1.0
 40
1.0
 40
1.0
 40
1.0
 10
66.9221143965
 20
150.5308823187
 30
0.0
 10
66.9075124418
 20
150.5154524762
 30
0.0
 10
66.8458585906
 20
150.4531051322
 30
0.0
 10
66.778988492
 20
150.395992004
 30
0.0
 10
66.726290174
 20
150.3555587415
 30
0.0
  0
SPLINE
  5
293
100
AcDbEntity
  8
0
100
AcDbSpline
 62
7
  6
BYLAYER
 70
0
 71
3
 72
11
 73
7
 74
0
 42
0.0000001
 43
0.0000001
 44
0.0000000001
 40
0.0
 40
0.0
 40
0.0
 40
0.0
 40
0.2372405737
 40
0.5000004574
 40
0.7627600882
 40
1.0
 40
1.0
 40
1.0
 40
1.0
 10
134.9637397742
 20
202.9013635632
 30
0.0
 10
134.7087496151
 20
203.0485788694
 30
0.0
 10
134.1157753351
 20
203.263399856
 30
0.0
 10
133.1676859306
 20
203.3663200907
 30
0.0
 10
132.2195978192
 20
203.2633956106
 30
0.0
 10
131.6266256845
 20
203.0485716631
 30
0.0
 10
131.3716372986
 20
202.9013549289
 30
0.0
  0
SPLINE
  5
294
100
AcDbEntity
  8
0
100
AcDbSpline
 62
7
  6
BYLAYER
 70
0
 71
3
 72
11
 73
7
 74
0
 42
0.0000001
 43
0.0000001
 44
0.0000000001
 40
0.0
 40
0.0
 40
0.0
 40
0.0
 40
0.2897048042
 40
0.5490913406
 40
0.7822177949
 40
1.0
 40
1.0
 40
1.0
 40
1.0
 10
50.3700643576
 20
156.135354142
 30
0.0
 10
50.2586126811
 20
156.0710078705
 30
0.0
 10
50.0564112447
 20
155.9317377602
 30
0.0
 10
49.8147523557
 20
155.6777652812
 30
0.0
 10
49.6618868645
 20
155.3968101861
 30
0.0
 10
49.6261357058
 20
155.1951661677
 30
0.0
 10
49.6261357237
 20
155.0984226177
 30
0.0
  0
SPLINE
  5
295
100
AcDbEntity
  8
0
100
AcDbSpline
 62
7
  6
BYLAYER
 70
0
 71
3
 72
11
 73
7
 74
0
 42
0.0000001
 43
0.0000001
 44
0.0000000001
 40
0.0
 40
0.0
 40
0.0
 40
0.0
 40
0.2372551441
 40
0.5000086138
 40
0.7627836254
 40
1.0
 40
1.0
 40
1.0
 40
1.0
 10
66.9835789211
 20
150.4840937746
 30
0.0
 10
66.6648217477
 20
150.3000603332
 30
0.0
 10
65.9235897933
 20
150.0315104739
 30
0.0
 10
64.7384332426
 20
149.9029298236
 30
0.0
 10
63.5533309167
 20
150.0315426928
 30
0.0
 10
62.8121529906
 20
150.3001433619
 30
0.0
 10
62.4934487257
 20
150.4841481527
 30
0.0
  0
SPLINE
  5
296
100
AcDbEntity
  8
0
100
AcDbSpline
 62
7
  6
BYLAYER
 70
0
 71
3
 72
11
 73
7
 74
0
 42
0.0000001
 43
0.0000001
 44
0.0000000001
 40
0.0
 40
0.0
 40
0.0
 40
0.0
 40
0.2372551441
 40
0.5000086138
 40
0.7627836254
 40
1.0
 40
1.0
 40
1.0
 40
1.0
 10
168.1010661806
 20
177.7557492568
 30
0.0
 10
167.7823090072
 20
177.5717158154
 30
0.0
 10
167.0410770528
 20
177.3031659561
 30
0.0
 10
165.8559205022
 20
177.1745853058
 30
0.0
 10
164.6708181762
 20
177.303198175
 30
0.0
 10
163.9296402501
 20
177.5717988441
 30
0.0
 10
163.6109359852
 20
177.7558036349
 30
0.0
  0
SPLINE
  5
297
100
AcDbEntity
  8
0
100
AcDbSpline
 62
7
  6
BYLAYER
 70
0
 71
3
 72
17
 73
13
 74
0
 42
0.0000001
 43
0.0000001
 44
0.0000000001
 40
0.0
 40
0.0
 40
0.0
 40
0.0
 40
0.128688448
 40
0.2702796817
 40
0.4174325464
 40
0.5617749928
 40
0.6954478191
 40
0.8127119577
 40
0.8646769781
 40
0.912510124
 40
0.9571398159
 40
1.0
 40
1.0
 40
1.0
 40
1.0
 10
141.3397915227
 20
193.2060288523
 30
0.0
 10
141.0859656652
 20
193.0594832999
 30
0.0
 10
140.5112578643
 20
192.8223607729
 30
0.0
 10
139.5746099637
 20
192.6349592546
 30
0.0
 10
138.5839314755
 20
192.6075348716
 30
0.0
 10
137.6200804144
 20
192.7429723452
 30
0.0
 10
136.7611871263
 20
193.0298523942
 30
0.0
 10
136.1638261217
 20
193.3934732676
 30
0.0
 10
135.8132662975
 20
193.7453062635
 30
0.0
 10
135.6270267781
 20
194.0192253243
 30
0.0
 10
135.5122655317
 20
194.3081550224
 30
0.0
 10
135.4861453788
 20
194.5082706156
 30
0.0
 10
135.4861841533
 20
194.6058861682
 30
0.0
  0
SPLINE
  5
298
100
AcDbEntity
  8
0
100
AcDbSpline
 62
7
  6
BYLAYER
 70
0
 71
3
 72
17
 73
13
 74
0
 42
0.0000001
 43
0.0000001
 44
0.0000000001
 40
0.0
 40
0.0
 40
0.0
 40
0.0
 40
0.128688448
 40
0.2702796817
 40
0.4174325464
 40
0.5617749928
 40
0.6954478191
 40
0.8127119577
 40
0.8646769781
 40
0.912510124
 40
0.9571398159
 40
1.0
 40
1.0
 40
1.0
 40
1.0
 10
94.1040653194
 20
134.8264278757
 30
0.0
 10
93.8502394618
 20
134.6798823233
 30
0.0
 10
93.275531661
 20
134.4427597962
 30
0.0
 10
92.3388837604
 20
134.2553582779
 30
0.0
 10
91.3482052722
 20
134.227933895
 30
0.0
 10
90.3843542111
 20
134.3633713686
 30
0.0
 10
89.5254609229
 20
134.6502514176
 30
0.0
 10
88.9280999184
 20
135.0138722909
 30
0.0
 10
88.5775400942
 20
135.3657052868
 30
0.0
 10
88.3913005748
 20
135.6396243476
 30
0.0
 10
88.2765393284
 20
135.9285540457
 30
0.0
 10
88.2504191755
 20
136.128669639
 30
0.0
 10
88.25045795
 20
136.2262851915
 30
0.0
  0
SPLINE
  5
299
100
AcDbEntity
  8
0
100
AcDbSpline
 62
7
  6
BYLAYER
 70
0
 71
3
 72
9
 73
5
 74
0
 42
0.0000001
 43
0.0000001
 44
0.0000000001
 40
0.0
 40
0.0
 40
0.0
 40
0.0
 40
0.2582536085
 40
1.0
 40
1.0
 40
1.0
 40
1.0
 10
62.7468211817
 20
150.3584647048
 30
0.0
 10
62.7282739596
 20
150.3727690886
 30
0.0
 10
62.6575168406
 20
150.4295078202
 30
0.0
 10
62.5911279803
 20
150.4917864798
 30
0.0
 10
62.5453736988
 20
150.5411042705
 30
0.0
  0
SPLINE
  5
29A
100
AcDbEntity
  8
0
100
AcDbSpline
 62
7
  6
BYLAYER
 70
0
 71
3
 72
9
 73
5
 74
0
 42
0.0000001
 43
0.0000001
 44
0.0000000001
 40
0.0
 40
0.0
 40
0.0
 40
0.0
 40
0.5251493613
 40
1.0
 40
1.0
 40
1.0
 40
1.0
 10
62.5453736988
 20
150.5411042705
 30
0.0
 10
62.4557366446
 20
150.637722583
 30
0.0
 10
62.3079085292
 20
150.8471102344
 30
0.0
 10
62.2505602136
 20
151.1000922406
 30
0.0
 10
62.2506104969
 20
151.2192638495
 30
0.0
  0
SPLINE
  5
29B
100
AcDbEntity
  8
0
100
AcDbSpline
 62
7
  6
BYLAYER
 70
0
 71
3
 72
11
 73
7
 74
0
 42
0.0000001
 43
0.0000001
 44
0.0000000001
 40
0.0
 40
0.0
 40
0.0
 40
0.0
 40
0.2375186554
 40
0.4999994227
 40
0.7624804986
 40
1.0
 40
1.0
 40
1.0
 40
1.0
 10
99.2075626584
 20
92.686224616
 30
0.0
 10
98.9535932966
 20
92.5420885401
 30
0.0
 10
98.3656657831
 20
92.3316429
 30
0.0
 10
97.4268126049
 20
92.230735605
 30
0.0
 10
96.4879579183
 20
92.3316386348
 30
0.0
 10
95.9000279908
 20
92.5420814515
 30
0.0
 10
95.6460567174
 20
92.6862162664
 30
0.0
  0
SPLINE
  5
29C
100
AcDbEntity
  8
0
100
AcDbSpline
 62
7
  6
BYLAYER
 70
0
 71
3
 72
9
 73
5
 74
0
 42
0.0000001
 43
0.0000001
 44
0.0000000001
 40
0.0
 40
0.0
 40
0.0
 40
0.0
 40
0.4741272639
 40
1.0
 40
1.0
 40
1.0
 40
1.0
 10
107.9101544676
 20
125.0196523521
 30
0.0
 10
107.8052378607
 20
125.0802836549
 30
0.0
 10
107.6117397984
 20
125.2604464015
 30
0.0
 10
107.504466565
 20
125.4985788596
 30
0.0
 10
107.4661170036
 20
125.627392519
 30
0.0
  0
SPLINE
  5
29D
100
AcDbEntity
  8
0
100
AcDbSpline
 62
7
  6
BYLAYER
 70
0
 71
3
 72
9
 73
5
 74
0
 42
0.0000001
 43
0.0000001
 44
0.0000000001
 40
0.0
 40
0.0
 40
0.0
 40
0.0
 40
0.2423246059
 40
1.0
 40
1.0
 40
1.0
 40
1.0
 10
107.4661170036
 20
125.627392519
 30
0.0
 10
107.4600546432
 20
125.6477555896
 30
0.0
 10
107.4368846206
 20
125.7323335901
 30
0.0
 10
107.4208571385
 20
125.8188122382
 30
0.0
 10
107.4121898922
 20
125.8846752426
 30
0.0
  0
SPLINE
  5
29E
100
AcDbEntity
  8
0
100
AcDbSpline
 62
7
  6
BYLAYER
 70
0
 71
3
 72
9
 73
5
 74
0
 42
0.0000001
 43
0.0000001
 44
0.0000000001
 40
0.0
 40
0.0
 40
0.0
 40
0.0
 40
0.2582495744
 40
1.0
 40
1.0
 40
1.0
 40
1.0
 10
109.4044446859
 20
129.329515733
 30
0.0
 10
109.4260967555
 20
129.3384216018
 30
0.0
 10
109.5105764614
 20
129.371314913
 30
0.0
 10
109.5976674028
 20
129.3976608341
 30
0.0
 10
109.6632262749
 20
129.4126239876
 30
0.0
  0
SPLINE
  5
29F
100
AcDbEntity
  8
0
100
AcDbSpline
 62
7
  6
BYLAYER
 70
0
 71
3
 72
9
 73
5
 74
0
 42
0.0000001
 43
0.0000001
 44
0.0000000001
 40
0.0
 40
0.0
 40
0.0
 40
0.0
 40
0.5251525187
 40
1.0
 40
1.0
 40
1.0
 40
1.0
 10
109.6632262749
 20
129.4126239876
 30
0.0
 10
109.7917341773
 20
129.4419546244
 30
0.0
 10
110.0470152411
 20
129.4653016665
 30
0.0
 10
110.2948136671
 20
129.3884729695
 30
0.0
 10
110.3980073041
 20
129.3288373709
 30
0.0
  0
SPLINE
  5
2A0
100
AcDbEntity
  8
0
100
AcDbSpline
 62
7
  6
BYLAYER
 70
0
 71
3
 72
9
 73
5
 74
0
 42
0.0000001
 43
0.0000001
 44
0.0000000001
 40
0.0
 40
0.0
 40
0.0
 40
0.0
 40
0.4741272639
 40
1.0
 40
1.0
 40
1.0
 40
1.0
 10
161.7914668633
 20
133.3147793425
 30
0.0
 10
161.6865502564
 20
133.3754106454
 30
0.0
 10
161.4930521941
 20
133.555573392
 30
0.0
 10
161.3857789607
 20
133.79370585
 30
0.0
 10
161.3474293993
 20
133.9225195094
 30
0.0
  0
SPLINE
  5
2A1
100
AcDbEntity
  8
0
100
AcDbSpline
 62
7
  6
BYLAYER
 70
0
 71
3
 72
9
 73
5
 74
0
 42
0.0000001
 43
0.0000001
 44
0.0000000001
 40
0.0
 40
0.0
 40
0.0
 40
0.0
 40
0.2423246059
 40
1.0
 40
1.0
 40
1.0
 40
1.0
 10
161.3474293993
 20
133.9225195094
 30
0.0
 10
161.3413670389
 20
133.94288258
 30
0.0
 10
161.3181970163
 20
134.0274605805
 30
0.0
 10
161.3021695342
 20
134.1139392286
 30
0.0
 10
161.2935022879
 20
134.179802233
 30
0.0
  0
SPLINE
  5
2A2
100
AcDbEntity
  8
0
100
AcDbSpline
 62
7
  6
BYLAYER
 70
0
 71
3
 72
17
 73
13
 74
0
 42
0.0000001
 43
0.0000001
 44
0.0000000001
 40
0.0
 40
0.0
 40
0.0
 40
0.0
 40
0.1286891333
 40
0.2702803493
 40
0.4174326844
 40
0.5617743804
 40
0.6954465661
 40
0.8127104963
 40
0.8646756522
 40
0.91250911
 40
0.9571392634
 40
1.0
 40
1.0
 40
1.0
 40
1.0
 10
107.3050578943
 20
102.7326551556
 30
0.0
 10
107.3050578943
 20
103.0148929104
 30
0.0
 10
107.3840177041
 20
103.6083406767
 30
0.0
 10
107.6787075952
 20
104.4796879886
 30
0.0
 10
108.132824476
 20
105.3190656372
 30
0.0
 10
108.7098434161
 20
106.0576543928
 30
0.0
 10
109.3626242112
 20
106.6357968116
 30
0.0
 10
109.9534821479
 20
106.9588858389
 30
0.0
 10
110.4156809549
 20
107.0818323328
 30
0.0
 10
110.7337877503
 20
107.1052592692
 30
0.0
 10
111.0299980985
 20
107.0618500891
 30
0.0
 10
111.209462848
 20
106.9872816681
 30
0.0
 10
111.2908519582
 20
106.9402495873
 30
0.0
  0
SPLINE
  5
2A3
100
AcDbEntity
  8
0
100
AcDbSpline
 62
7
  6
BYLAYER
 70
0
 71
3
 72
17
 73
13
 74
0
 42
0.0000001
 43
0.0000001
 44
0.0000000001
 40
0.0
 40
0.0
 40
0.0
 40
0.0
 40
0.1286891333
 40
0.2702803493
 40
0.4174326844
 40
0.5617743804
 40
0.6954465661
 40
0.8127104963
 40
0.8646756522
 40
0.91250911
 40
0.9571392634
 40
1.0
 40
1.0
 40
1.0
 40
1.0
 10
161.18637029
 20
156.6539372152
 30
0.0
 10
161.18637029
 20
156.93617497
 30
0.0
 10
161.2653300998
 20
157.5296227363
 30
0.0
 10
161.5600199909
 20
158.4009700482
 30
0.0
 10
162.0141368717
 20
159.2403476968
 30
0.0
 10
162.5911558118
 20
159.9789364524
 30
0.0
 10
163.2439366069
 20
160.5570788712
 30
0.0
 10
163.8347945436
 20
160.8801678985
 30
0.0
 10
164.2969933506
 20
161.0031143924
 30
0.0
 10
164.615100146
 20
161.0265413288
 30
0.0
 10
164.9113104942
 20
160.9831321487
 30
0.0
 10
165.0907752437
 20
160.9085637277
 30
0.0
 10
165.1721643539
 20
160.8615316469
 30
0.0
  0
SPLINE
  5
2A4
100
AcDbEntity
  8
0
100
AcDbSpline
 62
7
  6
BYLAYER
 70
0
 71
3
 72
11
 73
7
 74
0
 42
0.0000001
 43
0.0000001
 44
0.0000000001
 40
0.0
 40
0.0
 40
0.0
 40
0.0
 40
0.237255674
 40
0.5000080479
 40
0.7627822743
 40
1.0
 40
1.0
 40
1.0
 40
1.0
 10
161.2761724773
 20
133.8927066882
 30
0.0
 10
161.2761724773
 20
134.2607677803
 30
0.0
 10
161.4142071066
 20
135.0369507453
 30
0.0
 10
161.8954069979
 20
136.1275958558
 30
0.0
 10
162.5993112862
 20
137.0896050197
 30
0.0
 10
163.2024933013
 20
137.5971823601
 30
0.0
 10
163.5211883865
 20
137.7811907241
 30
0.0
  0
SPLINE
  5
2A5
100
AcDbEntity
  8
0
100
AcDbSpline
 62
7
  6
BYLAYER
 70
0
 71
3
 72
11
 73
7
 74
0
 42
0.0000001
 43
0.0000001
 44
0.0000000001
 40
0.0
 40
0.0
 40
0.0
 40
0.0
 40
0.237255674
 40
0.5000080479
 40
0.7627822743
 40
1.0
 40
1.0
 40
1.0
 40
1.0
 10
107.3948600816
 20
125.5975796978
 30
0.0
 10
107.3948600816
 20
125.9656407899
 30
0.0
 10
107.5328947109
 20
126.7418237549
 30
0.0
 10
108.0140946022
 20
127.8324688654
 30
0.0
 10
108.7179988905
 20
128.7944780293
 30
0.0
 10
109.3211809056
 20
129.3020553697
 30
0.0
 10
109.6398759908
 20
129.4860637337
 30
0.0
  0
SPLINE
  5
2A6
100
AcDbEntity
  8
0
100
AcDbSpline
 62
7
  6
BYLAYER
 70
0
 71
3
 72
9
 73
5
 74
0
 42
0.0000001
 43
0.0000001
 44
0.0000000001
 40
0.0
 40
0.0
 40
0.0
 40
0.0
 40
0.2582495744
 40
1.0
 40
1.0
 40
1.0
 40
1.0
 10
163.2857570816
 20
137.6246427234
 30
0.0
 10
163.3074091511
 20
137.6335485922
 30
0.0
 10
163.3918888571
 20
137.6664419034
 30
0.0
 10
163.4789797985
 20
137.6927878245
 30
0.0
 10
163.5445386705
 20
137.707750978
 30
0.0
  0
SPLINE
  5
2A7
100
AcDbEntity
  8
0
100
AcDbSpline
 62
7
  6
BYLAYER
 70
0
 71
3
 72
9
 73
5
 74
0
 42
0.0000001
 43
0.0000001
 44
0.0000000001
 40
0.0
 40
0.0
 40
0.0
 40
0.0
 40
0.5251525187
 40
1.0
 40
1.0
 40
1.0
 40
1.0
 10
163.5445386705
 20
137.707750978
 30
0.0
 10
163.673046573
 20
137.7370816148
 30
0.0
 10
163.9283276368
 20
137.760428657
 30
0.0
 10
164.1761260628
 20
137.6835999599
 30
0.0
 10
164.2793196998
 20
137.6239643613
 30
0.0
  0
SPLINE
  5
2A8
100
AcDbEntity
  8
0
100
AcDbSpline
 62
7
  6
BYLAYER
 70
0
 71
3
 72
11
 73
7
 74
0
 42
0.0000001
 43
0.0000001
 44
0.0000000001
 40
0.0
 40
0.0
 40
0.0
 40
0.0
 40
0.2177651606
 40
0.4508956102
 40
0.7103690052
 40
1.0
 40
1.0
 40
1.0
 40
1.0
 10
161.870289967
 20
155.1423871757
 30
0.0
 10
161.7614020999
 20
155.2053098805
 30
0.0
 10
161.5575035492
 20
155.3764650157
 30
0.0
 10
161.3405759093
 20
155.7313116636
 30
0.0
 10
161.2117954256
 20
156.1684892908
 30
0.0
 10
161.18637029
 20
156.4866731336
 30
0.0
 10
161.18637029
 20
156.6539372152
 30
0.0
  0
SPLINE
  5
2A9
100
AcDbEntity
  8
0
100
AcDbSpline
 62
7
  6
BYLAYER
 70
0
 71
3
 72
11
 73
7
 74
0
 42
0.0000001
 43
0.0000001
 44
0.0000000001
 40
0.0
 40
0.0
 40
0.0
 40
0.0
 40
0.2177651606
 40
0.4508956102
 40
0.7103690052
 40
1.0
 40
1.0
 40
1.0
 40
1.0
 10
107.9889775713
 20
101.2211051161
 30
0.0
 10
107.8800897042
 20
101.2840278209
 30
0.0
 10
107.6761911536
 20
101.4551829561
 30
0.0
 10
107.4592635136
 20
101.810029604
 30
0.0
 10
107.3304830299
 20
102.2472072312
 30
0.0
 10
107.3050578943
 20
102.565391074
 30
0.0
 10
107.3050578943
 20
102.7326551556
 30
0.0
  0
SPLINE
  5
2AA
100
AcDbEntity
  8
0
100
AcDbSpline
 62
7
  6
BYLAYER
 70
0
 71
3
 72
11
 73
7
 74
0
 42
0.0000001
 43
0.0000001
 44
0.0000000001
 40
0.0
 40
0.0
 40
0.0
 40
0.0
 40
0.2177648073
 40
0.4508950352
 40
0.7103684932
 40
1.0
 40
1.0
 40
1.0
 40
1.0
 10
95.1083141938
 20
136.2262856544
 30
0.0
 10
95.10826232
 20
136.0956927427
 30
0.0
 10
95.0602064854
 20
135.823461756
 30
0.0
 10
94.8537212865
 20
135.4441400175
 30
0.0
 10
94.5274293753
 20
135.1013417781
 30
0.0
 10
94.2544865119
 20
134.9132730733
 30
0.0
 10
94.1040653194
 20
134.8264278757
 30
0.0
  0
SPLINE
  5
2AB
100
AcDbEntity
  8
0
100
AcDbSpline
 62
7
  6
BYLAYER
 70
0
 71
3
 72
11
 73
7
 74
0
 42
0.0000001
 43
0.0000001
 44
0.0000000001
 40
0.0
 40
0.0
 40
0.0
 40
0.0
 40
0.2177648073
 40
0.4508950352
 40
0.7103684932
 40
1.0
 40
1.0
 40
1.0
 40
1.0
 10
142.3440403971
 20
194.605886631
 30
0.0
 10
142.3439885233
 20
194.4752937193
 30
0.0
 10
142.2959326888
 20
194.2030627326
 30
0.0
 10
142.0894474899
 20
193.8237409942
 30
0.0
 10
141.7631555786
 20
193.4809427548
 30
0.0
 10
141.4902127152
 20
193.2928740499
 30
0.0
 10
141.3397915227
 20
193.2060288523
 30
0.0
  0
SPLINE
  5
2AC
100
AcDbEntity
  8
0
100
AcDbSpline
 62
7
  6
BYLAYER
 70
0
 71
3
 72
11
 73
7
 74
0
 42
0.0000001
 43
0.0000001
 44
0.0000000001
 40
0.0
 40
0.0
 40
0.0
 40
0.0
 40
0.2177821603
 40
0.450908588
 40
0.710295195
 40
1.0
 40
1.0
 40
1.0
 40
1.0
 10
180.9683626234
 20
132.5962935031
 30
0.0
 10
180.9683625963
 20
132.4995499733
 30
0.0
 10
180.9326115252
 20
132.2979059874
 30
0.0
 10
180.7797460229
 20
132.0169508793
 30
0.0
 10
180.5380871042
 20
131.7629784122
 30
0.0
 10
180.335885666
 20
131.6237082502
 30
0.0
 10
180.2244339895
 20
131.5593619788
 30
0.0
  0
SPLINE
  5
2AD
100
AcDbEntity
  8
0
100
AcDbSpline
 62
7
  6
BYLAYER
 70
0
 71
3
 72
11
 73
7
 74
0
 42
0.0000001
 43
0.0000001
 44
0.0000000001
 40
0.0
 40
0.0
 40
0.0
 40
0.0
 40
0.2177830968
 40
0.450915839
 40
0.7103069095
 40
1.0
 40
1.0
 40
1.0
 40
1.0
 10
24.3127897424
 20
122.8237730767
 30
0.0
 10
24.1577970896
 20
122.9132843081
 30
0.0
 10
23.8677659021
 20
123.1570604509
 30
0.0
 10
23.5590208977
 20
123.661896911
 30
0.0
 10
23.3756545654
 20
124.2840166772
 30
0.0
 10
23.3395581017
 20
124.7368096962
 30
0.0
 10
23.3395581017
 20
124.9748915067
 30
0.0
  0
SPLINE
  5
2AE
100
AcDbEntity
  8
0
100
AcDbSpline
 62
7
  6
BYLAYER
 70
0
 71
3
 72
17
 73
13
 74
0
 42
0.0000001
 43
0.0000001
 44
0.0000000001
 40
0.0
 40
0.0
 40
0.0
 40
0.0
 40
0.0428593081
 40
0.0874855299
 40
0.1353200167
 40
0.1872821703
 40
0.3045428223
 40
0.4382084491
 40
0.5825501939
 40
0.7297142242
 40
0.871306808
 40
1.0
 40
1.0
 40
1.0
 40
1.0
 10
36.1622970965
 20
125.7860870815
 30
0.0
 10
36.0683633344
 20
125.7318642085
 30
0.0
 10
35.8903595338
 20
125.5955246276
 30
0.0
 10
35.6760355871
 20
125.3246339651
 30
0.0
 10
35.5159346626
 20
124.9932466593
 30
0.0
 10
35.3721211575
 20
124.460473985
 30
0.0
 10
35.3540875507
 20
123.6836763813
 30
0.0
 10
35.5551629841
 20
122.6978446657
 30
0.0
 10
35.9602821197
 20
121.6951019599
 30
0.0
 10
36.5370680626
 20
120.7570236523
 30
0.0
 10
37.2377566831
 20
119.959775366
 30
0.0
 10
37.7852393224
 20
119.5384961907
 30
0.0
 10
38.0672820798
 20
119.3756624126
 30
0.0
  0
SPLINE
  5
2AF
100
AcDbEntity
  8
0
100
AcDbSpline
 62
7
  6
BYLAYER
 70
0
 71
3
 72
9
 73
5
 74
0
 42
0.0000001
 43
0.0000001
 44
0.0000000001
 40
0.0
 40
0.0
 40
0.0
 40
0.0
 40
0.2481031204
 40
1.0
 40
1.0
 40
1.0
 40
1.0
 10
36.1622994028
 20
101.936047584
 30
0.0
 10
36.1352562131
 20
101.9204293617
 30
0.0
 10
36.028602687
 20
101.8534712177
 30
0.0
 10
35.9320849351
 20
101.7706011003
 30
0.0
 10
35.8670242416
 20
101.7018672752
 30
0.0
  0
SPLINE
  5
2B0
100
AcDbEntity
  8
0
100
AcDbSpline
 62
7
  6
BYLAYER
 70
0
 71
3
 72
10
 73
6
 74
0
 42
0.0000001
 43
0.0000001
 44
0.0000000001
 40
0.0
 40
0.0
 40
0.0
 40
0.0
 40
0.4562502315
 40
0.7166682164
 40
1.0
 40
1.0
 40
1.0
 40
1.0
 10
35.8670242416
 20
101.7018672752
 30
0.0
 10
35.6976961106
 20
101.5229793855
 30
0.0
 10
35.5083339507
 20
101.1669726088
 30
0.0
 10
35.39224946
 20
100.6393302044
 30
0.0
 10
35.373194027
 20
100.3448624041
 30
0.0
 10
35.373194027
 20
100.1918982923
 30
0.0
  0
SPLINE
  5
2B1
100
AcDbEntity
  8
0
100
AcDbSpline
 62
7
  6
BYLAYER
 70
0
 71
3
 72
17
 73
13
 74
0
 42
0.0000001
 43
0.0000001
 44
0.0000000001
 40
0.0
 40
0.0
 40
0.0
 40
0.0
 40
0.0428593081
 40
0.0874855299
 40
0.1353200167
 40
0.1872821703
 40
0.3045428223
 40
0.4382084491
 40
0.5825501939
 40
0.7297142242
 40
0.871306808
 40
1.0
 40
1.0
 40
1.0
 40
1.0
 10
56.816972168
 20
90.0113390376
 30
0.0
 10
56.723038406
 20
89.9571161646
 30
0.0
 10
56.5450346053
 20
89.8207765837
 30
0.0
 10
56.3307106587
 20
89.5498859213
 30
0.0
 10
56.1706097342
 20
89.2184986154
 30
0.0
 10
56.026796229
 20
88.6857259411
 30
0.0
 10
56.0087626222
 20
87.9089283374
 30
0.0
 10
56.2098380557
 20
86.9230966218
 30
0.0
 10
56.6149571912
 20
85.920353916
 30
0.0
 10
57.1917431341
 20
84.9822756084
 30
0.0
 10
57.8924317546
 20
84.1850273221
 30
0.0
 10
58.4399143939
 20
83.7637481469
 30
0.0
 10
58.7219571513
 20
83.6009143688
 30
0.0
  0
SPLINE
  5
2B2
100
AcDbEntity
  8
0
100
AcDbSpline
 62
7
  6
BYLAYER
 70
0
 71
3
 72
11
 73
7
 74
0
 42
0.0000001
 43
0.0000001
 44
0.0000000001
 40
0.0
 40
0.0
 40
0.0
 40
0.0
 40
0.2177839466
 40
0.4509170841
 40
0.710307871
 40
1.0
 40
1.0
 40
1.0
 40
1.0
 10
56.8169744743
 20
113.8613707489
 30
0.0
 10
56.6913049417
 20
113.7887929675
 30
0.0
 10
56.4561451931
 20
113.5911353616
 30
0.0
 10
56.2058117922
 20
113.1818082997
 30
0.0
 10
56.0571365317
 20
112.6773880957
 30
0.0
 10
56.0278690985
 20
112.3102598915
 30
0.0
 10
56.0278690985
 20
112.1172214571
 30
0.0
  0
SPLINE
  5
2B3
100
AcDbEntity
  8
0
100
AcDbSpline
 62
7
  6
BYLAYER
 70
0
 71
3
 72
12
 73
8
 74
0
 42
0.0000001
 43
0.0000001
 44
0.0000000001
 40
0.0
 40
0.0
 40
0.0
 40
0.0
 40
0.2895699561
 40
0.548639537
 40
0.7816340516
 40
0.891837507
 40
1.0
 40
1.0
 40
1.0
 40
1.0
 10
84.0462509974
 20
102.5772234203
 30
0.0
 10
84.0462509974
 20
103.1243576819
 30
0.0
 10
83.9633194654
 20
104.1647006653
 30
0.0
 10
83.5427397838
 20
105.5932729186
 30
0.0
 10
82.938178778
 20
106.5788944789
 30
0.0
 10
82.3277452451
 20
107.1793220354
 30
0.0
 10
81.9874397456
 20
107.4167994691
 30
0.0
 10
81.8104604934
 20
107.5190023678
 30
0.0
  0
SPLINE
  5
2B4
100
AcDbEntity
  8
0
100
AcDbSpline
 62
7
  6
BYLAYER
 70
0
 71
3
 72
11
 73
7
 74
0
 42
0.0000001
 43
0.0000001
 44
0.0000000001
 40
0.0
 40
0.0
 40
0.0
 40
0.0
 40
0.2897026209
 40
0.5490908265
 40
0.782219764
 40
1.0
 40
1.0
 40
1.0
 40
1.0
 10
86.0219514623
 20
96.4593067506
 30
0.0
 10
86.0219514623
 20
96.6973965974
 30
0.0
 10
85.9858539934
 20
97.1501948725
 30
0.0
 10
85.802486174
 20
97.7723199222
 30
0.0
 10
85.4937329935
 20
98.2771373016
 30
0.0
 10
85.2037188571
 20
98.5209293094
 30
0.0
 10
85.0487226517
 20
98.6104299936
 30
0.0
  0
SPLINE
  5
2B5
100
AcDbEntity
  8
0
100
AcDbSpline
 62
7
  6
BYLAYER
 70
0
 71
3
 72
17
 73
13
 74
0
 42
0.0000001
 43
0.0000001
 44
0.0000000001
 40
0.0
 40
0.0
 40
0.0
 40
0.0
 40
0.0428590154
 40
0.087484945
 40
0.1353191404
 40
0.1872810096
 40
0.3045411455
 40
0.4382064078
 40
0.5825480614
 40
0.7297123844
 40
0.8713056989
 40
1.0
 40
1.0
 40
1.0
 40
1.0
 10
80.3498184107
 20
90.4715049495
 30
0.0
 10
80.4656584029
 20
90.404614547
 30
0.0
 10
80.7210483224
 20
90.2985700454
 30
0.0
 10
81.1425461024
 20
90.2367064951
 30
0.0
 10
81.5952212244
 20
90.2700631921
 30
0.0
 10
82.2529474272
 20
90.4450040559
 30
0.0
 10
83.0937472371
 20
90.9047693924
 30
0.0
 10
84.0226964445
 20
91.7274642881
 30
0.0
 10
84.8438845803
 20
92.7785229059
 30
0.0
 10
85.4901493215
 20
93.9730606963
 30
0.0
 10
85.9095945222
 20
95.213094384
 30
0.0
 10
86.0219514623
 20
96.057644058
 30
0.0
 10
86.0219514623
 20
96.4593067506
 30
0.0
  0
SPLINE
  5
2B6
100
AcDbEntity
  8
0
100
AcDbSpline
 62
7
  6
BYLAYER
 70
0
 71
3
 72
9
 73
5
 74
0
 42
0.0000001
 43
0.0000001
 44
0.0000000001
 40
0.0
 40
0.0
 40
0.0
 40
0.0
 40
0.2559958571
 40
1.0
 40
1.0
 40
1.0
 40
1.0
 10
73.7189486067
 20
111.5502728604
 30
0.0
 10
73.7977608068
 20
111.5502917561
 30
0.0
 10
74.1055521618
 20
111.5427011462
 30
0.0
 10
74.4127759988
 20
111.5032734918
 30
0.0
 10
74.636570149
 20
111.4544735922
 30
0.0
  0
SPLINE
  5
2B7
100
AcDbEntity
  8
0
100
AcDbSpline
 62
7
  6
BYLAYER
 70
0
 71
3
 72
13
 73
9
 74
0
 42
0.0000001
 43
0.0000001
 44
0.0000000001
 40
0.0
 40
0.0
 40
0.0
 40
0.0
 40
0.0993796774
 40
0.2024185804
 40
0.3121571644
 40
0.4306579159
 40
0.6966799243
 40
1.0
 40
1.0
 40
1.0
 40
1.0
 10
71.0156696558
 20
88.8214531907
 30
0.0
 10
71.2661986024
 20
88.6767764321
 30
0.0
 10
71.8147486608
 20
88.4438818029
 30
0.0
 10
72.7178658535
 20
88.2915704143
 30
0.0
 10
73.6876237456
 20
88.33308062
 30
0.0
 10
75.0968213451
 20
88.6539345505
 30
0.0
 10
76.9148666411
 20
89.5537608142
 30
0.0
 10
78.2096879
 20
90.606080309
 30
0.0
 10
78.844921424
 20
91.2193920614
 30
0.0
  0
SPLINE
  5
2B8
100
AcDbEntity
  8
0
100
AcDbSpline
 62
7
  6
BYLAYER
 70
0
 71
3
 72
9
 73
5
 74
0
 42
0.0000001
 43
0.0000001
 44
0.0000000001
 40
0.0
 40
0.0
 40
0.0
 40
0.0
 40
0.2623147564
 40
1.0
 40
1.0
 40
1.0
 40
1.0
 10
83.6434435082
 20
99.5192384414
 30
0.0
 10
83.7091055013
 20
99.7811936148
 30
0.0
 10
83.9325981707
 20
100.7860322035
 30
0.0
 10
84.0462509974
 20
101.8177589419
 30
0.0
 10
84.0462509974
 20
102.5772234203
 30
0.0
  0
SPLINE
  5
2B9
100
AcDbEntity
  8
0
100
AcDbSpline
 62
7
  6
BYLAYER
 70
0
 71
3
 72
12
 73
8
 74
0
 42
0.0000001
 43
0.0000001
 44
0.0000000001
 40
0.0
 40
0.0
 40
0.0
 40
0.0
 40
0.108162493
 40
0.2183659484
 40
0.451360463
 40
0.7104300439
 40
1.0
 40
1.0
 40
1.0
 40
1.0
 10
31.861589955
 20
111.42656025
 30
0.0
 10
31.6846107028
 20
111.5287631487
 30
0.0
 10
31.3443052034
 20
111.7662405823
 30
0.0
 10
30.7338716704
 20
112.3666681389
 30
0.0
 10
30.1293106647
 20
113.3522896991
 30
0.0
 10
29.708730983
 20
114.7808619524
 30
0.0
 10
29.6257994511
 20
115.8212049359
 30
0.0
 10
29.6257994511
 20
116.3683391975
 30
0.0
  0
SPLINE
  5
2BA
100
AcDbEntity
  8
0
100
AcDbSpline
 62
7
  6
BYLAYER
 70
0
 71
3
 72
17
 73
13
 74
0
 42
0.0000001
 43
0.0000001
 44
0.0000000001
 40
0.0
 40
0.0
 40
0.0
 40
0.0
 40
0.1286930371
 40
0.2702795962
 40
0.4174375935
 40
0.5617786795
 40
0.6954478243
 40
0.81271112
 40
0.8646738576
 40
0.9125098523
 40
0.9571380034
 40
1.0
 40
1.0
 40
1.0
 40
1.0
 10
56.0278690985
 20
112.1172214571
 30
0.0
 10
56.0278690985
 20
111.791551095
 30
0.0
 10
56.1189661672
 20
111.1067988659
 30
0.0
 10
56.4590450793
 20
110.1013971633
 30
0.0
 10
56.9830206755
 20
109.13287653
 30
0.0
 10
57.6488389299
 20
108.2806630249
 30
0.0
 10
58.4020492896
 20
107.6135960078
 30
0.0
 10
59.0837929995
 20
107.2407833184
 30
0.0
 10
59.6171025386
 20
107.0989496076
 30
0.0
 10
59.9841495605
 20
107.0718797571
 30
0.0
 10
60.3259203347
 20
107.1220572052
 30
0.0
 10
60.5330123573
 20
107.208031791
 30
0.0
 10
60.6269398283
 20
107.2622776159
 30
0.0
  0
SPLINE
  5
2BB
100
AcDbEntity
  8
0
100
AcDbSpline
 62
7
  6
BYLAYER
 70
0
 71
3
 72
11
 73
7
 74
0
 42
0.0000001
 43
0.0000001
 44
0.0000000001
 40
0.0
 40
0.0
 40
0.0
 40
0.0
 40
0.28970066
 40
0.5490882258
 40
0.7822179595
 40
1.0
 40
1.0
 40
1.0
 40
1.0
 10
58.7219571513
 20
83.6009143688
 30
0.0
 10
58.889134882
 20
83.5043964444
 30
0.0
 10
59.2217068246
 20
83.3461850574
 30
0.0
 10
59.7328761238
 20
83.2227380744
 30
0.0
 10
60.2125079749
 20
83.2348852619
 30
0.0
 10
60.5012615518
 20
83.3396895253
 30
0.0
 10
60.6269421346
 20
83.4122381184
 30
0.0
  0
SPLINE
  5
2BC
100
AcDbEntity
  8
0
100
AcDbSpline
 62
7
  6
BYLAYER
 70
0
 71
3
 72
9
 73
5
 74
0
 42
0.0000001
 43
0.0000001
 44
0.0000000001
 40
0.0
 40
0.0
 40
0.0
 40
0.0
 40
0.4744802379
 40
1.0
 40
1.0
 40
1.0
 40
1.0
 10
35.373194027
 20
100.1918982923
 30
0.0
 10
35.373194027
 20
99.7502377893
 30
0.0
 10
35.5386802437
 20
98.81909486
 30
0.0
 10
35.917721988
 20
97.9602211641
 30
0.0
 10
36.1622995837
 20
97.5365836698
 30
0.0
  0
SPLINE
  5
2BD
100
AcDbEntity
  8
0
100
AcDbSpline
 62
7
  6
BYLAYER
 70
0
 71
3
 72
12
 73
8
 74
0
 42
0.0000001
 43
0.0000001
 44
0.0000000001
 40
0.0
 40
0.0
 40
0.0
 40
0.0
 40
0.2921809547
 40
0.5644658297
 40
0.688347965
 40
0.8023075532
 40
1.0
 40
1.0
 40
1.0
 40
1.0
 10
36.1622995837
 20
97.5365836698
 30
0.0
 10
36.3663359225
 20
97.183168456
 30
0.0
 10
36.8241023134
 20
96.535007702
 30
0.0
 10
37.5260712621
 20
95.8662740732
 30
0.0
 10
38.1269062101
 20
95.4784673694
 30
0.0
 10
38.6798280911
 20
95.2244458503
 30
0.0
 10
39.1239024046
 20
95.1416040153
 30
0.0
 10
39.3991512654
 20
95.163445131
 30
0.0
  0
SPLINE
  5
2BE
100
AcDbEntity
  8
0
100
AcDbSpline
 62
7
  6
BYLAYER
 70
0
 71
3
 72
9
 73
5
 74
0
 42
0.0000001
 43
0.0000001
 44
0.0000000001
 40
0.0
 40
0.0
 40
0.0
 40
0.0
 40
0.2581088937
 40
1.0
 40
1.0
 40
1.0
 40
1.0
 10
39.3991512654
 20
95.163445131
 30
0.0
 10
39.4507460345
 20
95.1675391982
 30
0.0
 10
39.6496714922
 20
95.1932894254
 30
0.0
 10
39.8434389436
 20
95.2625538265
 30
0.0
 10
39.9722647568
 20
95.3369544511
 30
0.0
  0
SPLINE
  5
2BF
100
AcDbEntity
  8
0
100
AcDbSpline
 62
7
  6
BYLAYER
 70
0
 71
3
 72
9
 73
5
 74
0
 42
0.0000001
 43
0.0000001
 44
0.0000000001
 40
0.0
 40
0.0
 40
0.0
 40
0.0
 40
0.2557662548
 40
1.0
 40
1.0
 40
1.0
 40
1.0
 10
38.0672820798
 20
119.3756624126
 30
0.0
 10
38.0944952216
 20
119.3599512533
 30
0.0
 10
38.2017016325
 20
119.2999404194
 30
0.0
 10
38.3121682095
 20
119.2456998072
 30
0.0
 10
38.3960057051
 20
119.2092086526
 30
0.0
  0
SPLINE
  5
2C0
100
AcDbEntity
  8
0
100
AcDbSpline
 62
7
  6
BYLAYER
 70
0
 71
3
 72
9
 73
5
 74
0
 42
0.0000001
 43
0.0000001
 44
0.0000000001
 40
0.0
 40
0.0
 40
0.0
 40
0.0
 40
0.2645951402
 40
1.0
 40
1.0
 40
1.0
 40
1.0
 10
38.3960057051
 20
119.2092086526
 30
0.0
 10
38.453094264
 20
119.1843602549
 30
0.0
 10
38.6716181115
 20
119.0972372481
 30
0.0
 10
38.9025877174
 20
119.0389682444
 30
0.0
 10
39.0745646197
 20
119.0197424743
 30
0.0
  0
SPLINE
  5
2C1
100
AcDbEntity
  8
0
100
AcDbSpline
 62
7
  6
BYLAYER
 70
0
 71
3
 72
9
 73
5
 74
0
 42
0.0000001
 43
0.0000001
 44
0.0000000001
 40
0.0
 40
0.0
 40
0.0
 40
0.0
 40
0.2570607224
 40
1.0
 40
1.0
 40
1.0
 40
1.0
 10
39.0745646197
 20
119.0197424743
 30
0.0
 10
39.1037578657
 20
119.0164788811
 30
0.0
 10
39.2175902116
 20
119.0064148717
 30
0.0
 10
39.3324815658
 20
119.0072749435
 30
0.0
 10
39.4170279472
 20
119.0149927262
 30
0.0
  0
SPLINE
  5
2C2
100
AcDbEntity
  8
0
100
AcDbSpline
 62
7
  6
BYLAYER
 70
0
 71
3
 72
9
 73
5
 74
0
 42
0.0000001
 43
0.0000001
 44
0.0000000001
 40
0.0
 40
0.0
 40
0.0
 40
0.0
 40
0.2576555153
 40
1.0
 40
1.0
 40
1.0
 40
1.0
 10
39.4170279472
 20
119.0149927262
 30
0.0
 10
39.4669610843
 20
119.0195508527
 30
0.0
 10
39.6597333814
 20
119.0466294948
 30
0.0
 10
39.8471527117
 20
119.1147644239
 30
0.0
 10
39.9722670631
 20
119.1869861623
 30
0.0
  0
SPLINE
  5
2C3
100
AcDbEntity
  8
0
100
AcDbSpline
 62
7
  6
BYLAYER
 70
0
 71
3
 72
11
 73
7
 74
0
 42
0.0000001
 43
0.0000001
 44
0.0000000001
 40
0.0
 40
0.0
 40
0.0
 40
0.0
 40
0.2177817007
 40
0.4509079352
 40
0.7102947135
 40
1.0
 40
1.0
 40
1.0
 40
1.0
 10
180.9683626234
 20
175.7337492049
 30
0.0
 10
180.9683626055
 20
175.8304937766
 30
0.0
 10
180.9326106946
 20
176.0321400875
 30
0.0
 10
180.7797418995
 20
176.3130979175
 30
0.0
 10
180.5380780713
 20
176.5670722668
 30
0.0
 10
180.3358727955
 20
176.7063429601
 30
0.0
 10
180.2244190342
 20
176.7706893636
 30
0.0
  0
SPLINE
  5
2C4
100
AcDbEntity
  8
0
100
AcDbSpline
 62
7
  6
BYLAYER
 70
0
 71
3
 72
12
 73
8
 74
0
 42
0.0000001
 43
0.0000001
 44
0.0000000001
 40
0.0
 40
0.0
 40
0.0
 40
0.0
 40
0.1124657974
 40
0.2331192862
 40
0.4904527218
 40
0.7530240778
 40
1.0
 40
1.0
 40
1.0
 40
1.0
 10
29.6257994511
 20
116.3683391975
 30
0.0
 10
29.6257994511
 20
116.9028752076
 30
0.0
 10
29.7124633297
 20
118.0118683713
 30
0.0
 10
30.1898795644
 20
120.298123054
 30
0.0
 10
31.3201466308
 20
123.1526527173
 30
0.0
 10
33.3055184186
 20
126.2329798458
 30
0.0
 10
35.0205023313
 20
127.9790971285
 30
0.0
 10
35.946549737
 20
128.7004504291
 30
0.0
  0
SPLINE
  5
2C5
100
AcDbEntity
  8
0
100
AcDbSpline
 62
7
  6
BYLAYER
 70
0
 71
3
 72
9
 73
5
 74
0
 42
0.0000001
 43
0.0000001
 44
0.0000000001
 40
0.0
 40
0.0
 40
0.0
 40
0.0
 40
0.5235728857
 40
1.0
 40
1.0
 40
1.0
 40
1.0
 10
35.946549737
 20
128.7004504291
 30
0.0
 10
36.3955178945
 20
129.0501783807
 30
0.0
 10
37.2983176583
 20
129.6629234029
 30
0.0
 10
38.2906787974
 20
130.123270412
 30
0.0
 10
38.7806114379
 20
130.2910365365
 30
0.0
  0
SPLINE
  5
2C6
100
AcDbEntity
  8
0
100
AcDbSpline
 62
7
  6
BYLAYER
 70
0
 71
3
 72
9
 73
5
 74
0
 42
0.0000001
 43
0.0000001
 44
0.0000000001
 40
0.0
 40
0.0
 40
0.0
 40
0.0
 40
0.2455066207
 40
1.0
 40
1.0
 40
1.0
 40
1.0
 10
180.9679834801
 20
140.4726505872
 30
0.0
 10
180.9670873668
 20
140.4427858382
 30
0.0
 10
180.9570274753
 20
140.321361041
 30
0.0
 10
180.9207829668
 20
140.2025658904
 30
0.0
 10
180.8822178353
 20
140.1192352164
 30
0.0
  0
SPLINE
  5
2C7
100
AcDbEntity
  8
0
100
AcDbSpline
 62
7
  6
BYLAYER
 70
0
 71
3
 72
9
 73
5
 74
0
 42
0.0000001
 43
0.0000001
 44
0.0000000001
 40
0.0
 40
0.0
 40
0.0
 40
0.0
 40
0.2244719363
 40
1.0
 40
1.0
 40
1.0
 40
1.0
 10
180.8822178353
 20
140.1192352164
 30
0.0
 10
180.8526995814
 20
140.0554528332
 30
0.0
 10
180.6914497532
 20
139.7848302407
 30
0.0
 10
180.4347193827
 20
139.5823900742
 30
0.0
 10
180.2244339895
 20
139.4609824703
 30
0.0
  0
SPLINE
  5
2C8
100
AcDbEntity
  8
0
100
AcDbSpline
 62
7
  6
BYLAYER
 70
0
 71
3
 72
17
 73
13
 74
0
 42
0.0000001
 43
0.0000001
 44
0.0000000001
 40
0.0
 40
0.0
 40
0.0
 40
0.0
 40
0.1286933065
 40
0.2702801751
 40
0.4174384432
 40
0.5617797022
 40
0.6954488753
 40
0.8127120148
 40
0.8646745954
 40
0.9125103814
 40
0.9571382807
 40
1.0
 40
1.0
 40
1.0
 40
1.0
 10
23.3395581017
 20
124.9748915067
 30
0.0
 10
23.3395581017
 20
125.376551052
 30
0.0
 10
23.451909845
 20
126.22107762
 30
0.0
 10
23.8713354465
 20
127.4610725813
 30
0.0
 10
24.5175643998
 20
128.6555826008
 30
0.0
 10
25.3387308327
 20
129.7066490716
 30
0.0
 10
26.2676800011
 20
130.5293701155
 30
0.0
 10
27.1084888342
 20
130.9891787256
 30
0.0
 10
27.7662315479
 20
131.1641128038
 30
0.0
 10
28.2189190191
 20
131.1975033554
 30
0.0
 10
28.6404331597
 20
131.1356224318
 30
0.0
 10
28.8958451128
 20
131.0295901718
 30
0.0
 10
29.011688323
 20
130.9626884948
 30
0.0
  0
SPLINE
  5
2C9
100
AcDbEntity
  8
0
100
AcDbSpline
 62
7
  6
BYLAYER
 70
0
 71
3
 72
11
 73
7
 74
0
 42
0.0000001
 43
0.0000001
 44
0.0000000001
 40
0.0
 40
0.0
 40
0.0
 40
0.0
 40
0.2372398078
 40
0.4999994051
 40
0.7627593223
 40
1.0
 40
1.0
 40
1.0
 40
1.0
 10
99.2228610485
 20
84.7933611919
 30
0.0
 10
98.9678727743
 20
84.6461445222
 30
0.0
 10
98.3749008264
 20
84.4313205913
 30
0.0
 10
97.4268128526
 20
84.32839603
 30
0.0
 10
96.4787233106
 20
84.4313161835
 30
0.0
 10
95.8857488438
 20
84.6461371868
 30
0.0
 10
95.6307585729
 20
84.7933525575
 30
0.0
  0
SPLINE
  5
2CA
100
AcDbEntity
  8
0
100
AcDbSpline
 62
7
  6
BYLAYER
 70
0
 71
3
 72
17
 73
13
 74
0
 42
0.0000001
 43
0.0000001
 44
0.0000000001
 40
0.0
 40
0.0
 40
0.0
 40
0.0
 40
0.0428592926
 40
0.087485474
 40
0.1353198781
 40
0.1872819044
 40
0.3045421965
 40
0.4382074305
 40
0.582548911
 40
0.7297129633
 40
0.8713059682
 40
1.0
 40
1.0
 40
1.0
 40
1.0
 10
57.8945984272
 20
114.4835387423
 30
0.0
 10
57.9885232888
 20
114.5377754261
 30
0.0
 10
58.1955974469
 20
114.6237599351
 30
0.0
 10
58.537354955
 20
114.6739232987
 30
0.0
 10
58.9043919638
 20
114.6468808966
 30
0.0
 10
59.4376881158
 20
114.5050416847
 30
0.0
 10
60.1194245093
 20
114.1322640816
 30
0.0
 10
60.8726349007
 20
113.465218266
 30
0.0
 10
61.5384707523
 20
112.6130111286
 30
0.0
 10
62.0624753661
 20
111.6444679786
 30
0.0
 10
62.4025701697
 20
110.6390348761
 30
0.0
 10
62.493671452
 20
109.9542639122
 30
0.0
 10
62.493671452
 20
109.6285909981
 30
0.0
  0
SPLINE
  5
2CB
100
AcDbEntity
  8
0
100
AcDbSpline
 62
7
  6
BYLAYER
 70
0
 71
3
 72
15
 73
11
 74
0
 42
0.0000001
 43
0.0000001
 44
0.0000000001
 40
0.0
 40
0.0
 40
0.0
 40
0.0
 40
0.1448967085
 40
0.2745230618
 40
0.3911055676
 40
0.4999908788
 40
0.6088754708
 40
0.7254426166
 40
0.8551816075
 40
1.0
 40
1.0
 40
1.0
 40
1.0
 10
163.5211883865
 20
137.7811907241
 30
0.0
 10
163.6605480099
 20
137.8616542691
 30
0.0
 10
163.9376568246
 20
137.9935817415
 30
0.0
 10
164.3635712193
 20
138.0964047716
 30
0.0
 10
164.7634818398
 20
138.0862067917
 30
0.0
 10
165.1194109048
 20
137.9571423014
 30
0.0
 10
165.4091913434
 20
137.7135060959
 30
0.0
 10
165.6180694247
 20
137.3721825916
 30
0.0
 10
165.7418110025
 20
136.9518518255
 30
0.0
 10
165.7662818436
 20
136.645890835
 30
0.0
 10
165.7662818436
 20
136.4850570653
 30
0.0
  0
SPLINE
  5
2CC
100
AcDbEntity
  8
0
100
AcDbSpline
 62
7
  6
BYLAYER
 70
0
 71
3
 72
18
 73
14
 74
0
 42
0.0000001
 43
0.0000001
 44
0.0000000001
 40
0.0
 40
0.0
 40
0.0
 40
0.0
 40
0.1368693646
 40
0.2883211872
 40
0.4422412635
 40
0.5857871313
 40
0.6505353193
 40
0.7095127224
 40
0.7627399141
 40
0.811089507
 40
0.8564434848
 40
0.9014540724
 40
1.0
 40
1.0
 40
1.0
 40
1.0
 10
163.610919426
 20
180.348078048
 30
0.0
 10
163.9008222816
 20
180.5154525406
 30
0.0
 10
164.5694502112
 20
180.7689689615
 30
0.0
 10
165.6476640717
 20
180.9185291155
 30
0.0
 10
166.7506234825
 20
180.8498262532
 30
0.0
 10
167.6128961068
 20
180.6084228572
 30
0.0
 10
168.1948722613
 20
180.3059360863
 30
0.0
 10
168.5437269873
 20
180.0459886935
 30
0.0
 10
168.8088862055
 20
179.7521602106
 30
0.0
 10
168.9802067518
 20
179.4313656168
 30
0.0
 10
169.0479187687
 20
179.0932993779
 30
0.0
 10
168.9916173681
 20
178.6275035702
 30
0.0
 10
168.7852206224
 20
178.3175473255
 30
0.0
 10
168.6160281053
 20
178.1458945276
 30
0.0
  0
SPLINE
  5
2CD
100
AcDbEntity
  8
0
100
AcDbSpline
 62
7
  6
BYLAYER
 70
0
 71
3
 72
9
 73
5
 74
0
 42
0.0000001
 43
0.0000001
 44
0.0000000001
 40
0.0
 40
0.0
 40
0.0
 40
0.0
 40
0.2367166705
 40
1.0
 40
1.0
 40
1.0
 40
1.0
 10
168.6160281053
 20
178.1458945276
 30
0.0
 10
168.5801800325
 20
178.1095251768
 30
0.0
 10
168.4226016872
 20
177.9619571249
 30
0.0
 10
168.2436684773
 20
177.8380802397
 30
0.0
 10
168.1010661806
 20
177.7557492568
 30
0.0
  0
SPLINE
  5
2CE
100
AcDbEntity
  8
0
100
AcDbSpline
 62
7
  6
BYLAYER
 70
0
 71
3
 72
9
 73
5
 74
0
 42
0.0000001
 43
0.0000001
 44
0.0000000001
 40
0.0
 40
0.0
 40
0.0
 40
0.0
 40
0.2587056122
 40
1.0
 40
1.0
 40
1.0
 40
1.0
 10
40.0710221114
 20
119.1057828367
 30
0.0
 10
40.1108765183
 20
119.0969641592
 30
0.0
 10
40.2657033089
 20
119.0665807248
 30
0.0
 10
40.4237272614
 20
119.0515996009
 30
0.0
 10
40.5406867392
 20
119.0510080496
 30
0.0
  0
SPLINE
  5
2CF
100
AcDbEntity
  8
0
100
AcDbSpline
 62
7
  6
BYLAYER
 70
0
 71
3
 72
10
 73
6
 74
0
 42
0.0000001
 43
0.0000001
 44
0.0000000001
 40
0.0
 40
0.0
 40
0.0
 40
0.0
 40
0.2280133806
 40
0.4755839607
 40
1.0
 40
1.0
 40
1.0
 40
1.0
 10
39.1449083277
 20
126.2195749217
 30
0.0
 10
39.3524329853
 20
126.0997632152
 30
0.0
 10
39.7610903791
 20
125.8066722135
 30
0.0
 10
40.5125074414
 20
125.0685769624
 30
0.0
 10
40.9715571966
 20
124.384857177
 30
0.0
 10
41.2206812568
 20
123.8932486336
 30
0.0
  0
SPLINE
  5
2D0
100
AcDbEntity
  8
0
100
AcDbSpline
 62
7
  6
BYLAYER
 70
0
 71
3
 72
11
 73
7
 74
0
 42
0.0000001
 43
0.0000001
 44
0.0000000001
 40
0.0
 40
0.0
 40
0.0
 40
0.0
 40
0.2177651606
 40
0.4508956102
 40
0.7103690052
 40
1.0
 40
1.0
 40
1.0
 40
1.0
 10
165.1721643539
 20
160.8615316469
 30
0.0
 10
165.281052221
 20
160.7986089421
 30
0.0
 10
165.4849507717
 20
160.6274538069
 30
0.0
 10
165.7018784116
 20
160.2726071591
 30
0.0
 10
165.8306588953
 20
159.8354295318
 30
0.0
 10
165.8560840309
 20
159.517245689
 30
0.0
 10
165.8560840309
 20
159.3499816074
 30
0.0
  0
SPLINE
  5
2D1
100
AcDbEntity
  8
0
100
AcDbSpline
 62
7
  6
BYLAYER
 70
0
 71
3
 72
9
 73
5
 74
0
 42
0.0000001
 43
0.0000001
 44
0.0000000001
 40
0.0
 40
0.0
 40
0.0
 40
0.0
 40
0.5231798418
 40
1.0
 40
1.0
 40
1.0
 40
1.0
 10
40.0440464973
 20
95.2619458683
 30
0.0
 10
40.2287350043
 20
95.2189522789
 30
0.0
 10
40.5928997381
 20
95.1747031131
 30
0.0
 10
40.9569289574
 20
95.2371849549
 30
0.0
 10
41.1197691506
 20
95.2950734772
 30
0.0
  0
SPLINE
  5
2D2
100
AcDbEntity
  8
0
100
AcDbSpline
 62
7
  6
BYLAYER
 70
0
 71
3
 72
11
 73
7
 74
0
 42
0.0000001
 43
0.0000001
 44
0.0000000001
 40
0.0
 40
0.0
 40
0.0
 40
0.0
 40
0.2177839466
 40
0.4509170841
 40
0.710307871
 40
1.0
 40
1.0
 40
1.0
 40
1.0
 10
60.6269398283
 20
107.2622776159
 30
0.0
 10
60.7526093609
 20
107.3348553973
 30
0.0
 10
60.9877691096
 20
107.5325130032
 30
0.0
 10
61.2381025104
 20
107.941840065
 30
0.0
 10
61.3867777709
 20
108.446260269
 30
0.0
 10
61.4160452041
 20
108.8133884733
 30
0.0
 10
61.4160452041
 20
109.0064269076
 30
0.0
  0
SPLINE
  5
2D3
100
AcDbEntity
  8
0
100
AcDbSpline
 62
7
  6
BYLAYER
 70
0
 71
3
 72
9
 73
5
 74
0
 42
0.0000001
 43
0.0000001
 44
0.0000000001
 40
0.0
 40
0.0
 40
0.0
 40
0.0
 40
0.2573309395
 40
1.0
 40
1.0
 40
1.0
 40
1.0
 10
41.4683880237
 20
96.342633536
 30
0.0
 10
41.4398270118
 20
96.3029470211
 30
0.0
 10
41.3215738435
 20
96.1541433828
 30
0.0
 10
41.1720965672
 20
96.0296806195
 30
0.0
 10
41.0498932998
 20
95.9591146386
 30
0.0
  0
SPLINE
  5
2D4
100
AcDbEntity
  8
0
100
AcDbSpline
 62
7
  6
BYLAYER
 70
0
 71
3
 72
17
 73
13
 74
0
 42
0.0000001
 43
0.0000001
 44
0.0000000001
 40
0.0
 40
0.0
 40
0.0
 40
0.0
 40
0.128688448
 40
0.2702796817
 40
0.4174325464
 40
0.5617749928
 40
0.6954478191
 40
0.8127119577
 40
0.8646769781
 40
0.912510124
 40
0.9571398159
 40
1.0
 40
1.0
 40
1.0
 40
1.0
 10
136.4904330277
 20
196.0057439468
 30
0.0
 10
136.7442588852
 20
196.1522894993
 30
0.0
 10
137.318966686
 20
196.3894120263
 30
0.0
 10
138.2556145867
 20
196.5768135446
 30
0.0
 10
139.2462930749
 20
196.6042379275
 30
0.0
 10
140.210144136
 20
196.468800454
 30
0.0
 10
141.0690374241
 20
196.1819204049
 30
0.0
 10
141.6663984287
 20
195.8182995316
 30
0.0
 10
142.0169582529
 20
195.4664665357
 30
0.0
 10
142.2031977723
 20
195.1925474749
 30
0.0
 10
142.3179590187
 20
194.9036177768
 30
0.0
 10
142.3440791716
 20
194.7035021836
 30
0.0
 10
142.3440403971
 20
194.605886631
 30
0.0
  0
SPLINE
  5
2D5
100
AcDbEntity
  8
0
100
AcDbSpline
 62
7
  6
BYLAYER
 70
0
 71
3
 72
11
 73
7
 74
0
 42
0.0000001
 43
0.0000001
 44
0.0000000001
 40
0.0
 40
0.0
 40
0.0
 40
0.0
 40
0.2177651606
 40
0.4508956102
 40
0.7103690052
 40
1.0
 40
1.0
 40
1.0
 40
1.0
 10
111.2908519582
 20
106.9402495873
 30
0.0
 10
111.3997398253
 20
106.8773268825
 30
0.0
 10
111.603638376
 20
106.7061717473
 30
0.0
 10
111.8205660159
 20
106.3513250995
 30
0.0
 10
111.9493464996
 20
105.9141474722
 30
0.0
 10
111.9747716352
 20
105.5959636294
 30
0.0
 10
111.9747716352
 20
105.4286995478
 30
0.0
  0
SPLINE
  5
2D6
100
AcDbEntity
  8
0
100
AcDbSpline
 62
7
  6
BYLAYER
 70
0
 71
3
 72
17
 73
13
 74
0
 42
0.0000001
 43
0.0000001
 44
0.0000000001
 40
0.0
 40
0.0
 40
0.0
 40
0.0
 40
0.128688448
 40
0.2702796817
 40
0.4174325464
 40
0.5617749928
 40
0.6954478191
 40
0.8127119577
 40
0.8646769781
 40
0.912510124
 40
0.9571398159
 40
1.0
 40
1.0
 40
1.0
 40
1.0
 10
89.2547068244
 20
137.6261429702
 30
0.0
 10
89.5085326819
 20
137.7726885226
 30
0.0
 10
90.0832404827
 20
138.0098110497
 30
0.0
 10
91.0198883834
 20
138.1972125679
 30
0.0
 10
92.0105668715
 20
138.2246369509
 30
0.0
 10
92.9744179327
 20
138.0891994773
 30
0.0
 10
93.8333112208
 20
137.8023194283
 30
0.0
 10
94.4306722254
 20
137.4386985549
 30
0.0
 10
94.7812320496
 20
137.086865559
 30
0.0
 10
94.967471569
 20
136.8129464983
 30
0.0
 10
95.0822328154
 20
136.5240168001
 30
0.0
 10
95.1083529683
 20
136.3239012069
 30
0.0
 10
95.1083141938
 20
136.2262856544
 30
0.0
  0
SPLINE
  5
2D7
100
AcDbEntity
  8
0
100
AcDbSpline
 62
7
  6
BYLAYER
 70
0
 71
3
 72
9
 73
5
 74
0
 42
0.0000001
 43
0.0000001
 44
0.0000000001
 40
0.0
 40
0.0
 40
0.0
 40
0.0
 40
0.477132092
 40
1.0
 40
1.0
 40
1.0
 40
1.0
 10
57.3623938342
 20
114.8828212759
 30
0.0
 10
57.2299819775
 20
114.7714651933
 30
0.0
 10
56.9919420602
 20
114.4887717671
 30
0.0
 10
56.84657714
 20
114.1517236487
 30
0.0
 10
56.7907409921
 20
113.9705360495
 30
0.0
  0
SPLINE
  5
2D8
100
AcDbEntity
  8
0
100
AcDbSpline
 62
7
  6
BYLAYER
 70
0
 71
3
 72
14
 73
10
 74
0
 42
0.0000001
 43
0.0000001
 44
0.0000000001
 40
0.0
 40
0.0
 40
0.0
 40
0.0
 40
0.3040472426
 40
0.4487619818
 40
0.583356772
 40
0.7053017344
 40
0.8137846799
 40
0.9104542459
 40
1.0
 40
1.0
 40
1.0
 40
1.0
 10
61.4953046802
 20
88.772217881
 30
0.0
 10
61.7854627914
 20
88.3333547458
 30
0.0
 10
62.1396248038
 20
87.6306493449
 30
0.0
 10
62.4152959138
 20
86.6573017001
 30
0.0
 10
62.5077623477
 20
85.9662484737
 30
0.0
 10
62.4848028007
 20
85.3314131833
 30
0.0
 10
62.3450128392
 20
84.7773850588
 30
0.0
 10
62.0890222389
 20
84.3275954053
 30
0.0
 10
61.8387643503
 20
84.1118606023
 30
0.0
 10
61.7045661489
 20
84.03440615
 30
0.0
  0
SPLINE
  5
2D9
100
AcDbEntity
  8
0
100
AcDbSpline
 62
7
  6
BYLAYER
 70
0
 71
3
 72
11
 73
7
 74
0
 42
0.0000001
 43
0.0000001
 44
0.0000000001
 40
0.0
 40
0.0
 40
0.0
 40
0.0
 40
0.2177817007
 40
0.4509079352
 40
0.7102947135
 40
1.0
 40
1.0
 40
1.0
 40
1.0
 10
49.6261357237
 20
155.0984226177
 30
0.0
 10
49.6261357416
 20
155.0016780459
 30
0.0
 10
49.6618876525
 20
154.800031735
 30
0.0
 10
49.8147564476
 20
154.5190739051
 30
0.0
 10
50.0564202758
 20
154.2650995557
 30
0.0
 10
50.2586255516
 20
154.1258288625
 30
0.0
 10
50.3700793129
 20
154.0614824589
 30
0.0
  0
SPLINE
  5
2DA
100
AcDbEntity
  8
0
100
AcDbSpline
 62
7
  6
BYLAYER
 70
0
 71
3
 72
9
 73
5
 74
0
 42
0.0000001
 43
0.0000001
 44
0.0000000001
 40
0.0
 40
0.0
 40
0.0
 40
0.0
 40
0.2690251998
 40
1.0
 40
1.0
 40
1.0
 40
1.0
 10
62.4934487257
 20
150.4841481527
 30
0.0
 10
62.4295960785
 20
150.5210136555
 30
0.0
 10
62.1975570208
 20
150.6665280102
 30
0.0
 10
61.9868859963
 20
150.8498299255
 30
0.0
 10
61.8609787275
 20
151.0056558633
 30
0.0
  0
SPLINE
  5
2DB
100
AcDbEntity
  8
0
100
AcDbSpline
 62
7
  6
BYLAYER
 70
0
 71
3
 72
12
 73
8
 74
0
 42
0.0000001
 43
0.0000001
 44
0.0000000001
 40
0.0
 40
0.0
 40
0.0
 40
0.0
 40
0.2396877667
 40
0.3517835732
 40
0.4646163783
 40
0.7094343592
 40
1.0
 40
1.0
 40
1.0
 40
1.0
 10
61.8609787275
 20
151.0056558633
 30
0.0
 10
61.735338893
 20
151.1611508177
 30
0.0
 10
61.5888615666
 20
151.4314311732
 30
0.0
 10
61.5517661697
 20
151.8213082607
 30
0.0
 10
61.6195194005
 20
152.2119251615
 30
0.0
 10
61.9187234609
 20
152.6854196289
 30
0.0
 10
62.2835553783
 20
152.9552508689
 30
0.0
 10
62.4934321664
 20
153.0764225658
 30
0.0
  0
SPLINE
  5
2DC
100
AcDbEntity
  8
0
100
AcDbSpline
 62
7
  6
BYLAYER
 70
0
 71
3
 72
13
 73
9
 74
0
 42
0.0000001
 43
0.0000001
 44
0.0000000001
 40
0.0
 40
0.0
 40
0.0
 40
0.0
 40
0.2947543665
 40
0.5634125259
 40
0.6853880509
 40
0.7984129585
 40
0.9029072831
 40
1.0
 40
1.0
 40
1.0
 40
1.0
 10
62.9495965447
 20
102.6379028287
 30
0.0
 10
62.551366615
 20
101.6552479953
 30
0.0
 10
61.9364451167
 20
99.7130808642
 30
0.0
 10
61.6307503297
 20
97.2466788764
 30
0.0
 10
61.7335921107
 20
95.4332958353
 30
0.0
 10
61.9689386696
 20
94.2303156323
 30
0.0
 10
62.3618604546
 20
93.1634366217
 30
0.0
 10
62.7379674508
 20
92.5365971864
 30
0.0
 10
62.9495965447
 20
92.2587572197
 30
0.0
  0
SPLINE
  5
2DD
100
AcDbEntity
  8
0
100
AcDbSpline
 62
7
  6
BYLAYER
 70
0
 71
3
 72
16
 73
12
 74
0
 42
0.0000001
 43
0.0000001
 44
0.0000000001
 40
0.0
 40
0.0
 40
0.0
 40
0.0
 40
0.1219513932
 40
0.2552558616
 40
0.3949670977
 40
0.5352103746
 40
0.6700535037
 40
0.79430577
 40
0.8513498378
 40
0.9046333398
 40
1.0
 40
1.0
 40
1.0
 40
1.0
 10
62.6732795655
 20
97.2887992942
 30
0.0
 10
62.6732795655
 20
98.0794110205
 30
0.0
 10
62.863104753
 20
99.7360985066
 30
0.0
 10
63.5913667793
 20
102.2011436231
 30
0.0
 10
64.7331308378
 20
104.6357405724
 30
0.0
 10
66.2185760884
 20
106.8888845605
 30
0.0
 10
67.9558183941
 20
108.8218263784
 30
0.0
 10
69.5714130506
 20
110.1043527385
 30
0.0
 10
70.9010595746
 20
110.8500809856
 30
0.0
 10
72.1340586918
 20
111.3603225558
 30
0.0
 10
73.1006859064
 20
111.5501246284
 30
0.0
 10
73.7189486067
 20
111.5502728604
 30
0.0
  0
SPLINE
  5
2DE
100
AcDbEntity
  8
0
100
AcDbSpline
 62
7
  6
BYLAYER
 70
0
 71
3
 72
11
 73
7
 74
0
 42
0.0000001
 43
0.0000001
 44
0.0000000001
 40
0.0
 40
0.0
 40
0.0
 40
0.0
 40
0.2177728947
 40
0.4509002595
 40
0.7103630724
 40
1.0
 40
1.0
 40
1.0
 40
1.0
 10
62.2506104969
 20
151.2192638495
 30
0.0
 10
62.2506504784
 20
151.3140202856
 30
0.0
 10
62.2855302381
 20
151.5115401634
 30
0.0
 10
62.4353455618
 20
151.7867570985
 30
0.0
 10
62.6720878917
 20
152.0354754078
 30
0.0
 10
62.8701244885
 20
152.1719257437
 30
0.0
 10
62.9792660453
 20
152.2349382748
 30
0.0
  0
SPLINE
  5
2DF
100
AcDbEntity
  8
0
100
AcDbSpline
 62
7
  6
BYLAYER
 70
0
 71
3
 72
12
 73
8
 74
0
 42
0.0000001
 43
0.0000001
 44
0.0000000001
 40
0.0
 40
0.0
 40
0.0
 40
0.0
 40
0.2895699561
 40
0.548639537
 40
0.7816340516
 40
0.891837507
 40
1.0
 40
1.0
 40
1.0
 40
1.0
 10
68.7798791519
 20
93.7632321382
 30
0.0
 10
68.7798791519
 20
93.2160978766
 30
0.0
 10
68.8628106838
 20
92.1757548932
 30
0.0
 10
69.2833903655
 20
90.7471826398
 30
0.0
 10
69.8879513713
 20
89.7615610796
 30
0.0
 10
70.4983849042
 20
89.161133523
 30
0.0
 10
70.8386904037
 20
88.9236560894
 30
0.0
 10
71.0156696558
 20
88.8214531907
 30
0.0
  0
SPLINE
  5
2E0
100
AcDbEntity
  8
0
100
AcDbSpline
 62
7
  6
BYLAYER
 70
0
 71
3
 72
15
 73
11
 74
0
 42
0.0000001
 43
0.0000001
 44
0.0000000001
 40
0.0
 40
0.0
 40
0.0
 40
0.0
 40
0.1477416403
 40
0.2812289007
 40
0.4019004656
 40
0.5139413389
 40
0.6235680398
 40
0.7377396833
 40
0.8621217472
 40
1.0
 40
1.0
 40
1.0
 40
1.0
 10
74.1774666477
 20
94.5982437983
 30
0.0
 10
74.1774666477
 20
94.3190291563
 30
0.0
 10
74.2168831337
 20
93.7860373382
 30
0.0
 10
74.4145944149
 20
93.0471361081
 30
0.0
 10
74.7469667234
 20
92.4313009398
 30
0.0
 10
75.2084912608
 20
91.9636358631
 30
0.0
 10
75.7833778652
 20
91.6698183734
 30
0.0
 10
76.4422570238
 20
91.563156484
 30
0.0
 10
77.1562526217
 20
91.6403223361
 30
0.0
 10
77.6293298683
 20
91.8000172351
 30
0.0
 10
77.8684001791
 20
91.9036713942
 30
0.0
  0
SPLINE
  5
2E1
100
AcDbEntity
  8
0
100
AcDbSpline
 62
7
  6
BYLAYER
 70
0
 71
3
 72
21
 73
17
 74
0
 42
0.0000001
 43
0.0000001
 44
0.0000000001
 40
0.0
 40
0.0
 40
0.0
 40
0.0
 40
0.0553615766
 40
0.1051984648
 40
0.1512528944
 40
0.1961980307
 40
0.2430626887
 40
0.2942990999
 40
0.3220712031
 40
0.3513598047
 40
0.4144362623
 40
0.4831177356
 40
0.5563423418
 40
0.7101515759
 40
0.8624541292
 40
1.0
 40
1.0
 40
1.0
 40
1.0
 10
82.5471164327
 20
100.198034669
 30
0.0
 10
82.508021793
 20
100.4581093523
 30
0.0
 10
82.3889907403
 20
100.9478910853
 30
0.0
 10
82.0570973385
 20
101.5941948557
 30
0.0
 10
81.586594106
 20
102.0852287675
 30
0.0
 10
80.9941827291
 20
102.3916339093
 30
0.0
 10
80.3127506287
 20
102.4983556793
 30
0.0
 10
79.7127103596
 20
102.4262286603
 30
0.0
 10
79.2179323225
 20
102.2830612322
 30
0.0
 10
78.6874277283
 20
102.0702228226
 30
0.0
 10
78.0199203051
 20
101.6887171608
 30
0.0
 10
77.2523413957
 20
101.0847776354
 30
0.0
 10
76.2654699351
 20
100.0808290453
 30
0.0
 10
75.2320098484
 20
98.5850219928
 30
0.0
 10
74.4103067508
 20
96.6299002232
 30
0.0
 10
74.1774666477
 20
95.2516591062
 30
0.0
 10
74.1774666477
 20
94.5982437983
 30
0.0
  0
SPLINE
  5
2E2
100
AcDbEntity
  8
0
100
AcDbSpline
 62
7
  6
BYLAYER
 70
0
 71
3
 72
17
 73
13
 74
0
 42
0.0000001
 43
0.0000001
 44
0.0000000001
 40
0.0
 40
0.0
 40
0.0
 40
0.0
 40
0.0428590154
 40
0.087484945
 40
0.1353191404
 40
0.1872810096
 40
0.3045411455
 40
0.4382064078
 40
0.5825480614
 40
0.7297123844
 40
0.8713056989
 40
1.0
 40
1.0
 40
1.0
 40
1.0
 10
85.0487226517
 20
98.6104299936
 30
0.0
 10
84.9328826594
 20
98.6773203961
 30
0.0
 10
84.6774927399
 20
98.7833648977
 30
0.0
 10
84.25599496
 20
98.845228448
 30
0.0
 10
83.803319838
 20
98.811871751
 30
0.0
 10
83.1455936351
 20
98.6369308872
 30
0.0
 10
82.3047938252
 20
98.1771655507
 30
0.0
 10
81.3758446178
 20
97.354470655
 30
0.0
 10
80.5546564821
 20
96.3034120372
 30
0.0
 10
79.9083917409
 20
95.1088742468
 30
0.0
 10
79.4889465402
 20
93.8688405591
 30
0.0
 10
79.3765896001
 20
93.0242908851
 30
0.0
 10
79.3765896001
 20
92.6226281925
 30
0.0
  0
SPLINE
  5
2E3
100
AcDbEntity
  8
0
100
AcDbSpline
 62
7
  6
BYLAYER
 70
0
 71
3
 72
17
 73
13
 74
0
 42
0.0000001
 43
0.0000001
 44
0.0000000001
 40
0.0
 40
0.0
 40
0.0
 40
0.0
 40
0.1286933065
 40
0.2702801751
 40
0.4174384432
 40
0.5617797022
 40
0.6954488753
 40
0.8127120148
 40
0.8646745954
 40
0.9125103814
 40
0.9571382807
 40
1.0
 40
1.0
 40
1.0
 40
1.0
 10
75.0660487156
 20
95.1112638321
 30
0.0
 10
75.0660487156
 20
95.5129233773
 30
0.0
 10
75.1784004589
 20
96.3574499453
 30
0.0
 10
75.5978260604
 20
97.5974449066
 30
0.0
 10
76.2440550138
 20
98.7919549262
 30
0.0
 10
77.0652214467
 20
99.843021397
 30
0.0
 10
77.994170615
 20
100.6657424408
 30
0.0
 10
78.8349794482
 20
101.1255510509
 30
0.0
 10
79.4927221619
 20
101.3004851291
 30
0.0
 10
79.9454096331
 20
101.3338756807
 30
0.0
 10
80.3669237737
 20
101.2719947571
 30
0.0
 10
80.6223357268
 20
101.1659624971
 30
0.0
 10
80.738178937
 20
101.0990608201
 30
0.0
  0
SPLINE
  5
2E4
100
AcDbEntity
  8
0
100
AcDbSpline
 62
7
  6
BYLAYER
 70
0
 71
3
 72
11
 73
7
 74
0
 42
0.0000001
 43
0.0000001
 44
0.0000000001
 40
0.0
 40
0.0
 40
0.0
 40
0.0
 40
0.2897026209
 40
0.5490908265
 40
0.782219764
 40
1.0
 40
1.0
 40
1.0
 40
1.0
 10
79.3765896001
 20
92.6226281925
 30
0.0
 10
79.3765896001
 20
92.3845383457
 30
0.0
 10
79.412687069
 20
91.9317400706
 30
0.0
 10
79.5960548883
 20
91.3096150209
 30
0.0
 10
79.9048080689
 20
90.8047976415
 30
0.0
 10
80.1948222052
 20
90.5610056337
 30
0.0
 10
80.3498184107
 20
90.4715049495
 30
0.0
  0
SPLINE
  5
2E5
100
AcDbEntity
  8
0
100
AcDbSpline
 62
7
  6
BYLAYER
 70
0
 71
3
 72
11
 73
7
 74
0
 42
0.0000001
 43
0.0000001
 44
0.0000000001
 40
0.0
 40
0.0
 40
0.0
 40
0.0
 40
0.2177648073
 40
0.4508950352
 40
0.7103684932
 40
1.0
 40
1.0
 40
1.0
 40
1.0
 10
88.25045795
 20
136.2262851915
 30
0.0
 10
88.2505098237
 20
136.3568781032
 30
0.0
 10
88.2985656583
 20
136.6291090899
 30
0.0
 10
88.5050508572
 20
137.0084308283
 30
0.0
 10
88.8313427685
 20
137.3512290677
 30
0.0
 10
89.1042856318
 20
137.5392977726
 30
0.0
 10
89.2547068244
 20
137.6261429702
 30
0.0
  0
SPLINE
  5
2E6
100
AcDbEntity
  8
0
100
AcDbSpline
 62
7
  6
BYLAYER
 70
0
 71
3
 72
11
 73
7
 74
0
 42
0.0000001
 43
0.0000001
 44
0.0000000001
 40
0.0
 40
0.0
 40
0.0
 40
0.0
 40
0.2177830968
 40
0.450915839
 40
0.7103069095
 40
1.0
 40
1.0
 40
1.0
 40
1.0
 10
76.0392803564
 20
92.9601454021
 30
0.0
 10
75.8842877036
 20
93.0496566335
 30
0.0
 10
75.5942565161
 20
93.2934327763
 30
0.0
 10
75.2855115116
 20
93.7982692363
 30
0.0
 10
75.1021451794
 20
94.4203890025
 30
0.0
 10
75.0660487156
 20
94.8731820215
 30
0.0
 10
75.0660487156
 20
95.1112638321
 30
0.0
  0
SPLINE
  5
2E7
100
AcDbEntity
  8
0
100
AcDbSpline
 62
7
  6
BYLAYER
 70
0
 71
3
 72
18
 73
14
 74
0
 42
0.0000001
 43
0.0000001
 44
0.0000000001
 40
0.0
 40
0.0
 40
0.0
 40
0.0
 40
0.042848479
 40
0.0874656906
 40
0.1352870994
 40
0.1872387014
 40
0.2437300298
 40
0.3047361825
 40
0.4383720352
 40
0.5826803859
 40
0.7297975493
 40
0.87134574
 40
1.0
 40
1.0
 40
1.0
 40
1.0
 10
81.8104604934
 20
107.5190023678
 30
0.0
 10
81.5443403195
 20
107.6726828294
 30
0.0
 10
80.9576426308
 20
107.9164125715
 30
0.0
 10
79.9892691036
 20
108.0584324725
 30
0.0
 10
78.9493363938
 20
107.9818601316
 30
0.0
 10
77.8610370349
 20
107.6926293719
 30
0.0
 10
76.7455658874
 20
107.1997282392
 30
0.0
 10
75.2057271442
 20
106.2572476504
 30
0.0
 10
73.3714219967
 20
104.6325620608
 30
0.0
 10
71.4863293744
 20
102.2191013446
 30
0.0
 10
70.0013089983
 20
99.4746020378
 30
0.0
 10
69.0380450035
 20
96.6260356848
 30
0.0
 10
68.7798791519
 20
94.6859338023
 30
0.0
 10
68.7798791519
 20
93.7632321382
 30
0.0
  0
SPLINE
  5
2E8
100
AcDbEntity
  8
0
100
AcDbSpline
 62
7
  6
BYLAYER
 70
0
 71
3
 72
11
 73
7
 74
0
 42
0.0000001
 43
0.0000001
 44
0.0000000001
 40
0.0
 40
0.0
 40
0.0
 40
0.0
 40
0.2177648073
 40
0.4508950352
 40
0.7103684932
 40
1.0
 40
1.0
 40
1.0
 40
1.0
 10
135.4861841533
 20
194.6058861682
 30
0.0
 10
135.486236027
 20
194.7364790799
 30
0.0
 10
135.5342918616
 20
195.0087100665
 30
0.0
 10
135.7407770605
 20
195.388031805
 30
0.0
 10
136.0670689718
 20
195.7308300444
 30
0.0
 10
136.3400118351
 20
195.9188987492
 30
0.0
 10
136.4904330277
 20
196.0057439468
 30
0.0
  0
SPLINE
  5
2E9
100
AcDbEntity
  8
0
100
AcDbSpline
 62
7
  6
BYLAYER
 70
0
 71
3
 72
11
 73
7
 74
0
 42
0.0000001
 43
0.0000001
 44
0.0000000001
 40
0.0
 40
0.0
 40
0.0
 40
0.0
 40
0.2177703661
 40
0.450943491
 40
0.7102023679
 40
1.0
 40
1.0
 40
1.0
 40
1.0
 10
64.9090719109
 20
92.3470234617
 30
0.0
 10
64.5530140352
 20
92.5526317373
 30
0.0
 10
63.8865491147
 20
93.1125822785
 30
0.0
 10
63.1776308326
 20
94.2723526809
 30
0.0
 10
62.7559280331
 20
95.7014298837
 30
0.0
 10
62.6732795655
 20
96.7416495832
 30
0.0
 10
62.6732795655
 20
97.2887992942
 30
0.0
  0
SPLINE
  5
2EA
100
AcDbEntity
  8
0
100
AcDbSpline
 62
7
  6
BYLAYER
 70
0
 71
3
 72
9
 73
5
 74
0
 42
0.0000001
 43
0.0000001
 44
0.0000000001
 40
0.0
 40
0.0
 40
0.0
 40
0.0
 40
0.2398570055
 40
1.0
 40
1.0
 40
1.0
 40
1.0
 10
57.0651445749
 20
90.7021636358
 30
0.0
 10
57.0370140438
 20
90.6610735146
 30
0.0
 10
56.9268097621
 20
90.4849404782
 30
0.0
 10
56.8450112946
 20
90.2917240825
 30
0.0
 10
56.797270513
 20
90.1413047547
 30
0.0
  0
SPLINE
  5
2EB
100
AcDbEntity
  8
0
100
AcDbSpline
 62
7
  6
BYLAYER
 70
0
 71
3
 72
9
 73
5
 74
0
 42
0.0000001
 43
0.0000001
 44
0.0000000001
 40
0.0
 40
0.0
 40
0.0
 40
0.0
 40
0.4789348529
 40
1.0
 40
1.0
 40
1.0
 40
1.0
 10
36.608597365
 20
102.8665539827
 30
0.0
 10
36.5011547456
 20
102.759114491
 30
0.0
 10
36.3089595316
 20
102.5013215196
 30
0.0
 10
36.1858221893
 20
102.2058828771
 30
0.0
 10
36.1369962549
 20
102.047947318
 30
0.0
  0
SPLINE
  5
2EC
100
AcDbEntity
  8
0
100
AcDbSpline
 62
7
  6
BYLAYER
 70
0
 71
3
 72
11
 73
7
 74
0
 42
0.0000001
 43
0.0000001
 44
0.0000000001
 40
0.0
 40
0.0
 40
0.0
 40
0.0
 40
0.2177728947
 40
0.4509002595
 40
0.7103630724
 40
1.0
 40
1.0
 40
1.0
 40
1.0
 10
163.3680977564
 20
178.4909193317
 30
0.0
 10
163.368137738
 20
178.5856757678
 30
0.0
 10
163.4030174976
 20
178.7831956456
 30
0.0
 10
163.5528328213
 20
179.0584125807
 30
0.0
 10
163.7895751512
 20
179.30713089
 30
0.0
 10
163.987611748
 20
179.4435812259
 30
0.0
 10
164.0967533048
 20
179.506593757
 30
0.0
  0
SPLINE
  5
2ED
100
AcDbEntity
  8
0
100
AcDbSpline
 62
7
  6
BYLAYER
 70
0
 71
3
 72
9
 73
5
 74
0
 42
0.0000001
 43
0.0000001
 44
0.0000000001
 40
0.0
 40
0.0
 40
0.0
 40
0.0
 40
0.5231801743
 40
1.0
 40
1.0
 40
1.0
 40
1.0
 10
60.6996751401
 20
107.1870353919
 30
0.0
 10
60.8867300489
 20
107.1436134967
 30
0.0
 10
61.2557156742
 20
107.0994270293
 30
0.0
 10
61.6241632926
 20
107.1652243171
 30
0.0
 10
61.7884961834
 20
107.2254245839
 30
0.0
  0
SPLINE
  5
2EE
100
AcDbEntity
  8
0
100
AcDbSpline
 62
7
  6
BYLAYER
 70
0
 71
3
 72
11
 73
7
 74
0
 42
0.0000001
 43
0.0000001
 44
0.0000000001
 40
0.0
 40
0.0
 40
0.0
 40
0.0
 40
0.2897016594
 40
0.5490895814
 40
0.7822189142
 40
1.0
 40
1.0
 40
1.0
 40
1.0
 10
62.493671452
 20
109.6285909981
 30
0.0
 10
62.493671452
 20
109.4355460479
 30
0.0
 10
62.4644032039
 20
109.0684135819
 30
0.0
 10
62.3157267376
 20
108.5639890941
 30
0.0
 10
62.0653867073
 20
108.1546775029
 30
0.0
 10
61.8302407841
 20
107.9570070338
 30
0.0
 10
61.7045683713
 20
107.8844378035
 30
0.0
  0
SPLINE
  5
2EF
100
AcDbEntity
  8
0
100
AcDbSpline
 62
7
  6
BYLAYER
 70
0
 71
3
 72
11
 73
7
 74
0
 42
0.0000001
 43
0.0000001
 44
0.0000000001
 40
0.0
 40
0.0
 40
0.0
 40
0.0
 40
0.2897048042
 40
0.5490913406
 40
0.7822177949
 40
1.0
 40
1.0
 40
1.0
 40
1.0
 10
180.2244339895
 20
174.6968176806
 30
0.0
 10
180.335885666
 20
174.761163952
 30
0.0
 10
180.5380871023
 20
174.9004340623
 30
0.0
 10
180.7797459914
 20
175.1544065413
 30
0.0
 10
180.9326114826
 20
175.4353616364
 30
0.0
 10
180.9683626413
 20
175.6370056549
 30
0.0
 10
180.9683626234
 20
175.7337492049
 30
0.0
  0
SPLINE
  5
2F0
100
AcDbEntity
  8
0
100
AcDbSpline
 62
7
  6
BYLAYER
 70
0
 71
3
 72
17
 73
13
 74
0
 42
0.0000001
 43
0.0000001
 44
0.0000000001
 40
0.0
 40
0.0
 40
0.0
 40
0.0
 40
0.1286930371
 40
0.2702795962
 40
0.4174375935
 40
0.5617786795
 40
0.6954478243
 40
0.81271112
 40
0.8646738576
 40
0.9125098523
 40
0.9571380034
 40
1.0
 40
1.0
 40
1.0
 40
1.0
 10
61.4160452041
 20
109.0064269076
 30
0.0
 10
61.4160452041
 20
109.3320972697
 30
0.0
 10
61.3249481355
 20
110.0168494989
 30
0.0
 10
60.9848692234
 20
111.0222512014
 30
0.0
 10
60.4608936272
 20
111.9907718348
 30
0.0
 10
59.7950753727
 20
112.8429853398
 30
0.0
 10
59.0418650131
 20
113.5100523569
 30
0.0
 10
58.3601213032
 20
113.8828650463
 30
0.0
 10
57.8268117641
 20
114.0246987571
 30
0.0
 10
57.4597647421
 20
114.0517686077
 30
0.0
 10
57.117993968
 20
114.0015911595
 30
0.0
 10
56.9109019454
 20
113.9156165738
 30
0.0
 10
56.8169744743
 20
113.8613707489
 30
0.0
  0
SPLINE
  5
2F1
100
AcDbEntity
  8
0
100
AcDbSpline
 62
7
  6
BYLAYER
 70
0
 71
3
 72
11
 73
7
 74
0
 42
0.0000001
 43
0.0000001
 44
0.0000000001
 40
0.0
 40
0.0
 40
0.0
 40
0.0
 40
0.28970066
 40
0.5490882258
 40
0.7822179595
 40
1.0
 40
1.0
 40
1.0
 40
1.0
 10
58.7219571513
 20
89.8226627873
 30
0.0
 10
58.5547794206
 20
89.9191807116
 30
0.0
 10
58.2222074781
 20
90.0773920986
 30
0.0
 10
57.7110381789
 20
90.2008390816
 30
0.0
 10
57.2314063277
 20
90.1886918941
 30
0.0
 10
56.9426527508
 20
90.0838876308
 30
0.0
 10
56.816972168
 20
90.0113390376
 30
0.0
  0
SPLINE
  5
2F2
100
AcDbEntity
  8
0
100
AcDbSpline
 62
7
  6
BYLAYER
 70
0
 71
3
 72
11
 73
7
 74
0
 42
0.0000001
 43
0.0000001
 44
0.0000000001
 40
0.0
 40
0.0
 40
0.0
 40
0.0
 40
0.2177732482
 40
0.4509008352
 40
0.7103635849
 40
1.0
 40
1.0
 40
1.0
 40
1.0
 10
110.3980073041
 20
129.3288373709
 30
0.0
 10
110.4800524371
 20
129.281423492
 30
0.0
 10
110.6336768761
 20
129.1524531946
 30
0.0
 10
110.7971223072
 20
128.8850919289
 30
0.0
 10
110.8941529942
 20
128.5556963311
 30
0.0
 10
110.9133057356
 20
128.3159578224
 30
0.0
 10
110.9133057356
 20
128.1899277393
 30
0.0
  0
SPLINE
  5
2F3
100
AcDbEntity
  8
0
100
AcDbSpline
 62
7
  6
BYLAYER
 70
0
 71
3
 72
9
 73
5
 74
0
 42
0.0000001
 43
0.0000001
 44
0.0000000001
 40
0.0
 40
0.0
 40
0.0
 40
0.0
 40
0.4744802416
 40
1.0
 40
1.0
 40
1.0
 40
1.0
 10
40.7613701326
 20
97.0811037428
 30
0.0
 10
40.7613701326
 20
97.5227588817
 30
0.0
 10
40.5958878185
 20
98.4538905394
 30
0.0
 10
40.2168540826
 20
99.3127551405
 30
0.0
 10
39.9722816688
 20
99.7363887581
 30
0.0
  0
SPLINE
  5
2F4
100
AcDbEntity
  8
0
100
AcDbSpline
 62
7
  6
BYLAYER
 70
0
 71
3
 72
14
 73
10
 74
0
 42
0.0000001
 43
0.0000001
 44
0.0000000001
 40
0.0
 40
0.0
 40
0.0
 40
0.0
 40
0.3060700106
 40
0.4498381473
 40
0.5830827186
 40
0.7039023897
 40
0.811985189
 40
0.9092029162
 40
1.0
 40
1.0
 40
1.0
 40
1.0
 10
39.9722816688
 20
99.7363887581
 30
0.0
 10
39.7276987397
 20
100.1600405895
 30
0.0
 10
39.29793086
 20
100.7473641923
 30
0.0
 10
38.6159683379
 20
101.3855129432
 30
0.0
 10
38.0932288398
 20
101.7520097711
 30
0.0
 10
37.5676491698
 20
102.0021266024
 30
0.0
 10
37.0563228515
 20
102.1254456318
 30
0.0
 10
36.5767807619
 20
102.1134459587
 30
0.0
 10
36.2879663438
 20
102.0086238687
 30
0.0
 10
36.1622994028
 20
101.936047584
 30
0.0
  0
SPLINE
  5
2F5
100
AcDbEntity
  8
0
100
AcDbSpline
 62
7
  6
BYLAYER
 70
0
 71
3
 72
9
 73
5
 74
0
 42
0.0000001
 43
0.0000001
 44
0.0000000001
 40
0.0
 40
0.0
 40
0.0
 40
0.0
 40
0.2642822276
 40
1.0
 40
1.0
 40
1.0
 40
1.0
 10
35.7323990374
 20
112.8427720414
 30
0.0
 10
35.7323990374
 20
112.6479494152
 30
0.0
 10
35.7535309239
 20
111.911225671
 30
0.0
 10
35.8634363738
 20
111.1747725294
 30
0.0
 10
36.0087160166
 20
110.6522388344
 30
0.0
  0
SPLINE
  5
2F6
100
AcDbEntity
  8
0
100
AcDbSpline
 62
7
  6
BYLAYER
 70
0
 71
3
 72
9
 73
5
 74
0
 42
0.0000001
 43
0.0000001
 44
0.0000000001
 40
0.0
 40
0.0
 40
0.0
 40
0.0
 40
0.2606570865
 40
1.0
 40
1.0
 40
1.0
 40
1.0
 10
36.0087160166
 20
115.3523667085
 30
0.0
 10
35.9634935852
 20
115.137495142
 30
0.0
 10
35.8090028314
 20
114.3094240041
 30
0.0
 10
35.7323990374
 20
113.465598173
 30
0.0
 10
35.7323990374
 20
112.8427720414
 30
0.0
  0
SPLINE
  5
2F7
100
AcDbEntity
  8
0
100
AcDbSpline
 62
7
  6
BYLAYER
 70
0
 71
3
 72
11
 73
7
 74
0
 42
0.0000001
 43
0.0000001
 44
0.0000000001
 40
0.0
 40
0.0
 40
0.0
 40
0.0
 40
0.28970066
 40
0.5490882258
 40
0.7822179595
 40
1.0
 40
1.0
 40
1.0
 40
1.0
 10
38.0672820798
 20
125.5974108312
 30
0.0
 10
37.9001043491
 20
125.6939287555
 30
0.0
 10
37.5675324065
 20
125.8521401425
 30
0.0
 10
37.0563631073
 20
125.9755871255
 30
0.0
 10
36.5767312562
 20
125.963439938
 30
0.0
 10
36.2879776793
 20
125.8586356747
 30
0.0
 10
36.1622970965
 20
125.7860870815
 30
0.0
  0
SPLINE
  5
2F8
100
AcDbEntity
  8
0
100
AcDbSpline
 62
7
  6
BYLAYER
 70
0
 71
3
 72
15
 73
11
 74
0
 42
0.0000001
 43
0.0000001
 44
0.0000000001
 40
0.0
 40
0.0
 40
0.0
 40
0.0
 40
0.1448967085
 40
0.2745230618
 40
0.3911055676
 40
0.4999908788
 40
0.6088754708
 40
0.7254426166
 40
0.8551816075
 40
1.0
 40
1.0
 40
1.0
 40
1.0
 10
109.6398759908
 20
129.4860637337
 30
0.0
 10
109.7792356142
 20
129.5665272787
 30
0.0
 10
110.0563444289
 20
129.6984547511
 30
0.0
 10
110.4822588236
 20
129.8012777812
 30
0.0
 10
110.8821694441
 20
129.7910798013
 30
0.0
 10
111.2380985091
 20
129.662015311
 30
0.0
 10
111.5278789477
 20
129.4183791055
 30
0.0
 10
111.736757029
 20
129.0770556012
 30
0.0
 10
111.8604986068
 20
128.6567248351
 30
0.0
 10
111.8849694479
 20
128.3507638446
 30
0.0
 10
111.8849694479
 20
128.1899300749
 30
0.0
  0
SPLINE
  5
2F9
100
AcDbEntity
  8
0
100
AcDbSpline
 62
7
  6
BYLAYER
 70
0
 71
3
 72
11
 73
7
 74
0
 42
0.0000001
 43
0.0000001
 44
0.0000000001
 40
0.0
 40
0.0
 40
0.0
 40
0.0
 40
0.2372405737
 40
0.5000004574
 40
0.7627600882
 40
1.0
 40
1.0
 40
1.0
 40
1.0
 10
95.6307585729
 20
127.9308082593
 30
0.0
 10
95.885748732
 20
127.7835929531
 30
0.0
 10
96.478723012
 20
127.5687719665
 30
0.0
 10
97.4268124165
 20
127.4658517318
 30
0.0
 10
98.3749005279
 20
127.5687762119
 30
0.0
 10
98.9678726625
 20
127.7836001594
 30
0.0
 10
99.2228610485
 20
127.9308168937
 30
0.0
  0
SPLINE
  5
2FA
100
AcDbEntity
  8
0
100
AcDbSpline
 62
7
  6
BYLAYER
 70
0
 71
3
 72
11
 73
7
 74
0
 42
0.0000001
 43
0.0000001
 44
0.0000000001
 40
0.0
 40
0.0
 40
0.0
 40
0.0
 40
0.2177849011
 40
0.4509184398
 40
0.7103088704
 40
1.0
 40
1.0
 40
1.0
 40
1.0
 10
37.239925578
 20
126.4082472309
 30
0.0
 10
37.3656121242
 20
126.4807890571
 30
0.0
 10
37.6543614749
 20
126.585611725
 30
0.0
 10
38.1340034088
 20
126.5977454354
 30
0.0
 10
38.6451683955
 20
126.4742995502
 30
0.0
 10
38.9777362398
 20
126.3160895882
 30
0.0
 10
39.1449083277
 20
126.2195749217
 30
0.0
  0
SPLINE
  5
2FB
100
AcDbEntity
  8
0
100
AcDbSpline
 62
7
  6
BYLAYER
 70
0
 71
3
 72
11
 73
7
 74
0
 42
0.0000001
 43
0.0000001
 44
0.0000000001
 40
0.0
 40
0.0
 40
0.0
 40
0.0
 40
0.2177732482
 40
0.4509008352
 40
0.7103635849
 40
1.0
 40
1.0
 40
1.0
 40
1.0
 10
164.2793196998
 20
137.6239643613
 30
0.0
 10
164.3613648328
 20
137.5765504824
 30
0.0
 10
164.5149892718
 20
137.447580185
 30
0.0
 10
164.6784347029
 20
137.1802189193
 30
0.0
 10
164.7754653898
 20
136.8508233215
 30
0.0
 10
164.7946181313
 20
136.6110848128
 30
0.0
 10
164.7946181313
 20
136.4850547297
 30
0.0
  0
SPLINE
  5
2FC
100
AcDbEntity
  8
0
100
AcDbSpline
 62
7
  6
BYLAYER
 70
0
 71
3
 72
11
 73
7
 74
0
 42
0.0000001
 43
0.0000001
 44
0.0000000001
 40
0.0
 40
0.0
 40
0.0
 40
0.0
 40
0.2897048042
 40
0.5490913406
 40
0.7822177949
 40
1.0
 40
1.0
 40
1.0
 40
1.0
 10
180.2244339895
 20
139.4402433089
 30
0.0
 10
180.335885666
 20
139.5045895803
 30
0.0
 10
180.5380871023
 20
139.6438596907
 30
0.0
 10
180.7797459914
 20
139.8978321697
 30
0.0
 10
180.9326114826
 20
140.1787872647
 30
0.0
 10
180.9683626413
 20
140.3804312832
 30
0.0
 10
180.9683626234
 20
140.4771748332
 30
0.0
  0
SPLINE
  5
2FD
100
AcDbEntity
  8
0
100
AcDbSpline
 62
7
  6
BYLAYER
 70
0
 71
3
 72
11
 73
7
 74
0
 42
0.0000001
 43
0.0000001
 44
0.0000000001
 40
0.0
 40
0.0
 40
0.0
 40
0.0
 40
0.2372405737
 40
0.5000004574
 40
0.7627600882
 40
1.0
 40
1.0
 40
1.0
 40
1.0
 10
95.6307585729
 20
92.6742338877
 30
0.0
 10
95.885748732
 20
92.5270185814
 30
0.0
 10
96.478723012
 20
92.3121975949
 30
0.0
 10
97.4268124165
 20
92.2092773602
 30
0.0
 10
98.3749005279
 20
92.3122018403
 30
0.0
 10
98.9678726625
 20
92.5270257878
 30
0.0
 10
99.2228610485
 20
92.674242522
 30
0.0
  0
SPLINE
  5
2FE
100
AcDbEntity
  8
0
100
AcDbSpline
 62
7
  6
BYLAYER
 70
0
 71
3
 72
17
 73
13
 74
0
 42
0.0000001
 43
0.0000001
 44
0.0000000001
 40
0.0
 40
0.0
 40
0.0
 40
0.0
 40
0.0428593081
 40
0.0874855299
 40
0.1353200167
 40
0.1872821703
 40
0.3045428223
 40
0.4382084491
 40
0.5825501939
 40
0.7297142242
 40
0.871306808
 40
1.0
 40
1.0
 40
1.0
 40
1.0
 10
39.9722670631
 20
119.1869861623
 30
0.0
 10
40.0662008251
 20
119.2412090354
 30
0.0
 10
40.2442046258
 20
119.3775486162
 30
0.0
 10
40.4585285724
 20
119.6484392787
 30
0.0
 10
40.6186294969
 20
119.9798265845
 30
0.0
 10
40.7624430021
 20
120.5125992588
 30
0.0
 10
40.7804766089
 20
121.2893968625
 30
0.0
 10
40.5794011754
 20
122.2752285781
 30
0.0
 10
40.1742820399
 20
123.2779712839
 30
0.0
 10
39.597496097
 20
124.2160495916
 30
0.0
 10
38.8968074765
 20
125.0132978778
 30
0.0
 10
38.3493248372
 20
125.4345770531
 30
0.0
 10
38.0672820798
 20
125.5974108312
 30
0.0
  0
SPLINE
  5
2FF
100
AcDbEntity
  8
0
100
AcDbSpline
 62
7
  6
BYLAYER
 70
0
 71
3
 72
17
 73
13
 74
0
 42
0.0000001
 43
0.0000001
 44
0.0000000001
 40
0.0
 40
0.0
 40
0.0
 40
0.0
 40
0.1286891333
 40
0.2702803493
 40
0.4174326844
 40
0.5617743804
 40
0.6954465661
 40
0.8127104963
 40
0.8646756522
 40
0.91250911
 40
0.9571392634
 40
1.0
 40
1.0
 40
1.0
 40
1.0
 10
111.9747716352
 20
105.4286995478
 30
0.0
 10
111.9747716352
 20
105.146461793
 30
0.0
 10
111.8958118254
 20
104.5530140268
 30
0.0
 10
111.6011219343
 20
103.6816667148
 30
0.0
 10
111.1470050535
 20
102.8422890663
 30
0.0
 10
110.5699861134
 20
102.1037003106
 30
0.0
 10
109.9172053183
 20
101.5255578918
 30
0.0
 10
109.3263473817
 20
101.2024688646
 30
0.0
 10
108.8641485746
 20
101.0795223707
 30
0.0
 10
108.5460417792
 20
101.0560954342
 30
0.0
 10
108.249831431
 20
101.0995046143
 30
0.0
 10
108.0703666815
 20
101.1740730354
 30
0.0
 10
107.9889775713
 20
101.2211051161
 30
0.0
  0
SPLINE
  5
300
100
AcDbEntity
  8
0
100
AcDbSpline
 62
7
  6
BYLAYER
 70
0
 71
3
 72
11
 73
7
 74
0
 42
0.0000001
 43
0.0000001
 44
0.0000000001
 40
0.0
 40
0.0
 40
0.0
 40
0.0
 40
0.2177839466
 40
0.4509170841
 40
0.710307871
 40
1.0
 40
1.0
 40
1.0
 40
1.0
 10
39.9722647568
 20
95.3369544511
 30
0.0
 10
40.0979342894
 20
95.4095322325
 30
0.0
 10
40.333094038
 20
95.6071898383
 30
0.0
 10
40.5834274389
 20
96.0165169002
 30
0.0
 10
40.7321026994
 20
96.5209371042
 30
0.0
 10
40.7613701326
 20
96.8880653085
 30
0.0
 10
40.7613701326
 20
97.0811037428
 30
0.0
  0
SPLINE
  5
301
100
AcDbEntity
  8
0
100
AcDbSpline
 62
7
  6
BYLAYER
 70
0
 71
3
 72
11
 73
7
 74
0
 42
0.0000001
 43
0.0000001
 44
0.0000000001
 40
0.0
 40
0.0
 40
0.0
 40
0.0
 40
0.2372398079
 40
0.4999994051
 40
0.7627593222
 40
1.0
 40
1.0
 40
1.0
 40
1.0
 10
99.2049004461
 20
92.6846118304
 30
0.0
 10
98.9524620568
 20
92.5388673286
 30
0.0
 10
98.3654198327
 20
92.3261916413
 30
0.0
 10
97.4268127474
 20
92.2242963276
 30
0.0
 10
96.4882041095
 20
92.3261872776
 30
0.0
 10
95.9011593917
 20
92.5388600666
 30
0.0
 10
95.6487190258
 20
92.6846032824
 30
0.0
  0
SPLINE
  5
302
100
AcDbEntity
  8
0
100
AcDbSpline
 62
7
  6
BYLAYER
 70
0
 71
3
 72
9
 73
5
 74
0
 42
0.0000001
 43
0.0000001
 44
0.0000000001
 40
0.0
 40
0.0
 40
0.0
 40
0.0
 40
0.4886155421
 40
1.0
 40
1.0
 40
1.0
 40
1.0
 10
37.2399233556
 20
102.5582155775
 30
0.0
 10
37.3401541776
 20
102.6160936229
 30
0.0
 10
37.5627867623
 20
102.7062475829
 30
0.0
 10
37.8005605894
 20
102.7352544818
 30
0.0
 10
37.921688309
 20
102.7365714304
 30
0.0
  0
SPLINE
  5
303
100
AcDbEntity
  8
0
100
AcDbSpline
 62
7
  6
BYLAYER
 70
0
 71
3
 72
16
 73
12
 74
0
 42
0.0000001
 43
0.0000001
 44
0.0000000001
 40
0.0
 40
0.0
 40
0.0
 40
0.0
 40
0.1287391825
 40
0.2703898432
 40
0.4176123017
 40
0.5620216096
 40
0.6957509555
 40
0.8130665834
 40
0.9124728226
 40
0.9571216107
 40
1.0
 40
1.0
 40
1.0
 40
1.0
 10
164.0967533048
 20
179.506593757
 30
0.0
 10
164.2809115747
 20
179.6129169491
 30
0.0
 10
164.6978850523
 20
179.784959929
 30
0.0
 10
165.3774639216
 20
179.9209497523
 30
0.0
 10
166.096314391
 20
179.9408031351
 30
0.0
 10
166.7955092351
 20
179.8427171385
 30
0.0
 10
167.4191898892
 20
179.6339655739
 30
0.0
 10
167.9188942867
 20
179.3306986103
 30
0.0
 10
168.2100041845
 20
178.9964068491
 30
0.0
 10
168.3249557905
 20
178.7069372732
 30
0.0
 10
168.3439177342
 20
178.5617445112
 30
0.0
 10
168.3438878502
 20
178.4909193415
 30
0.0
  0
SPLINE
  5
304
100
AcDbEntity
  8
0
100
AcDbSpline
 62
7
  6
BYLAYER
 70
0
 71
3
 72
17
 73
13
 74
0
 42
0.0000001
 43
0.0000001
 44
0.0000000001
 40
0.0
 40
0.0
 40
0.0
 40
0.0
 40
0.1286891333
 40
0.2702803493
 40
0.4174326844
 40
0.5617743804
 40
0.6954465661
 40
0.8127104963
 40
0.8646756522
 40
0.91250911
 40
0.9571392634
 40
1.0
 40
1.0
 40
1.0
 40
1.0
 10
165.8560840309
 20
159.3499816074
 30
0.0
 10
165.8560840309
 20
159.0677438526
 30
0.0
 10
165.7771242211
 20
158.4742960864
 30
0.0
 10
165.48243433
 20
157.6029487744
 30
0.0
 10
165.0283174492
 20
156.7635711259
 30
0.0
 10
164.4512985091
 20
156.0249823702
 30
0.0
 10
163.798517714
 20
155.4468399514
 30
0.0
 10
163.2076597773
 20
155.1237509242
 30
0.0
 10
162.7454609703
 20
155.0008044303
 30
0.0
 10
162.4273541749
 20
154.9773774939
 30
0.0
 10
162.1311438267
 20
155.0207866739
 30
0.0
 10
161.9516790772
 20
155.095355095
 30
0.0
 10
161.870289967
 20
155.1423871757
 30
0.0
  0
SPLINE
  5
305
100
AcDbEntity
  8
0
100
AcDbSpline
 62
7
  6
BYLAYER
 70
0
 71
3
 72
9
 73
5
 74
0
 42
0.0000001
 43
0.0000001
 44
0.0000000001
 40
0.0
 40
0.0
 40
0.0
 40
0.0
 40
0.2690251998
 40
1.0
 40
1.0
 40
1.0
 40
1.0
 10
163.6109359852
 20
177.7558036349
 30
0.0
 10
163.547083338
 20
177.7926691377
 30
0.0
 10
163.3150442803
 20
177.9381834924
 30
0.0
 10
163.1043732558
 20
178.1214854077
 30
0.0
 10
162.978465987
 20
178.2773113455
 30
0.0
  0
SPLINE
  5
306
100
AcDbEntity
  8
0
100
AcDbSpline
 62
7
  6
BYLAYER
 70
0
 71
3
 72
12
 73
8
 74
0
 42
0.0000001
 43
0.0000001
 44
0.0000000001
 40
0.0
 40
0.0
 40
0.0
 40
0.0
 40
0.2396877667
 40
0.3517835732
 40
0.4646163783
 40
0.7094343592
 40
1.0
 40
1.0
 40
1.0
 40
1.0
 10
162.978465987
 20
178.2773113455
 30
0.0
 10
162.8528261526
 20
178.4328062999
 30
0.0
 10
162.7063488261
 20
178.7030866554
 30
0.0
 10
162.6692534292
 20
179.0929637429
 30
0.0
 10
162.73700666
 20
179.4835806437
 30
0.0
 10
163.0362107204
 20
179.9570751111
 30
0.0
 10
163.4010426378
 20
180.2269063511
 30
0.0
 10
163.610919426
 20
180.348078048
 30
0.0
  0
SPLINE
  5
307
100
AcDbEntity
  8
0
100
AcDbSpline
 62
7
  6
BYLAYER
 70
0
 71
3
 72
18
 73
14
 74
0
 42
0.0000001
 43
0.0000001
 44
0.0000000001
 40
0.0
 40
0.0
 40
0.0
 40
0.0
 40
0.135541272
 40
0.2853990134
 40
0.4386233957
 40
0.5833691867
 40
0.7099942735
 40
0.7652278268
 40
0.8153294089
 40
0.8615852822
 40
0.9061119115
 40
0.9514685027
 40
1.0
 40
1.0
 40
1.0
 40
1.0
 10
165.7662818436
 20
136.4850570653
 30
0.0
 10
165.7662818436
 20
136.1647376147
 30
0.0
 10
165.6609891269
 20
135.4895655445
 30
0.0
 10
165.2815338299
 20
134.5184589112
 30
0.0
 10
164.710370405
 20
133.6189574838
 30
0.0
 10
164.0103901348
 20
132.890801822
 30
0.0
 10
163.3480218497
 20
132.4704833302
 30
0.0
 10
162.8210624083
 20
132.3080231737
 30
0.0
 10
162.4608645618
 20
132.2768741819
 30
0.0
 10
162.1285283644
 20
132.3345337123
 30
0.0
 10
161.8371176922
 20
132.4823315082
 30
0.0
 10
161.599501655
 20
132.7136687566
 30
0.0
 10
161.4871760646
 20
132.9081749741
 30
0.0
 10
161.4409001282
 20
133.0131174965
 30
0.0
  0
SPLINE
  5
308
100
AcDbEntity
  8
0
100
AcDbSpline
 62
7
  6
BYLAYER
 70
0
 71
3
 72
9
 73
5
 74
0
 42
0.0000001
 43
0.0000001
 44
0.0000000001
 40
0.0
 40
0.0
 40
0.0
 40
0.0
 40
0.2437904603
 40
1.0
 40
1.0
 40
1.0
 40
1.0
 10
161.4409001282
 20
133.0131174965
 30
0.0
 10
161.4326017861
 20
133.0319361099
 30
0.0
 10
161.4000757745
 20
133.109790497
 30
0.0
 10
161.3735380471
 20
133.1901110887
 30
0.0
 10
161.3565806343
 20
133.2516126536
 30
0.0
  0
SPLINE
  5
309
100
AcDbEntity
  8
0
100
AcDbSpline
 62
7
  6
BYLAYER
 70
0
 71
3
 72
9
 73
5
 74
0
 42
0.0000001
 43
0.0000001
 44
0.0000000001
 40
0.0
 40
0.0
 40
0.0
 40
0.0
 40
0.2367161604
 40
1.0
 40
1.0
 40
1.0
 40
1.0
 10
161.3565806343
 20
133.2516126536
 30
0.0
 10
161.3430057734
 20
133.3008462955
 30
0.0
 10
161.2939894854
 20
133.5111134725
 30
0.0
 10
161.2761724773
 20
133.7280304397
 30
0.0
 10
161.2761724773
 20
133.8927066882
 30
0.0
  0
SPLINE
  5
30A
100
AcDbEntity
  8
0
100
AcDbSpline
 62
7
  6
BYLAYER
 70
0
 71
3
 72
17
 73
13
 74
0
 42
0.0000001
 43
0.0000001
 44
0.0000000001
 40
0.0
 40
0.0
 40
0.0
 40
0.0
 40
0.0428593081
 40
0.0874855299
 40
0.1353200167
 40
0.1872821703
 40
0.3045428223
 40
0.4382084491
 40
0.5825501939
 40
0.7297142242
 40
0.871306808
 40
1.0
 40
1.0
 40
1.0
 40
1.0
 10
60.6269421346
 20
83.4122381184
 30
0.0
 10
60.7208758967
 20
83.4664609915
 30
0.0
 10
60.8988796973
 20
83.6028005723
 30
0.0
 10
61.113203644
 20
83.8736912348
 30
0.0
 10
61.2733045685
 20
84.2050785406
 30
0.0
 10
61.4171180736
 20
84.7378512149
 30
0.0
 10
61.4351516804
 20
85.5146488186
 30
0.0
 10
61.234076247
 20
86.5004805342
 30
0.0
 10
60.8289571114
 20
87.50322324
 30
0.0
 10
60.2521711685
 20
88.4413015477
 30
0.0
 10
59.551482548
 20
89.2385498339
 30
0.0
 10
59.0039999087
 20
89.6598290092
 30
0.0
 10
58.7219571513
 20
89.8226627873
 30
0.0
  0
SPLINE
  5
30B
100
AcDbEntity
  8
0
100
AcDbSpline
 62
7
  6
BYLAYER
 70
0
 71
3
 72
18
 73
14
 74
0
 42
0.0000001
 43
0.0000001
 44
0.0000000001
 40
0.0
 40
0.0
 40
0.0
 40
0.0
 40
0.1368693646
 40
0.2883211872
 40
0.4422412635
 40
0.5857871313
 40
0.6505353193
 40
0.7095127224
 40
0.7627399141
 40
0.811089507
 40
0.8564434848
 40
0.9014540724
 40
1.0
 40
1.0
 40
1.0
 40
1.0
 10
62.4934321664
 20
153.0764225658
 30
0.0
 10
62.7833350221
 20
153.2437970584
 30
0.0
 10
63.4519629517
 20
153.4973134793
 30
0.0
 10
64.5301768122
 20
153.6468736332
 30
0.0
 10
65.633136223
 20
153.578170771
 30
0.0
 10
66.4954088473
 20
153.336767375
 30
0.0
 10
67.0773850018
 20
153.0342806041
 30
0.0
 10
67.4262397278
 20
152.7743332113
 30
0.0
 10
67.691398946
 20
152.4805047284
 30
0.0
 10
67.8627194923
 20
152.1597101346
 30
0.0
 10
67.9304315092
 20
151.8216438957
 30
0.0
 10
67.8741301085
 20
151.355848088
 30
0.0
 10
67.6677333629
 20
151.0458918433
 30
0.0
 10
67.4985408458
 20
150.8742390454
 30
0.0
  0
SPLINE
  5
30C
100
AcDbEntity
  8
0
100
AcDbSpline
 62
7
  6
BYLAYER
 70
0
 71
3
 72
9
 73
5
 74
0
 42
0.0000001
 43
0.0000001
 44
0.0000000001
 40
0.0
 40
0.0
 40
0.0
 40
0.0
 40
0.2367166705
 40
1.0
 40
1.0
 40
1.0
 40
1.0
 10
67.4985408458
 20
150.8742390454
 30
0.0
 10
67.462692773
 20
150.8378696946
 30
0.0
 10
67.3051144277
 20
150.6903016427
 30
0.0
 10
67.1261812178
 20
150.5664247575
 30
0.0
 10
66.9835789211
 20
150.4840937746
 30
0.0
  0
SPLINE
  5
30D
100
AcDbEntity
  8
0
100
AcDbSpline
 62
7
  6
BYLAYER
 70
0
 71
3
 72
18
 73
14
 74
0
 42
0.0000001
 43
0.0000001
 44
0.0000000001
 40
0.0
 40
0.0
 40
0.0
 40
0.0
 40
0.135541272
 40
0.2853990134
 40
0.4386233957
 40
0.5833691867
 40
0.7099942735
 40
0.7652278268
 40
0.8153294089
 40
0.8615852822
 40
0.9061119115
 40
0.9514685027
 40
1.0
 40
1.0
 40
1.0
 40
1.0
 10
111.8849694479
 20
128.1899300749
 30
0.0
 10
111.8849694479
 20
127.8696106243
 30
0.0
 10
111.7796767312
 20
127.1944385541
 30
0.0
 10
111.4002214342
 20
126.2233319208
 30
0.0
 10
110.8290580093
 20
125.3238304934
 30
0.0
 10
110.1290777391
 20
124.5956748316
 30
0.0
 10
109.466709454
 20
124.1753563398
 30
0.0
 10
108.9397500126
 20
124.0128961833
 30
0.0
 10
108.5795521661
 20
123.9817471915
 30
0.0
 10
108.2472159687
 20
124.0394067219
 30
0.0
 10
107.9558052965
 20
124.1872045178
 30
0.0
 10
107.7181892593
 20
124.4185417662
 30
0.0
 10
107.6058636689
 20
124.6130479837
 30
0.0
 10
107.5595877325
 20
124.7179905061
 30
0.0
  0
SPLINE
  5
30E
100
AcDbEntity
  8
0
100
AcDbSpline
 62
7
  6
BYLAYER
 70
0
 71
3
 72
9
 73
5
 74
0
 42
0.0000001
 43
0.0000001
 44
0.0000000001
 40
0.0
 40
0.0
 40
0.0
 40
0.0
 40
0.2437904603
 40
1.0
 40
1.0
 40
1.0
 40
1.0
 10
107.5595877325
 20
124.7179905061
 30
0.0
 10
107.5512893904
 20
124.7368091195
 30
0.0
 10
107.5187633788
 20
124.8146635066
 30
0.0
 10
107.4922256514
 20
124.8949840983
 30
0.0
 10
107.4752682386
 20
124.9564856632
 30
0.0
  0
SPLINE
  5
30F
100
AcDbEntity
  8
0
100
AcDbSpline
 62
7
  6
BYLAYER
 70
0
 71
3
 72
9
 73
5
 74
0
 42
0.0000001
 43
0.0000001
 44
0.0000000001
 40
0.0
 40
0.0
 40
0.0
 40
0.0
 40
0.2367161604
 40
1.0
 40
1.0
 40
1.0
 40
1.0
 10
107.4752682386
 20
124.9564856632
 30
0.0
 10
107.4616933777
 20
125.0057193051
 30
0.0
 10
107.4126770897
 20
125.2159864821
 30
0.0
 10
107.3948600816
 20
125.4329034493
 30
0.0
 10
107.3948600816
 20
125.5975796978
 30
0.0
  0
SPLINE
  5
310
100
AcDbEntity
  8
0
100
AcDbSpline
 62
7
  6
BYLAYER
 70
0
 71
3
 72
16
 73
12
 74
0
 42
0.0000001
 43
0.0000001
 44
0.0000000001
 40
0.0
 40
0.0
 40
0.0
 40
0.0
 40
0.1287391825
 40
0.2703898432
 40
0.4176123017
 40
0.5620216096
 40
0.6957509555
 40
0.8130665834
 40
0.9124728226
 40
0.9571216107
 40
1.0
 40
1.0
 40
1.0
 40
1.0
 10
62.9792660453
 20
152.2349382748
 30
0.0
 10
63.1634243152
 20
152.3412614669
 30
0.0
 10
63.5803977928
 20
152.5133044468
 30
0.0
 10
64.2599766621
 20
152.6492942701
 30
0.0
 10
64.9788271315
 20
152.6691476529
 30
0.0
 10
65.6780219756
 20
152.5710616563
 30
0.0
 10
66.3017026297
 20
152.3623100917
 30
0.0
 10
66.8014070272
 20
152.0590431281
 30
0.0
 10
67.092516925
 20
151.7247513669
 30
0.0
 10
67.207468531
 20
151.435281791
 30
0.0
 10
67.2264304747
 20
151.290089029
 30
0.0
 10
67.2264005907
 20
151.2192638593
 30
0.0
  0
SPLINE
  5
311
100
AcDbEntity
  8
0
100
AcDbSpline
 62
7
  6
BYLAYER
 70
0
 71
3
 72
16
 73
12
 74
0
 42
0.0000001
 43
0.0000001
 44
0.0000000001
 40
0.0
 40
0.0
 40
0.0
 40
0.0
 40
0.1287398675
 40
0.2703905098
 40
0.4176124377
 40
0.5620209942
 40
0.6957496987
 40
0.8130651175
 40
0.9124718085
 40
0.957121058
 40
1.0
 40
1.0
 40
1.0
 40
1.0
 10
110.9133057356
 20
128.1899277393
 30
0.0
 10
110.9133057356
 20
127.9772799417
 30
0.0
 10
110.8538147956
 20
127.5301489281
 30
0.0
 10
110.6317998892
 20
126.8736221523
 30
0.0
 10
110.2895726293
 20
126.2411552515
 30
0.0
 10
109.8550344754
 20
125.6846811966
 30
0.0
 10
109.3624131447
 20
125.2489371232
 30
0.0
 10
108.8499251643
 20
124.9678167424
 30
0.0
 10
108.4148650634
 20
124.8828559856
 30
0.0
 10
108.1066998929
 20
124.9280397524
 30
0.0
 10
107.9714768653
 20
124.984214141
 30
0.0
 10
107.9101544676
 20
125.0196523521
 30
0.0
  0
SPLINE
  5
312
100
AcDbEntity
  8
0
100
AcDbSpline
 62
7
  6
BYLAYER
 70
0
 71
3
 72
16
 73
12
 74
0
 42
0.0000001
 43
0.0000001
 44
0.0000000001
 40
0.0
 40
0.0
 40
0.0
 40
0.0
 40
0.1287398675
 40
0.2703905098
 40
0.4176124377
 40
0.5620209942
 40
0.6957496987
 40
0.8130651175
 40
0.9124718085
 40
0.957121058
 40
1.0
 40
1.0
 40
1.0
 40
1.0
 10
164.7946181313
 20
136.4850547297
 30
0.0
 10
164.7946181313
 20
136.2724069321
 30
0.0
 10
164.7351271913
 20
135.8252759185
 30
0.0
 10
164.5131122849
 20
135.1687491427
 30
0.0
 10
164.170885025
 20
134.5362822419
 30
0.0
 10
163.736346871
 20
133.979808187
 30
0.0
 10
163.2437255404
 20
133.5440641136
 30
0.0
 10
162.73123756
 20
133.2629437328
 30
0.0
 10
162.2961774591
 20
133.1779829761
 30
0.0
 10
161.9880122886
 20
133.2231667428
 30
0.0
 10
161.852789261
 20
133.2793411314
 30
0.0
 10
161.7914668633
 20
133.3147793425
 30
0.0
  0
ELLIPSE
  5
313
100
AcDbEntity
  8
0
100
AcDbEllipse
 62
7
  6
BYLAYER
 10
38.3096339198
 20
122.6264576868
 30
0.0
 11
-0.9812704905
 21
4.4454395962
 31
0.0
 40
0.6979052179
 41
3.3588647843
 42
5.5868673012
  0
ELLIPSE
  5
314
100
AcDbEntity
  8
0
100
AcDbEllipse
 62
7
  6
BYLAYER
 10
58.9643089913
 20
86.8517096429
 30
0.0
 11
3.3592030598
 21
-3.072548609
 31
0.0
 40
0.6979086025
 41
6.9795213408
 42
9.2075152176
  0
ELLIPSE
  5
315
100
AcDbEntity
  8
0
100
AcDbEllipse
 62
7
  6
BYLAYER
 10
38.3096339198
 20
122.6264576868
 30
0.0
 11
-1.4974538615
 21
4.2529793374
 31
0.0
 40
0.4107605099
 41
2.2881896408
 42
3.2183351036
  0
ELLIPSE
  5
316
100
AcDbEntity
  8
0
100
AcDbEllipse
 62
7
  6
BYLAYER
 10
38.3096339198
 20
98.7764220824
 30
0.0
 11
-2.9344572575
 21
3.4233292402
 31
0.0
 40
0.4107626802
 41
-3.7133606959
 42
-1.6475320478
  0
ELLIPSE
  5
317
100
AcDbEntity
  8
0
100
AcDbEllipse
 62
7
  6
BYLAYER
 10
58.9643089913
 20
86.8517096429
 30
0.0
 11
-2.9344572575
 21
3.4233292402
 31
0.0
 40
0.4107626802
 41
-0.076735721
 42
0.9399028446
  0
ELLIPSE
  5
318
100
AcDbEntity
  8
0
100
AcDbEllipse
 62
7
  6
BYLAYER
 10
97.7629027936
 20
85.8441720777
 30
0.0
 11
40.6752588877
 21
-14.321285947
 31
0.0
 40
0.2183880723
 41
2.6699438313
 42
3.7667232756
  0
ELLIPSE
  5
319
100
AcDbEntity
  8
0
100
AcDbEllipse
 62
7
  6
BYLAYER
 10
38.3096339198
 20
98.7764220824
 30
0.0
 11
-1.4974538615
 21
4.2529793374
 31
0.0
 40
0.4107605099
 41
4.7891400705
 42
6.8539818079
  0
ELLIPSE
  5
31A
100
AcDbEntity
  8
0
100
AcDbEllipse
 62
7
  6
BYLAYER
 10
58.9643089913
 20
110.7017452472
 30
0.0
 11
3.3592030598
 21
-3.072548609
 31
0.0
 40
0.6979086025
 41
4.4951348773
 42
6.7231373942
  0
ELLIPSE
  5
31B
100
AcDbEntity
  8
0
100
AcDbEllipse
 62
7
  6
BYLAYER
 10
58.9643089913
 20
110.7017452472
 30
0.0
 11
-0.9812704905
 21
4.4454395962
 31
0.0
 40
0.6979052179
 41
5.8432512478
 42
8.0712537647
  0
ENDSEC
  0
SECTION
  2
OBJECTS
  0
DICTIONARY
  5
C
100
AcDbDictionary
280
0
281
1
  3
ACAD_GROUP
350
D
  3
ACAD_MLINESTYLE
350
17
  3
ACAD_LAYOUT
350
1A
  3
ACAD_PLOTSETTINGS
350
19
  3
ACAD_PLOTSTYLENAME
350
E
  0
DICTIONARY
  5
D
102
{ACAD_REACTORS
330
C
102
}
100
AcDbDictionary
280
0
281
1
  0
ACDBDICTIONARYWDFLT
  5
E
102
{ACAD_REACTORS
330
C
102
}
100
AcDbDictionary
281
1
  3
Normal
350
F
100
AcDbDictionaryWithDefault
340
F
  0
DICTIONARY
  5
17
102
{ACAD_REACTORS
330
C
102
}
100
AcDbDictionary
280
0
281
1
  3
Standard
350
18
  0
DICTIONARY
  5
19
102
{ACAD_REACTORS
330
C
102
}
100
AcDbDictionary
281
1
  0
DICTIONARY
  5
1A
102
{ACAD_REACTORS
330
C
102
}
100
AcDbDictionary
281
1
  3
Model
350
31C
  3
Layout1
350
31D
  0
ACDBPLACEHOLDER
  5
F
102
{ACAD_REACTORS
330
E
102
}
  0
MLINESTYLE
  5
18
102
{ACAD_REACTORS
330
17
102
}
100
AcDbMlineStyle
  2
STANDARD
 70
0
  3

 62
256
 51
90.0
 52
90.0
 71
2
 49
0.5
 62
256
  6
BYLAYER
 49
-0.5
 62
256
  6
BYLAYER
  0
LAYOUT
  5
31C
102
{ACAD_REACTORS
330
1A
102
}
100
AcDbPlotSettings
  1

  2
none_device
  4

  6

 40
0.0
 41
0.0
 42
0.0
 43
0.0
 44
210.0
 45
297.0
 46
0.0
 47
0.0
 48
0.0
 49
0.0
140
0.0
141
0.0
142
1.0
143
1.0
 70
1024
 72
1
 73
0
 74
0
  7

 75
0
147
1.0
148
0.0
149
0.0
100
AcDbLayout
  1
Model
 70
0
 71
0
 10
0.0
 20
0.0
 11
210.0
 21
297.0
 12
0.0
 22
0.0
 32
0.0
 14
0.0
 24
0.0
 34
0.0
 15
0.0
 25
0.0
 35
0.0
146
0.0
 13
0.0
 23
0.0
 33
0.0
 16
1.0
 26
0.0
 36
0.0
 17
0.0
 27
1.0
 37
0.0
 76
0
330
210
345
0
346
0
  0
LAYOUT
  5
31D
102
{ACAD_REACTORS
330
1A
102
}
100
AcDbPlotSettings
  1

  2
none_device
  4

  6

 40
0.0
 41
0.0
 42
0.0
 43
0.0
 44
210.0
 45
297.0
 46
0.0
 47
0.0
 48
0.0
 49
0.0
140
0.0
141
0.0
142
1.0
143
1.0
 70
0
 72
1
 73
0
 74
0
  7

 75
0
147
1.0
148
0.0
149
0.0
100
AcDbLayout
  1
Layout1
 70
0
 71
1
 10
0.0
 20
0.0
 11
210.0
 21
297.0
 12
0.0
 22
0.0
 32
0.0
 14
0.0
 24
0.0
 34
0.0
 15
0.0
 25
0.0
 35
0.0
146
0.0
 13
0.0
 23
0.0
 33
0.0
 16
1.0
 26
0.0
 36
0.0
 17
0.0
 27
1.0
 37
0.0
 76
0
330
211
345
0
346
0
  0
ENDSEC
  0
EOF
