999
DXF file: C:\Users\sesa63760\Dev\_Creo\CAD\MCADID0002693_3D-CAD\drw0001_1.dxf
999
Pro/ENGINEER 2019471 by Parametric Technology Corporation
  0
SECTION
  2
HEADER
  9
$ACADVER
  1
AC1024
  9
$DWGCODEPAGE
  3
ANSI_1252
  9
$EXTMAX
 10
100.1743822835
 20
141.675197801
 30
0.0
  9
$EXTMIN
 10
0.0
 20
0.0
 30
0.0
  9
$LIMMIN
 10
0.0
 20
0.0
  9
$LIMMAX
 10
100.1743822835
 20
141.675197801
  9
$VIEWCTR
 10
50.0871911418
 20
70.8375989005
  9
$VIEWSIZE
 40
141.675197801
  9
$CLAYER
  8
0
  9
$LTSCALE
 40
9.2351240048
  9
$CELTYPE
  6
BYLAYER
  9
$DIMSCALE
 40
1.0
  9
$DIMASZ
 40
1.19255217
  9
$DIMEXO
 40
1.0
  9
$DIMDLI
 40
6.3806311306
  9
$DIMEXE
 40
1.0
  9
$DIMCEN
 40
1.5112021099
  9
$DIMLFAC
 40
1.0
  9
$DIMBLK
  1
_FILLED
  9
$DIMALT
 70
0
  9
$DIMALTF
 40
0.0393700787
  9
$DIMTXT
 40
1.6695730381
  9
$DIMTOL
 70
1
  9
$DIMLIM
 70
0
  9
$DIMTFAC
 40
1.0
  9
$DIMTP
 40
0.01
  9
$DIMTM
 40
0.01
  9
$DIMGAP
 40
0.625
  9
$DIMDSEP
 70
46
  9
$AUNITS
 70
0
  9
$PDMODE
 70
3
  9
$PDSIZE
 40
0.3125
  9
$HANDSEED
  5
2CC
  9
$TILEMODE
 70
1
  9
$MEASUREMENT
 70
1
  9
$INSUNITS
 70
4
  0
ENDSEC
  0
SECTION
  2
CLASSES
  0
CLASS
  1
ACDBDICTIONARYWDFLT
  2
AcDbDictionaryWithDefault
  3
AutoCAD 2000
 90
0
 91
1
280
0
281
0
  0
CLASS
  1
ACDBPLACEHOLDER
  2
AcDbPlaceHolder
  3
AutoCAD 2000
 90
0
 91
1
280
0
281
0
  0
CLASS
  1
LAYOUT
  2
AcDbLayout
  3
AutoCAD 2000
 90
0
 91
0
280
0
281
0
  0
ENDSEC
  0
SECTION
  2
TABLES
  0
TABLE
  2
VPORT
  5
8
100
AcDbSymbolTable
 70
2
  0
VPORT
  5
1F4
100
AcDbSymbolTableRecord
100
AcDbViewportTableRecord
  2
*ACTIVE
 70
0
 10
0.0
 20
0.0
 11
1.0
 21
1.0
 12
50.0871911418
 22
70.8375989005
 13
0.0
 23
0.0
 14
1.0
 24
1.0
 15
0.0
 25
0.0
 16
0.0
 26
0.0
 36
1.0
 17
0.0
 27
0.0
 37
0.0
 40
141.675197801
 41
0.7070707071
 42
50.0
 43
0.0
 44
0.0
 50
0.0
 51
0.0
 71
0
 72
100
 73
1
 74
1
 75
0
 76
0
 77
0
 78
0
  0
ENDTAB
  0
TABLE
  2
LTYPE
  5
5
100
AcDbSymbolTable
 70
6
  0
LTYPE
  5
14
100
AcDbSymbolTableRecord
100
AcDbLinetypeTableRecord
  2
BYBLOCK
 70
0
  3

 72
65
 73
0
 40
0.0
  0
LTYPE
  5
15
100
AcDbSymbolTableRecord
100
AcDbLinetypeTableRecord
  2
BYLAYER
 70
0
  3

 72
65
 73
0
 40
0.0
  0
LTYPE
  5
16
100
AcDbSymbolTableRecord
100
AcDbLinetypeTableRecord
  2
CONTINUOUS
 70
64
  3
Solid line
 72
65
 73
0
 40
0.0
  0
LTYPE
  5
1F5
100
AcDbSymbolTableRecord
100
AcDbLinetypeTableRecord
  2
CENTER
 70
64
  3
____ _ ____ _ ____ _ ____ _ ____ _ ____ _ ____
 72
65
 73
4
 40
0.6
 49
0.375
 74
0
 49
-0.075
 74
0
 49
0.075
 74
0
 49
-0.075
 74
0
  0
LTYPE
  5
1F6
100
AcDbSymbolTableRecord
100
AcDbLinetypeTableRecord
  2
HIDDEN
 70
64
  3
- - - - - - - - - - - - - - - - - - - -
 72
65
 73
2
 40
0.2
 49
0.1
 74
0
 49
-0.1
 74
0
  0
LTYPE
  5
1F7
100
AcDbSymbolTableRecord
100
AcDbLinetypeTableRecord
  2
PHANTOM
 70
64
  3
_____ _ _ _____ _ _ _____ _ _ _____
 72
65
 73
6
 40
0.8
 49
0.45
 74
0
 49
-0.05
 74
0
 49
0.1
 74
0
 49
-0.05
 74
0
 49
0.1
 74
0
 49
-0.05
 74
0
  0
LTYPE
  5
1F8
100
AcDbSymbolTableRecord
100
AcDbLinetypeTableRecord
  2
DOT
 70
64
  3
. . . . . . . . . . . . . . . . . . . .
 72
65
 73
2
 40
0.2
 49
0.1
 74
0
 49
-0.1
 74
0
  0
LTYPE
  5
1F9
100
AcDbSymbolTableRecord
100
AcDbLinetypeTableRecord
  2
DASHED
 70
64
  3
- - - - - - - - - - - - - - - - - - - -
 72
65
 73
2
 40
0.2
 49
0.1
 74
0
 49
-0.1
 74
0
  0
ENDTAB
  0
TABLE
  2
LAYER
  5
2
100
AcDbSymbolTable
 70
36
  0
LAYER
  5
10
100
AcDbSymbolTableRecord
100
AcDbLayerTableRecord
  2
0
 70
0
 62
7
  6
CONTINUOUS
370
-3
390
F
  0
LAYER
  5
1FA
100
AcDbSymbolTableRecord
100
AcDbLayerTableRecord
  2
DEFAULT_1
 70
0
 62
7
  6
CENTER
370
-3
390
F
  0
LAYER
  5
1FB
100
AcDbSymbolTableRecord
100
AcDbLayerTableRecord
  2
DEFAULT_2
 70
0
 62
7
  6
HIDDEN
370
-3
390
F
  0
LAYER
  5
1FC
100
AcDbSymbolTableRecord
100
AcDbLayerTableRecord
  2
DEFAULT_3
 70
0
 62
7
  6
PHANTOM
370
-3
390
F
  0
LAYER
  5
1FD
100
AcDbSymbolTableRecord
100
AcDbLayerTableRecord
  2
00_COMPONENTS
 70
0
 62
7
  6
CONTINUOUS
370
-3
390
F
  0
LAYER
  5
1FE
100
AcDbSymbolTableRecord
100
AcDbLayerTableRecord
  2
01_1_DEFAULT_DATUMS
 70
0
 62
7
  6
CONTINUOUS
370
-3
390
F
  0
LAYER
  5
1FF
100
AcDbSymbolTableRecord
100
AcDbLayerTableRecord
  2
01_PLANES
 70
0
 62
7
  6
CONTINUOUS
370
-3
390
F
  0
LAYER
  5
200
100
AcDbSymbolTableRecord
100
AcDbLayerTableRecord
  2
02_COORD_SYS
 70
0
 62
7
  6
CONTINUOUS
370
-3
390
F
  0
LAYER
  5
201
100
AcDbSymbolTableRecord
100
AcDbLayerTableRecord
  2
03_AXES
 70
0
 62
7
  6
CONTINUOUS
370
-3
390
F
  0
LAYER
  5
202
100
AcDbSymbolTableRecord
100
AcDbLayerTableRecord
  2
04_POINTS
 70
0
 62
7
  6
CONTINUOUS
370
-3
390
F
  0
LAYER
  5
203
100
AcDbSymbolTableRecord
100
AcDbLayerTableRecord
  2
05_CURVES
 70
0
 62
7
  6
CONTINUOUS
370
-3
390
F
  0
LAYER
  5
204
100
AcDbSymbolTableRecord
100
AcDbLayerTableRecord
  2
06_SURFS
 70
0
 62
7
  6
CONTINUOUS
370
-3
390
F
  0
LAYER
  5
205
100
AcDbSymbolTableRecord
100
AcDbLayerTableRecord
  2
07_COSMETICS
 70
0
 62
7
  6
CONTINUOUS
370
-3
390
F
  0
LAYER
  5
206
100
AcDbSymbolTableRecord
100
AcDbLayerTableRecord
  2
10_NOTES
 70
0
 62
7
  6
CONTINUOUS
370
-3
390
F
  0
LAYER
  5
207
100
AcDbSymbolTableRecord
100
AcDbLayerTableRecord
  2
11_NOTES_PUB
 70
0
 62
7
  6
CONTINUOUS
370
-3
390
F
  0
LAYER
  5
208
100
AcDbSymbolTableRecord
100
AcDbLayerTableRecord
  2
13_REF_GTOL
 70
0
 62
7
  6
CONTINUOUS
370
-3
390
F
  0
LAYER
  5
209
100
AcDbSymbolTableRecord
100
AcDbLayerTableRecord
  2
16_MISC
 70
0
 62
7
  6
CONTINUOUS
370
-3
390
F
  0
LAYER
  5
20A
100
AcDbSymbolTableRecord
100
AcDbLayerTableRecord
  2
17_NO_PRINT
 70
0
 62
7
  6
CONTINUOUS
370
-3
390
F
  0
LAYER
  5
20B
100
AcDbSymbolTableRecord
100
AcDbLayerTableRecord
  2
18_DATUM_CAMS_JOINTS
 70
0
 62
7
  6
CONTINUOUS
370
-3
390
F
  0
LAYER
  5
20C
100
AcDbSymbolTableRecord
100
AcDbLayerTableRecord
  2
19_DATUM_FUNCTIONAL
 70
0
 62
7
  6
CONTINUOUS
370
-3
390
F
  0
LAYER
  5
20D
100
AcDbSymbolTableRecord
100
AcDbLayerTableRecord
  2
20_DATUM_KINEMATIC_SCHEME
 70
0
 62
7
  6
CONTINUOUS
370
-3
390
F
  0
LAYER
  5
20E
100
AcDbSymbolTableRecord
100
AcDbLayerTableRecord
  2
INTFCLR_6545
 70
0
 62
7
  6
CONTINUOUS
370
-3
390
F
  0
ENDTAB
  0
TABLE
  2
STYLE
  5
3
100
AcDbSymbolTable
 70
1
  0
STYLE
  5
11
100
AcDbSymbolTableRecord
100
AcDbTextStyleTableRecord
  2
STANDARD
 70
0
 40
0.0
 41
1.0
 50
0.0
 71
0
 42
0.2
  3
ARIAL.TTF
  4

  0
STYLE
  5
20F
100
AcDbSymbolTableRecord
100
AcDbTextStyleTableRecord
  2
TEXTSTYLE_1
 70
0
 40
0.0
 41
0.8
 50
0.0
 71
0
 42
0.2
  3
gdt
  4

  0
ENDTAB
  0
TABLE
  2
VIEW
  5
6
100
AcDbSymbolTable
 70
0
  0
ENDTAB
  0
TABLE
  2
UCS
  5
7
100
AcDbSymbolTable
 70
0
  0
ENDTAB
  0
TABLE
  2
APPID
  5
9
100
AcDbSymbolTable
 70
1
  0
APPID
  5
210
100
AcDbSymbolTableRecord
100
AcDbRegAppTableRecord
  2
ACAD
 70
0
  0
ENDTAB
  0
TABLE
  2
BLOCK_RECORD
  5
1
100
AcDbSymbolTable
 70
0
  0
BLOCK_RECORD
  5
211
100
AcDbSymbolTableRecord
100
AcDbBlockTableRecord
  2
*Model_Space
  0
BLOCK_RECORD
  5
212
100
AcDbSymbolTableRecord
100
AcDbBlockTableRecord
  2
*Paper_Space
  0
BLOCK_RECORD
  5
213
100
AcDbSymbolTableRecord
100
AcDbBlockTableRecord
  2
_FILLED
  0
ENDTAB
  0
TABLE
  2
DIMSTYLE
  5
A
100
AcDbSymbolTable
 70
1
100
AcDbDimStyleTable
 71
0
  0
DIMSTYLE
105
214
100
AcDbSymbolTableRecord
100
AcDbDimStyleTableRecord
  2
STANDARD
 70
0
  3

  4

 40
1.0
 41
1.19255217
 42
1.0
 43
0.38
 44
1.0
 45
0.0
 46
0.0
 47
0.01
 48
0.01
140
1.6695730381
141
0.09
142
0.0
143
25.4
144
1.0
145
0.0
146
1.0
147
0.625
 71
1
 72
0
 73
0
 74
0
 75
0
 76
0
 77
1
 78
8
 79
2
170
0
171
1
172
0
173
0
174
0
175
0
176
0
177
0
178
0
270
2
179
2
271
2
272
2
273
2
274
2
275
0
280
0
281
0
282
0
283
1
284
8
285
0
286
0
287
3
288
0
340
11
278
46
341
213
342
213
343
213
344
213
  0
ENDTAB
  0
ENDSEC
  0
SECTION
  2
BLOCKS
  0
BLOCK
  5
20
100
AcDbEntity
  8
0
100
AcDbBlockBegin
  2
*Model_Space
 70
0
 10
0.0
 20
0.0
 30
0.0
  3
*Model_Space
  1

  0
ENDBLK
  5
21
100
AcDbEntity
  8
0
100
AcDbBlockEnd
  0
BLOCK
  5
1C
100
AcDbEntity
  8
0
100
AcDbBlockBegin
  2
*Paper_Space
 70
0
 10
0.0
 20
0.0
 30
0.0
  3
*Paper_Space
  1

  0
ENDBLK
  5
1D
100
AcDbEntity
  8
0
100
AcDbBlockEnd
  0
BLOCK
  5
215
100
AcDbEntity
  8
0
100
AcDbBlockBegin
  2
_FILLED
 70
64
 10
0.0
 20
0.0
  3
_FILLED
  1

  0
SOLID
  5
216
100
AcDbEntity
  8
0
  6
BYBLOCK
 62
0
100
AcDbTrace
 10
0.0
 20
0.0
 11
-1.0
 21
0.25
 12
-1.0
 22
-0.25
 13
-1.0
 23
-0.25
  0
ENDBLK
  5
217
100
AcDbEntity
  8
0
  6
BYBLOCK
 62
0
100
AcDbBlockEnd
  0
ENDSEC
  0
SECTION
  2
ENTITIES
  0
LINE
  5
218
100
AcDbEntity
  8
0
100
AcDbLine
 62
7
  6
BYLAYER
 10
11.6213808785
 20
82.0256563776
 11
11.6213808785
 21
96.5430693542
  0
LINE
  5
219
100
AcDbEntity
  8
0
100
AcDbLine
 62
7
  6
BYLAYER
 10
12.1601940025
 20
96.8541513994
 11
11.6213808785
 21
96.5430693542
  0
LINE
  5
21A
100
AcDbEntity
  8
0
100
AcDbLine
 62
7
  6
BYLAYER
 10
21.0955707151
 20
93.8211355639
 11
19.2546258749
 21
92.7582719093
  0
LINE
  5
21B
100
AcDbEntity
  8
0
100
AcDbLine
 62
7
  6
BYLAYER
 10
19.5240369235
 20
92.2916514317
 11
21.3649817637
 21
93.3545150863
  0
LINE
  5
21C
100
AcDbEntity
  8
0
100
AcDbLine
 62
7
  6
BYLAYER
 10
18.9852215562
 20
92.2916501366
 11
18.9852215562
 21
77.77423716
  0
LINE
  5
21D
100
AcDbEntity
  8
0
100
AcDbLine
 62
7
  6
BYLAYER
 10
19.5240369235
 20
77.7742384552
 11
19.5240369235
 21
92.2916514317
  0
LINE
  5
21E
100
AcDbEntity
  8
0
100
AcDbLine
 62
7
  6
BYLAYER
 10
21.3649817637
 20
78.8371021098
 11
21.3649817637
 21
93.3545150863
  0
LINE
  5
21F
100
AcDbEntity
  8
0
100
AcDbLine
 62
7
  6
BYLAYER
 10
21.5445921204
 20
80.2888594044
 11
21.5445921204
 21
90.451048488
  0
LINE
  5
220
100
AcDbEntity
  8
0
100
AcDbLine
 62
7
  6
BYLAYER
 10
22.0834052444
 20
90.7621305333
 11
21.5445921204
 21
90.451048488
  0
LINE
  5
221
100
AcDbEntity
  8
0
100
AcDbLine
 62
7
  6
BYLAYER
 10
32.1861849681
 20
94.1063195767
 11
26.6633504476
 21
90.9177286129
  0
LINE
  5
222
100
AcDbEntity
  8
0
100
AcDbLine
 62
7
  6
BYLAYER
 10
33.6038968625
 20
94.4505843454
 11
34.5019187357
 21
94.9690544208
  0
LINE
  5
223
100
AcDbEntity
  8
0
100
AcDbLine
 62
7
  6
BYLAYER
 10
34.5708873931
 20
95.0002830675
 11
38.8251236705
 21
97.4564528662
  0
LINE
  5
224
100
AcDbEntity
  8
0
100
AcDbLine
 62
7
  6
BYLAYER
 10
26.9327614962
 20
90.4511081354
 11
32.4555960167
 21
93.6396990992
  0
LINE
  5
225
100
AcDbEntity
  8
0
100
AcDbLine
 62
7
  6
BYLAYER
 10
35.5088883322
 20
94.2618968455
 11
40.7174151971
 21
97.2690232829
  0
LINE
  5
226
100
AcDbEntity
  8
0
100
AcDbLine
 62
7
  6
BYLAYER
 10
26.3939461289
 20
90.4511068402
 11
26.3939461289
 21
88.2734948937
  0
LINE
  5
227
100
AcDbEntity
  8
0
100
AcDbLine
 62
7
  6
BYLAYER
 10
26.3939461289
 20
77.4891469002
 11
26.3939461289
 21
75.9336938636
  0
LINE
  5
228
100
AcDbEntity
  8
0
100
AcDbLine
 62
7
  6
BYLAYER
 10
26.9327614962
 20
75.9336951588
 11
26.9327614962
 21
77.1780687404
  0
LINE
  5
229
100
AcDbEntity
  8
0
100
AcDbLine
 62
7
  6
BYLAYER
 10
26.9327614962
 20
87.9624167339
 11
26.9327614962
 21
90.4511081354
  0
LINE
  5
22A
100
AcDbEntity
  8
0
100
AcDbLine
 62
7
  6
BYLAYER
 10
45.3488888726
 20
94.5951012018
 11
54.7972609286
 21
100.0500887898
  0
LINE
  5
22B
100
AcDbEntity
  8
0
100
AcDbLine
 62
7
  6
BYLAYER
 10
46.4648030431
 20
93.9508424302
 11
56.7022523983
 21
99.8614012899
  0
LINE
  5
22C
100
AcDbEntity
  8
0
100
AcDbLine
 62
7
  6
BYLAYER
 10
21.3649817637
 20
78.8371021098
 11
19.5240369235
 21
77.7742384552
  0
LINE
  5
22D
100
AcDbEntity
  8
0
100
AcDbLine
 62
7
  6
BYLAYER
 10
34.3631909277
 20
86.291547148
 11
33.2882587454
 21
85.6709384677
  0
LINE
  5
22E
100
AcDbEntity
  8
0
100
AcDbLine
 62
7
  6
BYLAYER
 10
32.4555960167
 20
84.7738788711
 11
32.4555960167
 21
93.6396990992
  0
LINE
  5
22F
100
AcDbEntity
  8
0
100
AcDbLine
 62
7
  6
BYLAYER
 10
60.204566867
 20
97.8393848328
 11
63.79665436
 21
99.9132651344
  0
LINE
  5
230
100
AcDbEntity
  8
0
100
AcDbLine
 62
7
  6
BYLAYER
 10
36.1157830815
 20
83.2559503727
 11
35.6002882218
 21
82.9583310532
  0
LINE
  5
231
100
AcDbEntity
  8
0
100
AcDbLine
 62
7
  6
BYLAYER
 10
65.5927130619
 20
98.876333618
 11
62.0006255689
 21
96.8024533163
  0
LINE
  5
232
100
AcDbEntity
  8
0
100
AcDbLine
 62
7
  6
BYLAYER
 10
28.0104360359
 20
76.5558871304
 11
26.9327614962
 21
75.9336951588
  0
LINE
  5
233
100
AcDbEntity
  8
0
100
AcDbLine
 62
7
  6
BYLAYER
 10
68.4664368956
 20
93.069499857
 11
72.9565462619
 21
95.661850234
  0
LINE
  5
234
100
AcDbEntity
  8
0
100
AcDbLine
 62
7
  6
BYLAYER
 10
81.3084585112
 20
41.7927135381
 11
70.4423033649
 21
48.0661492128
  0
LINE
  5
235
100
AcDbEntity
  8
0
100
AcDbLine
 62
7
  6
BYLAYER
 10
18.9852215562
 20
77.77423716
 11
11.6213808785
 21
82.0256563776
  0
LINE
  5
236
100
AcDbEntity
  8
0
100
AcDbLine
 62
7
  6
BYLAYER
 10
67.344102478
 20
51.9806212336
 11
58.0300715268
 21
57.3579578589
  0
LINE
  5
237
100
AcDbEntity
  8
0
100
AcDbLine
 62
7
  6
BYLAYER
 10
26.3939461289
 20
75.9336938636
 11
21.3649817637
 21
78.8371021098
  0
LINE
  5
238
100
AcDbEntity
  8
0
100
AcDbLine
 62
7
  6
BYLAYER
 10
54.5664458557
 20
61.2241145634
 11
21.5445921204
 21
80.2888594044
  0
LINE
  5
239
100
AcDbEntity
  8
0
100
AcDbLine
 62
7
  6
BYLAYER
 10
77.4466930166
 20
93.0695214428
 11
72.9565836503
 21
90.4771710658
  0
LINE
  5
23A
100
AcDbEntity
  8
0
100
AcDbLine
 62
7
  6
BYLAYER
 10
52.7800192866
 20
76.4800628701
 11
50.2384897972
 21
75.0127188941
  0
LINE
  5
23B
100
AcDbEntity
  8
0
100
AcDbLine
 62
7
  6
BYLAYER
 10
50.1816551833
 20
74.5399653617
 11
50.3461807917
 21
74.634953699
  0
LINE
  5
23C
100
AcDbEntity
  8
0
100
AcDbLine
 62
7
  6
BYLAYER
 10
69.9457287259
 20
57.1667235997
 11
70.3307099269
 21
56.944459628
  0
LINE
  5
23D
100
AcDbEntity
  8
0
100
AcDbLine
 62
7
  6
BYLAYER
 10
70.3307099269
 20
57.2555736021
 11
69.9457287259
 21
57.4778375738
  0
LINE
  5
23E
100
AcDbEntity
  8
0
100
AcDbLine
 62
7
  6
BYLAYER
 10
79.422394977
 20
86.7442176064
 11
83.0144824701
 21
88.8180979081
  0
LINE
  5
23F
100
AcDbEntity
  8
0
100
AcDbLine
 62
7
  6
BYLAYER
 10
84.8105411719
 20
87.7811663916
 11
81.2184536789
 21
85.7072860899
  0
LINE
  5
240
100
AcDbEntity
  8
0
100
AcDbLine
 62
7
  6
BYLAYER
 10
57.1963708125
 20
68.0014733853
 11
67.344102478
 21
62.1428103172
  0
LINE
  5
241
100
AcDbEntity
  8
0
100
AcDbLine
 62
7
  6
BYLAYER
 10
67.882915602
 20
62.4538923624
 11
57.7351839364
 21
68.3125554305
  0
LINE
  5
242
100
AcDbEntity
  8
0
100
AcDbLine
 62
7
  6
BYLAYER
 10
21.5445921204
 20
90.451048488
 11
68.9605418499
 21
63.0760564529
  0
LINE
  5
243
100
AcDbEntity
  8
0
100
AcDbLine
 62
7
  6
BYLAYER
 10
11.6213808785
 20
96.5430693542
 11
18.9852215562
 21
92.2916501366
  0
LINE
  5
244
100
AcDbEntity
  8
0
100
AcDbLine
 62
7
  6
BYLAYER
 10
70.4423033649
 20
62.5835621894
 11
81.3084585112
 21
56.3101265147
  0
LINE
  5
245
100
AcDbEntity
  8
0
100
AcDbLine
 62
7
  6
BYLAYER
 10
69.4993549739
 20
63.3871384982
 11
22.0834052444
 21
90.7621305333
  0
LINE
  5
246
100
AcDbEntity
  8
0
100
AcDbLine
 62
7
  6
BYLAYER
 10
81.8472716352
 20
56.6212085599
 11
71.2505252941
 21
62.7391045072
  0
LINE
  5
247
100
AcDbEntity
  8
0
100
AcDbLine
 62
7
  6
BYLAYER
 10
19.2546258749
 20
92.7582719093
 11
12.1601940025
 21
96.8541513994
  0
LINE
  5
248
100
AcDbEntity
  8
0
100
AcDbLine
 62
7
  6
BYLAYER
 10
70.4423033649
 20
48.0661492128
 11
70.3307181919
 21
48.2216902355
  0
LINE
  5
249
100
AcDbEntity
  8
0
100
AcDbLine
 62
7
  6
BYLAYER
 10
57.1963708125
 20
62.7424933816
 11
57.1963708125
 21
68.0014733853
  0
LINE
  5
24A
100
AcDbEntity
  8
0
100
AcDbLine
 62
7
  6
BYLAYER
 10
57.7351839364
 20
68.3125554305
 11
57.1963708125
 21
68.0014733853
  0
LINE
  5
24B
100
AcDbEntity
  8
0
100
AcDbLine
 62
7
  6
BYLAYER
 10
84.7207681475
 20
83.6852696328
 11
74.4833187924
 21
77.774710773
  0
LINE
  5
24C
100
AcDbEntity
  8
0
100
AcDbLine
 62
7
  6
BYLAYER
 10
21.3649817637
 20
93.3545150863
 11
26.3939461289
 21
90.4511068402
  0
LINE
  5
24D
100
AcDbEntity
  8
0
100
AcDbLine
 62
7
  6
BYLAYER
 10
26.6633504476
 20
90.9177286129
 11
21.6343860823
 21
93.8211368591
  0
LINE
  5
24E
100
AcDbEntity
  8
0
100
AcDbLine
 62
7
  6
BYLAYER
 10
58.6204645509
 20
63.564689377
 11
51.3015862838
 21
59.3391582623
  0
LINE
  5
24F
100
AcDbEntity
  8
0
100
AcDbLine
 62
7
  6
BYLAYER
 10
79.8715414533
 20
74.6638893455
 11
87.4148562004
 21
79.0189981488
  0
LINE
  5
250
100
AcDbEntity
  8
0
100
AcDbLine
 62
7
  6
BYLAYER
 10
80.2307066384
 20
74.4565299203
 11
75.0221797734
 21
71.4494034829
  0
LINE
  5
251
100
AcDbEntity
  8
0
100
AcDbLine
 62
7
  6
BYLAYER
 10
32.4555960167
 20
93.6396990992
 11
78.0754870443
 21
67.3016385805
  0
LINE
  5
252
100
AcDbEntity
  8
0
100
AcDbLine
 62
7
  6
BYLAYER
 10
78.8837089735
 20
67.4571808983
 11
32.7250003354
 21
94.1063208719
  0
LINE
  5
253
100
AcDbEntity
  8
0
100
AcDbLine
 62
7
  6
BYLAYER
 10
75.0221797576
 20
71.449403492
 11
35.5088883481
 21
94.2618968363
  0
LINE
  5
254
100
AcDbEntity
  8
0
100
AcDbLine
 62
7
  6
BYLAYER
 10
70.3307181919
 20
62.739103212
 11
70.4423033649
 21
62.5835621894
  0
LINE
  5
255
100
AcDbEntity
  8
0
100
AcDbLine
 62
7
  6
BYLAYER
 10
65.5927130619
 20
98.876333618
 11
65.5927130619
 21
94.7286075519
  0
LINE
  5
256
100
AcDbEntity
  8
0
100
AcDbLine
 62
7
  6
BYLAYER
 10
67.344102478
 20
62.1428103172
 11
67.344102478
 21
51.9806212336
  0
LINE
  5
257
100
AcDbEntity
  8
0
100
AcDbLine
 62
7
  6
BYLAYER
 10
87.4148562004
 20
74.5600784489
 11
90.1089218201
 21
76.1154886751
  0
LINE
  5
258
100
AcDbEntity
  8
0
100
AcDbLine
 62
7
  6
BYLAYER
 10
61.1604531796
 20
59.1652737606
 11
53.8415749125
 21
54.9397426459
  0
LINE
  5
259
100
AcDbEntity
  8
0
100
AcDbLine
 62
7
  6
BYLAYER
 10
68.9605418499
 20
63.0760564529
 11
68.9605418499
 21
62.4633651027
  0
LINE
  5
25A
100
AcDbEntity
  8
0
100
AcDbLine
 62
7
  6
BYLAYER
 10
69.9457287259
 20
52.6027853241
 11
69.9457287259
 21
62.7649744077
  0
LINE
  5
25B
100
AcDbEntity
  8
0
100
AcDbLine
 62
7
  6
BYLAYER
 10
70.3307099269
 20
48.2216902355
 11
70.3307099269
 21
62.739103212
  0
LINE
  5
25C
100
AcDbEntity
  8
0
100
AcDbLine
 62
7
  6
BYLAYER
 10
70.4423033649
 20
48.0661492128
 11
70.4423033649
 21
62.5835621894
  0
LINE
  5
25D
100
AcDbEntity
  8
0
100
AcDbLine
 62
7
  6
BYLAYER
 10
72.6192412776
 20
64.2049058469
 11
71.5443090953
 21
63.5842971667
  0
LINE
  5
25E
100
AcDbEntity
  8
0
100
AcDbLine
 62
7
  6
BYLAYER
 10
78.0754870443
 20
67.3016385805
 11
70.4423011216
 21
62.8946429395
  0
LINE
  5
25F
100
AcDbEntity
  8
0
100
AcDbLine
 62
7
  6
BYLAYER
 10
90.1089218201
 20
74.0415725356
 11
87.4148562004
 21
72.4861623094
  0
LINE
  5
260
100
AcDbEntity
  8
0
100
AcDbLine
 62
7
  6
BYLAYER
 10
78.8478138705
 20
67.4779044769
 11
82.9068341042
 21
69.8213669129
  0
LINE
  5
261
100
AcDbEntity
  8
0
100
AcDbLine
 62
7
  6
BYLAYER
 10
71.2505252941
 20
62.7391045072
 11
78.8837112168
 21
67.1461001482
  0
LINE
  5
262
100
AcDbEntity
  8
0
100
AcDbLine
 62
7
  6
BYLAYER
 10
40.717415213
 20
97.2690232737
 11
46.464803059
 21
93.950842421
  0
LINE
  5
263
100
AcDbEntity
  8
0
100
AcDbLine
 62
7
  6
BYLAYER
 10
74.4833187765
 20
77.7747107822
 11
80.2307066225
 21
74.4565299295
  0
LINE
  5
264
100
AcDbEntity
  8
0
100
AcDbLine
 62
7
  6
BYLAYER
 10
70.4423011216
 20
62.8946429395
 11
70.3307181919
 21
62.739103212
  0
LINE
  5
265
100
AcDbEntity
  8
0
100
AcDbLine
 62
7
  6
BYLAYER
 10
87.4148562004
 20
68.0272426094
 11
84.1967161706
 21
66.1692596876
  0
LINE
  5
266
100
AcDbEntity
  8
0
100
AcDbLine
 62
7
  6
BYLAYER
 10
82.9775478319
 20
65.0819343428
 11
83.8092501172
 21
65.5621150148
  0
LINE
  5
267
100
AcDbEntity
  8
0
100
AcDbLine
 62
7
  6
BYLAYER
 10
82.9068341042
 20
64.1359683453
 11
86.6257596173
 21
66.2830781749
  0
LINE
  5
268
100
AcDbEntity
  8
0
100
AcDbLine
 62
7
  6
BYLAYER
 10
78.9952941466
 20
67.3016398757
 11
78.8837089735
 21
67.4571808983
  0
LINE
  5
269
100
AcDbEntity
  8
0
100
AcDbLine
 62
7
  6
BYLAYER
 10
78.8837112168
 20
67.1461001482
 11
78.9952941466
 21
67.3016398757
  0
LINE
  5
26A
100
AcDbEntity
  8
0
100
AcDbLine
 62
7
  6
BYLAYER
 10
90.1089068648
 20
78.1893603424
 11
87.8605018034
 21
79.4874482432
  0
LINE
  5
26B
100
AcDbEntity
  8
0
100
AcDbLine
 62
7
  6
BYLAYER
 10
77.4466930166
 20
87.9866420673
 11
77.4466930166
 21
93.0695214428
  0
LINE
  5
26C
100
AcDbEntity
  8
0
100
AcDbLine
 62
7
  6
BYLAYER
 10
78.8837112168
 20
67.1461001482
 11
78.8837112168
 21
58.3321822578
  0
LINE
  5
26D
100
AcDbEntity
  8
0
100
AcDbLine
 62
7
  6
BYLAYER
 10
78.9953024116
 20
58.267756509
 11
78.9953024116
 21
67.3016398757
  0
LINE
  5
26E
100
AcDbEntity
  8
0
100
AcDbLine
 62
7
  6
BYLAYER
 10
82.9068341042
 20
58.8296113735
 11
80.4644970011
 21
57.4195358066
  0
LINE
  5
26F
100
AcDbEntity
  8
0
100
AcDbLine
 62
7
  6
BYLAYER
 10
81.5730179887
 20
56.7795453945
 11
82.122998165
 21
57.0970747019
  0
LINE
  5
270
100
AcDbEntity
  8
0
100
AcDbLine
 62
7
  6
BYLAYER
 10
81.3084585112
 20
56.3101265147
 11
81.8472716352
 21
56.6212085599
  0
LINE
  5
271
100
AcDbEntity
  8
0
100
AcDbLine
 62
7
  6
BYLAYER
 10
56.7022524142
 20
99.8614012808
 11
60.204566867
 21
97.8393848328
  0
LINE
  5
272
100
AcDbEntity
  8
0
100
AcDbLine
 62
7
  6
BYLAYER
 10
62.0006255689
 20
96.8024533163
 11
68.4664368956
 21
93.069499857
  0
LINE
  5
273
100
AcDbEntity
  8
0
100
AcDbLine
 62
7
  6
BYLAYER
 10
72.9565836503
 20
90.4771710658
 11
79.422394977
 21
86.7442176064
  0
LINE
  5
274
100
AcDbEntity
  8
0
100
AcDbLine
 62
7
  6
BYLAYER
 10
81.2184536789
 20
85.7072860899
 11
84.7207681317
 21
83.685269642
  0
LINE
  5
275
100
AcDbEntity
  8
0
100
AcDbLine
 62
7
  6
BYLAYER
 10
81.3084585112
 20
41.7927135381
 11
81.3084585112
 21
56.3101265147
  0
LINE
  5
276
100
AcDbEntity
  8
0
100
AcDbLine
 62
7
  6
BYLAYER
 10
81.8472716352
 20
42.1037955834
 11
81.8472716352
 21
56.6212085599
  0
LINE
  5
277
100
AcDbEntity
  8
0
100
AcDbLine
 62
7
  6
BYLAYER
 10
82.9068341042
 20
69.8213668946
 11
82.9068341042
 21
58.8296113918
  0
LINE
  5
278
100
AcDbEntity
  8
0
100
AcDbLine
 62
7
  6
BYLAYER
 10
78.7196546793
 20
52.5339696509
 11
76.7155818225
 21
51.3769245542
  0
LINE
  5
279
100
AcDbEntity
  8
0
100
AcDbLine
 62
7
  6
BYLAYER
 10
63.79665436
 20
99.9132651344
 11
65.5927130619
 21
98.876333618
  0
LINE
  5
27A
100
AcDbEntity
  8
0
100
AcDbLine
 62
7
  6
BYLAYER
 10
83.0144824701
 20
88.8180979081
 11
84.8105411719
 21
87.7811663916
  0
LINE
  5
27B
100
AcDbEntity
  8
0
100
AcDbLine
 62
7
  6
BYLAYER
 10
72.9565462619
 20
95.661850234
 11
77.4466930166
 21
93.0695214428
  0
LINE
  5
27C
100
AcDbEntity
  8
0
100
AcDbLine
 62
7
  6
BYLAYER
 10
84.8105411719
 20
87.7811663916
 11
84.8105411719
 21
83.6217022255
  0
LINE
  5
27D
100
AcDbEntity
  8
0
100
AcDbLine
 62
7
  6
BYLAYER
 10
87.4148562004
 20
79.0189981305
 11
87.4148562004
 21
74.5600784489
  0
LINE
  5
27E
100
AcDbEntity
  8
0
100
AcDbLine
 62
7
  6
BYLAYER
 10
87.4148562004
 20
72.4861623094
 11
87.4148562004
 21
68.0272426277
  0
LINE
  5
27F
100
AcDbEntity
  8
0
100
AcDbLine
 62
7
  6
BYLAYER
 10
90.1089218201
 20
74.0415725356
 11
90.1089068648
 21
78.1893603424
  0
LINE
  5
280
100
AcDbEntity
  8
0
100
AcDbLine
 62
7
  6
BYLAYER
 10
81.8472716352
 20
42.1037955834
 11
81.3084585112
 21
41.7927135381
  0
ARC
  5
281
100
AcDbEntity
  8
0
100
AcDbCircle
 62
7
  6
BYLAYER
 10
35.1469879922
 20
93.8483114448
 40
1.293165165
100
AcDbArc
 50
108.9872100418
 51
116.5788069907
  0
ARC
  5
282
100
AcDbEntity
  8
0
100
AcDbCircle
 62
7
  6
BYLAYER
 10
35.1388076565
 20
93.8658705154
 40
1.2738017414
100
AcDbArc
 50
116.6031227735
 51
119.9986520412
  0
ARC
  5
283
100
AcDbEntity
  8
0
100
AcDbCircle
 62
7
  6
BYLAYER
 10
77.6790411329
 20
52.7729263943
 40
1.1295557312
100
AcDbArc
 50
144.5049210465
 51
148.5010586379
  0
ARC
  5
284
100
AcDbEntity
  8
0
100
AcDbCircle
 62
7
  6
BYLAYER
 10
14.8169865673
 20
89.0655294712
 40
1.1295557312
100
AcDbArc
 50
144.5049210465
 51
148.5010586379
  0
ARC
  5
285
100
AcDbEntity
  8
0
100
AcDbCircle
 62
7
  6
BYLAYER
 10
77.615914352
 20
52.8183363671
 40
1.0517936089
100
AcDbArc
 50
139.3483610071
 51
144.5222294133
  0
ARC
  5
286
100
AcDbEntity
  8
0
100
AcDbCircle
 62
7
  6
BYLAYER
 10
14.7538597865
 20
89.110939444
 40
1.0517936089
100
AcDbArc
 50
139.3483610071
 51
144.5222294133
  0
ARC
  5
287
100
AcDbEntity
  8
0
100
AcDbCircle
 62
7
  6
BYLAYER
 10
72.9160981935
 20
63.6896468339
 40
0.5946247569
100
AcDbArc
 50
106.4683487373
 51
119.9475887607
  0
ARC
  5
288
100
AcDbEntity
  8
0
100
AcDbCircle
 62
7
  6
BYLAYER
 10
71.8418974522
 20
63.0702216515
 40
0.5939724078
100
AcDbArc
 50
106.4046913036
 51
130.4317443378
  0
SPLINE
  5
289
100
AcDbEntity
  8
0
100
AcDbSpline
 62
7
  6
BYLAYER
 70
0
 71
3
 72
11
 73
7
 74
0
 42
0.0000001
 43
0.0000001
 44
0.0000000001
 40
0.0
 40
0.0
 40
0.0
 40
0.0
 40
0.2897016594
 40
0.5490895814
 40
0.7822189142
 40
1.0
 40
1.0
 40
1.0
 40
1.0
 10
84.3616177241
 20
66.7830301211
 30
0.0
 10
84.3616177241
 20
66.647898656
 30
0.0
 10
84.3411299504
 20
66.3909059298
 30
0.0
 10
84.237056424
 20
66.0378087883
 30
0.0
 10
84.0618184028
 20
65.7512906745
 30
0.0
 10
83.8972162565
 20
65.6129213461
 30
0.0
 10
83.8092455676
 20
65.5621228849
 30
0.0
  0
SPLINE
  5
28A
100
AcDbEntity
  8
0
100
AcDbSpline
 62
7
  6
BYLAYER
 70
0
 71
3
 72
9
 73
5
 74
0
 42
0.0000001
 43
0.0000001
 44
0.0000000001
 40
0.0
 40
0.0
 40
0.0
 40
0.0
 40
0.2710154981
 40
1.0
 40
1.0
 40
1.0
 40
1.0
 10
83.1133703861
 20
65.6372130245
 30
0.0
 10
83.1133703861
 20
65.5554495579
 30
0.0
 10
83.1010647438
 20
65.2543132802
 30
0.0
 10
83.0357858664
 20
64.9521656483
 30
0.0
 10
82.9466553275
 20
64.7511066343
 30
0.0
  0
SPLINE
  5
28B
100
AcDbEntity
  8
0
100
AcDbSpline
 62
7
  6
BYLAYER
 70
0
 71
3
 72
12
 73
8
 74
0
 42
0.0000001
 43
0.0000001
 44
0.0000000001
 40
0.0
 40
0.0
 40
0.0
 40
0.0
 40
0.2895562289
 40
0.5486533223
 40
0.7816321934
 40
0.8918390365
 40
1.0
 40
1.0
 40
1.0
 40
1.0
 10
82.9068341042
 20
58.8296113918
 30
0.0
 10
82.906834104
 20
58.6378031146
 30
0.0
 10
82.8777343355
 20
58.2730721338
 30
0.0
 10
82.7303255007
 20
57.7722128806
 30
0.0
 10
82.5183049562
 20
57.4267110588
 30
0.0
 10
82.3043577138
 20
57.2161603208
 30
0.0
 10
82.1850334646
 20
57.1329227108
 30
0.0
 10
82.1229842551
 20
57.0970987946
 30
0.0
  0
SPLINE
  5
28C
100
AcDbEntity
  8
0
100
AcDbSpline
 62
7
  6
BYLAYER
 70
0
 71
3
 72
15
 73
11
 74
0
 42
0.0000001
 43
0.0000001
 44
0.0000000001
 40
0.0
 40
0.0
 40
0.0
 40
0.0
 40
0.1141465952
 40
0.2373352438
 40
0.3669756459
 40
0.4999989181
 40
0.6330223407
 40
0.7626631822
 40
0.8858525235
 40
1.0
 40
1.0
 40
1.0
 40
1.0
 10
80.2307066225
 20
74.4565299295
 30
0.0
 10
80.4138956712
 20
74.3507680754
 30
0.0
 10
80.7757515834
 20
74.0970843767
 30
0.0
 10
81.273675795
 20
73.6312972811
 30
0.0
 10
81.7324825323
 20
73.0806225475
 30
0.0
 10
82.1349991498
 20
72.4658696177
 30
0.0
 10
82.4661359711
 20
71.809904384
 30
0.0
 10
82.713635259
 20
71.1372278137
 30
0.0
 10
82.8680616653
 20
70.4731166216
 30
0.0
 10
82.906834104
 20
70.0328958246
 30
0.0
 10
82.9068341042
 20
69.8213668946
 30
0.0
  0
SPLINE
  5
28D
100
AcDbEntity
  8
0
100
AcDbSpline
 62
7
  6
BYLAYER
 70
0
 71
3
 72
10
 73
6
 74
0
 42
0.0000001
 43
0.0000001
 44
0.0000000001
 40
0.0
 40
0.0
 40
0.0
 40
0.0
 40
0.5245263393
 40
0.7705469795
 40
1.0
 40
1.0
 40
1.0
 40
1.0
 10
87.4593544848
 20
71.8534746643
 30
0.0
 10
87.5995548177
 20
71.5722869324
 30
0.0
 10
87.7675606158
 20
71.1375450044
 30
0.0
 10
87.8870253591
 20
70.5495832778
 30
0.0
 10
87.9087603791
 20
70.2645013198
 30
0.0
 10
87.9087603791
 20
70.1270544251
 30
0.0
  0
SPLINE
  5
28E
100
AcDbEntity
  8
0
100
AcDbSpline
 62
7
  6
BYLAYER
 70
0
 71
3
 72
15
 73
11
 74
0
 42
0.0000001
 43
0.0000001
 44
0.0000000001
 40
0.0
 40
0.0
 40
0.0
 40
0.0
 40
0.0992209754
 40
0.21250287
 40
0.3383093215
 40
0.4729945442
 40
0.6117102147
 40
0.7491007845
 40
0.8799996206
 40
1.0
 40
1.0
 40
1.0
 40
1.0
 10
85.1670340257
 20
83.4294184796
 30
0.0
 10
85.3297822756
 20
83.4072789523
 30
0.0
 10
85.6708342063
 20
83.3014962238
 30
0.0
 10
86.1555555196
 20
83.0142911634
 30
0.0
 10
86.6240676544
 20
82.6055991679
 30
0.0
 10
87.0507134768
 20
82.0979098486
 30
0.0
 10
87.4121864831
 20
81.5193934646
 30
0.0
 10
87.6882946475
 20
80.9023120801
 30
0.0
 10
87.8634455512
 20
80.281496117
 30
0.0
 10
87.9087603791
 20
79.8657134539
 30
0.0
 10
87.9087603791
 20
79.6670686668
 30
0.0
  0
SPLINE
  5
28F
100
AcDbEntity
  8
0
100
AcDbSpline
 62
7
  6
BYLAYER
 70
0
 71
3
 72
12
 73
8
 74
0
 42
0.0000001
 43
0.0000001
 44
0.0000000001
 40
0.0
 40
0.0
 40
0.0
 40
0.0
 40
0.2895562289
 40
0.5486533223
 40
0.7816321933
 40
0.8918390365
 40
1.0
 40
1.0
 40
1.0
 40
1.0
 10
87.4148562004
 20
68.0272426277
 30
0.0
 10
87.4148562002
 20
67.8341470466
 30
0.0
 10
87.3855611313
 20
67.4669682069
 30
0.0
 10
87.2371629754
 20
66.9627474823
 30
0.0
 10
87.0237194742
 20
66.6149268563
 30
0.0
 10
86.8083363443
 20
66.4029630262
 30
0.0
 10
86.6882112612
 20
66.3191667745
 30
0.0
 10
86.6257456141
 20
66.2831024293
 30
0.0
  0
SPLINE
  5
290
100
AcDbEntity
  8
0
100
AcDbSpline
 62
7
  6
BYLAYER
 70
0
 71
3
 72
9
 73
5
 74
0
 42
0.0000001
 43
0.0000001
 44
0.0000000001
 40
0.0
 40
0.0
 40
0.0
 40
0.0
 40
0.4675244887
 40
1.0
 40
1.0
 40
1.0
 40
1.0
 10
57.8857811482
 20
99.2541701029
 30
0.0
 10
58.0686983568
 20
99.2051294362
 30
0.0
 10
58.443457315
 20
99.0376130111
 30
0.0
 10
58.7699754204
 20
98.7935741454
 30
0.0
 10
58.9313551613
 20
98.6504755601
 30
0.0
  0
SPLINE
  5
291
100
AcDbEntity
  8
0
100
AcDbSpline
 62
7
  6
BYLAYER
 70
0
 71
3
 72
15
 73
11
 74
0
 42
0.0000001
 43
0.0000001
 44
0.0000000001
 40
0.0
 40
0.0
 40
0.0
 40
0.0
 40
0.1141465952
 40
0.2373352438
 40
0.3669756459
 40
0.4999989181
 40
0.6330223407
 40
0.7626631822
 40
0.8858525235
 40
1.0
 40
1.0
 40
1.0
 40
1.0
 10
84.7207681317
 20
83.685269642
 30
0.0
 10
84.9051866371
 20
83.5787979768
 30
0.0
 10
85.2694711125
 20
83.3234117029
 30
0.0
 10
85.7707370972
 20
82.8544985195
 30
0.0
 10
86.2326230743
 20
82.3001279823
 30
0.0
 10
86.6378411457
 20
81.681249194
 30
0.0
 10
86.9712003617
 20
81.020881509
 30
0.0
 10
87.2203607186
 20
80.3436903309
 30
0.0
 10
87.3758235437
 20
79.6751220168
 30
0.0
 10
87.4148562002
 20
79.2319467178
 30
0.0
 10
87.4148562004
 20
79.0189981305
 30
0.0
  0
SPLINE
  5
292
100
AcDbEntity
  8
0
100
AcDbSpline
 62
7
  6
BYLAYER
 70
0
 71
3
 72
17
 73
13
 74
0
 42
0.0000001
 43
0.0000001
 44
0.0000000001
 40
0.0
 40
0.0
 40
0.0
 40
0.0
 40
0.0428592926
 40
0.087485474
 40
0.1353198781
 40
0.1872819044
 40
0.3045421965
 40
0.4382074305
 40
0.582548911
 40
0.7297129633
 40
0.8713059682
 40
1.0
 40
1.0
 40
1.0
 40
1.0
 10
76.5243577978
 20
53.3972662457
 30
0.0
 10
76.5919836981
 20
53.4363166581
 30
0.0
 10
76.741077092
 20
53.4982255045
 30
0.0
 10
76.9871424978
 20
53.5343431263
 30
0.0
 10
77.2514091441
 20
53.5148725968
 30
0.0
 10
77.6353823736
 20
53.4127483643
 30
0.0
 10
78.1262325769
 20
53.14434849
 30
0.0
 10
78.6685440587
 20
52.6640755028
 30
0.0
 10
79.1479458719
 20
52.0504863638
 30
0.0
 10
79.5252291938
 20
51.3531352958
 30
0.0
 10
79.7700974524
 20
50.629223462
 30
0.0
 10
79.8356903757
 20
50.136188368
 30
0.0
 10
79.8356903757
 20
49.9017038699
 30
0.0
  0
SPLINE
  5
293
100
AcDbEntity
  8
0
100
AcDbSpline
 62
7
  6
BYLAYER
 70
0
 71
3
 72
10
 73
6
 74
0
 42
0.0000001
 43
0.0000001
 44
0.0000000001
 40
0.0
 40
0.0
 40
0.0
 40
0.0
 40
0.2253106662
 40
0.5931294561
 40
1.0
 40
1.0
 40
1.0
 40
1.0
 10
76.7159256439
 20
53.3630998475
 30
0.0
 10
76.6787307693
 20
53.3024532418
 30
0.0
 10
76.5952958998
 20
53.1336568961
 30
0.0
 10
76.5131571987
 20
52.8262853788
 30
0.0
 10
76.4950167036
 20
52.5810312699
 30
0.0
 10
76.4950167036
 20
52.4525579908
 30
0.0
  0
SPLINE
  5
294
100
AcDbEntity
  8
0
100
AcDbSpline
 62
7
  6
BYLAYER
 70
0
 71
3
 72
11
 73
7
 74
0
 42
0.0000001
 43
0.0000001
 44
0.0000000001
 40
0.0
 40
0.0
 40
0.0
 40
0.0
 40
0.217774097
 40
0.4509020802
 40
0.7103645465
 40
1.0
 40
1.0
 40
1.0
 40
1.0
 10
33.2882710568
 20
85.6709171505
 30
0.0
 10
33.2304751822
 20
85.6375163619
 30
0.0
 10
33.1222561332
 20
85.5466638025
 30
0.0
 10
33.0071186406
 20
85.3583234625
 30
0.0
 10
32.9387663094
 20
85.1262842486
 30
0.0
 10
32.925274318
 20
84.9574031885
 30
0.0
 10
32.925274318
 20
84.8686228264
 30
0.0
  0
SPLINE
  5
295
100
AcDbEntity
  8
0
100
AcDbSpline
 62
7
  6
BYLAYER
 70
0
 71
3
 72
17
 73
13
 74
0
 42
0.0000001
 43
0.0000001
 44
0.0000000001
 40
0.0
 40
0.0
 40
0.0
 40
0.0
 40
0.0428592926
 40
0.087485474
 40
0.1353198781
 40
0.1872819044
 40
0.3045421965
 40
0.4382074305
 40
0.582548911
 40
0.7297129633
 40
0.8713059682
 40
1.0
 40
1.0
 40
1.0
 40
1.0
 10
13.6623032322
 20
89.6898693225
 30
0.0
 10
13.7299291325
 20
89.7289197349
 30
0.0
 10
13.8790225264
 20
89.7908285814
 30
0.0
 10
14.1250879323
 20
89.8269462032
 30
0.0
 10
14.3893545786
 20
89.8074756737
 30
0.0
 10
14.773327808
 20
89.7053514411
 30
0.0
 10
15.2641780113
 20
89.4369515669
 30
0.0
 10
15.8064894931
 20
88.9566785797
 30
0.0
 10
16.2858913063
 20
88.3430894407
 30
0.0
 10
16.6631746282
 20
87.6457383727
 30
0.0
 10
16.9080428868
 20
86.9218265389
 30
0.0
 10
16.9736358101
 20
86.4287914449
 30
0.0
 10
16.9736358101
 20
86.1943069468
 30
0.0
  0
SPLINE
  5
296
100
AcDbEntity
  8
0
100
AcDbSpline
 62
7
  6
BYLAYER
 70
0
 71
3
 72
10
 73
6
 74
0
 42
0.0000001
 43
0.0000001
 44
0.0000000001
 40
0.0
 40
0.0
 40
0.0
 40
0.0
 40
0.2253106662
 40
0.5931294561
 40
1.0
 40
1.0
 40
1.0
 40
1.0
 10
13.8538710784
 20
89.6557029244
 30
0.0
 10
13.8166762037
 20
89.5950563187
 30
0.0
 10
13.7332413343
 20
89.4262599729
 30
0.0
 10
13.6511026331
 20
89.1188884557
 30
0.0
 10
13.632962138
 20
88.8736343468
 30
0.0
 10
13.632962138
 20
88.7451610676
 30
0.0
  0
SPLINE
  5
297
100
AcDbEntity
  8
0
100
AcDbSpline
 62
7
  6
BYLAYER
 70
0
 71
3
 72
9
 73
5
 74
0
 42
0.0000001
 43
0.0000001
 44
0.0000000001
 40
0.0
 40
0.0
 40
0.0
 40
0.0
 40
0.4930198619
 40
1.0
 40
1.0
 40
1.0
 40
1.0
 10
50.2384900274
 20
75.0127184954
 30
0.0
 10
50.1740850556
 20
74.975531448
 30
0.0
 10
50.0511546885
 20
74.8859487029
 30
0.0
 10
49.9493443546
 20
74.7731608517
 30
0.0
 10
49.9035391009
 20
74.7119202348
 30
0.0
  0
SPLINE
  5
298
100
AcDbEntity
  8
0
100
AcDbSpline
 62
7
  6
BYLAYER
 70
0
 71
3
 72
11
 73
7
 74
0
 42
0.0000001
 43
0.0000001
 44
0.0000000001
 40
0.0
 40
0.0
 40
0.0
 40
0.0
 40
0.2177839466
 40
0.4509170841
 40
0.710307871
 40
1.0
 40
1.0
 40
1.0
 40
1.0
 10
51.3015921468
 20
59.3391481651
 30
0.0
 10
51.2178124584
 20
59.2907629775
 30
0.0
 10
51.0610392927
 20
59.1589912403
 30
0.0
 10
50.8941503588
 20
58.8861065323
 30
0.0
 10
50.7950335184
 20
58.5498263963
 30
0.0
 10
50.7755218963
 20
58.3050742602
 30
0.0
 10
50.7755218963
 20
58.1763819706
 30
0.0
  0
SPLINE
  5
299
100
AcDbEntity
  8
0
100
AcDbSpline
 62
7
  6
BYLAYER
 70
0
 71
3
 72
11
 73
7
 74
0
 42
0.0000001
 43
0.0000001
 44
0.0000000001
 40
0.0
 40
0.0
 40
0.0
 40
0.0
 40
0.2177643494
 40
0.4508943819
 40
0.7103680107
 40
1.0
 40
1.0
 40
1.0
 40
1.0
 10
69.945696783
 20
62.7649743048
 30
0.0
 10
69.9456737265
 20
62.8230162245
 30
0.0
 10
69.9243150798
 20
62.9440091683
 30
0.0
 10
69.8325419018
 20
63.1125982409
 30
0.0
 10
69.6875203306
 20
63.2649541433
 30
0.0
 10
69.5662100881
 20
63.3485405532
 30
0.0
 10
69.4993549739
 20
63.3871384982
 30
0.0
  0
SPLINE
  5
29A
100
AcDbEntity
  8
0
100
AcDbSpline
 62
7
  6
BYLAYER
 70
0
 71
3
 72
17
 73
13
 74
0
 42
0.0000001
 43
0.0000001
 44
0.0000000001
 40
0.0
 40
0.0
 40
0.0
 40
0.0
 40
0.0428571277
 40
0.087483909
 40
0.1353159407
 40
0.187279013
 40
0.3045397097
 40
0.4382076182
 40
0.5825507004
 40
0.7297102646
 40
0.8713099941
 40
1.0
 40
1.0
 40
1.0
 40
1.0
 10
69.9457014681
 20
52.6027852753
 30
0.0
 10
69.9457188963
 20
52.5594037985
 30
0.0
 10
69.9341031717
 20
52.4704715089
 30
0.0
 10
69.8831152091
 20
52.3420601108
 30
0.0
 10
69.8003389683
 20
52.2203274806
 30
0.0
 10
69.6445535649
 20
52.0639501465
 30
0.0
 10
69.3790676759
 20
51.9023453144
 30
0.0
 10
68.9973511838
 20
51.7748343923
 30
0.0
 10
68.5689720891
 20
51.7146324965
 30
0.0
 10
68.1286554419
 20
51.726811906
 30
0.0
 10
67.7123509365
 20
51.8101012104
 30
0.0
 10
67.4569154951
 20
51.9154900812
 30
0.0
 10
67.344102478
 20
51.9806212336
 30
0.0
  0
SPLINE
  5
29B
100
AcDbEntity
  8
0
100
AcDbSpline
 62
7
  6
BYLAYER
 70
0
 71
3
 72
16
 73
12
 74
0
 42
0.0000001
 43
0.0000001
 44
0.0000000001
 40
0.0
 40
0.0
 40
0.0
 40
0.0
 40
0.0428749549
 40
0.0875150781
 40
0.1869201666
 40
0.304237755
 40
0.4379614271
 40
0.5823655592
 40
0.729554774
 40
0.8712850923
 40
1.0
 40
1.0
 40
1.0
 40
1.0
 10
69.1836962534
 20
62.7649744299
 30
0.0
 10
69.1836809236
 20
62.7432844551
 30
0.0
 10
69.1778902997
 20
62.6988266148
 30
0.0
 10
69.1427235251
 20
62.6101571477
 30
0.0
 10
69.0535528088
 20
62.5077810641
 30
0.0
 10
68.9005103078
 20
62.4149079064
 30
0.0
 10
68.7094992086
 20
62.3509665792
 30
0.0
 10
68.4953780147
 20
62.3209526647
 30
0.0
 10
68.2751905378
 20
62.3269677142
 30
0.0
 10
68.0670528124
 20
62.3686675768
 30
0.0
 10
67.9393075916
 20
62.4213351686
 30
0.0
 10
67.882915602
 20
62.4538923624
 30
0.0
  0
SPLINE
  5
29C
100
AcDbEntity
  8
0
100
AcDbSpline
 62
7
  6
BYLAYER
 70
0
 71
3
 72
11
 73
7
 74
0
 42
0.0000001
 43
0.0000001
 44
0.0000000001
 40
0.0
 40
0.0
 40
0.0
 40
0.0
 40
0.2187405374
 40
0.4548511283
 40
0.714604759
 40
1.0
 40
1.0
 40
1.0
 40
1.0
 10
34.7262475487
 20
95.0711170807
 30
0.0
 10
34.8472117207
 20
95.112762977
 30
0.0
 10
35.1125813813
 20
95.1622372306
 30
0.0
 10
35.5330063256
 20
95.13231108
 30
0.0
 10
35.97453586
 20
95.0044746541
 30
0.0
 10
36.2623558257
 20
94.8638235408
 30
0.0
 10
36.4069102055
 20
94.7803669188
 30
0.0
  0
SPLINE
  5
29D
100
AcDbEntity
  8
0
100
AcDbSpline
 62
7
  6
BYLAYER
 70
0
 71
3
 72
9
 73
5
 74
0
 42
0.0000001
 43
0.0000001
 44
0.0000000001
 40
0.0
 40
0.0
 40
0.0
 40
0.0
 40
0.4878769024
 40
1.0
 40
1.0
 40
1.0
 40
1.0
 10
33.6039108657
 20
94.450560091
 30
0.0
 10
33.5001993775
 20
94.3906825892
 30
0.0
 10
33.304454975
 20
94.2365496518
 30
0.0
 10
33.1578660393
 20
94.0360495502
 30
0.0
 10
33.0954863602
 20
93.9269118266
 30
0.0
  0
SPLINE
  5
29E
100
AcDbEntity
  8
0
100
AcDbSpline
 62
7
  6
BYLAYER
 70
0
 71
3
 72
12
 73
8
 74
0
 42
0.0000001
 43
0.0000001
 44
0.0000000001
 40
0.0
 40
0.0
 40
0.0
 40
0.0
 40
0.1081614688
 40
0.2183687403
 40
0.4513480153
 40
0.7104447573
 40
1.0
 40
1.0
 40
1.0
 40
1.0
 10
38.8251375804
 20
97.4564287735
 30
0.0
 10
38.8871854193
 20
97.4922518983
 30
0.0
 10
39.0189306361
 20
97.5539690913
 30
0.0
 10
39.3082395823
 20
97.6339756425
 30
0.0
 10
39.7134524254
 20
97.6448417065
 30
0.0
 10
40.2209004409
 20
97.5220795008
 30
0.0
 10
40.551308444
 20
97.3649228919
 30
0.0
 10
40.717415213
 20
97.2690232737
 30
0.0
  0
SPLINE
  5
29F
100
AcDbEntity
  8
0
100
AcDbSpline
 62
7
  6
BYLAYER
 70
0
 71
3
 72
9
 73
5
 74
0
 42
0.0000001
 43
0.0000001
 44
0.0000000001
 40
0.0
 40
0.0
 40
0.0
 40
0.0
 40
0.4675244887
 40
1.0
 40
1.0
 40
1.0
 40
1.0
 10
66.1476511768
 20
94.4842851271
 30
0.0
 10
66.3305683855
 20
94.4352444604
 30
0.0
 10
66.7053273436
 20
94.2677280353
 30
0.0
 10
67.031845449
 20
94.0236891696
 30
0.0
 10
67.19322519
 20
93.8805905843
 30
0.0
  0
SPLINE
  5
2A0
100
AcDbEntity
  8
0
100
AcDbSpline
 62
7
  6
BYLAYER
 70
0
 71
3
 72
9
 73
5
 74
0
 42
0.0000001
 43
0.0000001
 44
0.0000000001
 40
0.0
 40
0.0
 40
0.0
 40
0.0
 40
0.4675244887
 40
1.0
 40
1.0
 40
1.0
 40
1.0
 10
77.1036092583
 20
88.1590028766
 30
0.0
 10
77.2865264669
 20
88.1099622098
 30
0.0
 10
77.6612854251
 20
87.9424457847
 30
0.0
 10
77.9878035304
 20
87.6984069191
 30
0.0
 10
78.1491832714
 20
87.5553083338
 30
0.0
  0
SPLINE
  5
2A1
100
AcDbEntity
  8
0
100
AcDbSpline
 62
7
  6
BYLAYER
 70
0
 71
3
 72
12
 73
8
 74
0
 42
0.0000001
 43
0.0000001
 44
0.0000000001
 40
0.0
 40
0.0
 40
0.0
 40
0.0
 40
0.1081614688
 40
0.2183687403
 40
0.4513480153
 40
0.7104447573
 40
1.0
 40
1.0
 40
1.0
 40
1.0
 10
54.7972749318
 20
100.0500645355
 30
0.0
 10
54.8597391991
 20
100.086128084
 30
0.0
 10
54.992368612
 20
100.1482594863
 30
0.0
 10
55.2836192289
 20
100.2288029942
 30
0.0
 10
55.6915516213
 20
100.2397419848
 30
0.0
 10
56.2024053282
 20
100.1161558717
 30
0.0
 10
56.5350308346
 20
99.9579445205
 30
0.0
 10
56.7022524142
 20
99.8614012808
 30
0.0
  0
SPLINE
  5
2A2
100
AcDbEntity
  8
0
100
AcDbSpline
 62
7
  6
BYLAYER
 70
0
 71
3
 72
15
 73
11
 74
0
 42
0.0000001
 43
0.0000001
 44
0.0000000001
 40
0.0
 40
0.0
 40
0.0
 40
0.0
 40
0.1130020233
 40
0.2345526003
 40
0.3624230786
 40
0.4940272722
 40
0.6264449497
 40
0.7567202863
 40
0.8820266509
 40
1.0
 40
1.0
 40
1.0
 40
1.0
 10
75.9202016467
 20
71.9678735562
 30
0.0
 10
76.0923128094
 20
71.8685073779
 30
0.0
 10
76.432866741
 20
71.6326411947
 30
0.0
 10
76.9051899192
 20
71.20241206
 30
0.0
 10
77.3450085516
 20
70.6949077604
 30
0.0
 10
77.7378928582
 20
70.12706127
 30
0.0
 10
78.0709294842
 20
69.517362975
 30
0.0
 10
78.333151194
 20
68.8858979976
 30
0.0
 10
78.5160392205
 20
68.2534534491
 30
0.0
 10
78.5833153715
 20
67.8293702648
 30
0.0
 10
78.6005704566
 20
67.622610266
 30
0.0
  0
SPLINE
  5
2A3
100
AcDbEntity
  8
0
100
AcDbSpline
 62
7
  6
BYLAYER
 70
0
 71
3
 72
9
 73
5
 74
0
 42
0.0000001
 43
0.0000001
 44
0.0000000001
 40
0.0
 40
0.0
 40
0.0
 40
0.0
 40
0.5188540866
 40
1.0
 40
1.0
 40
1.0
 40
1.0
 10
82.9485883467
 20
66.7092074651
 30
0.0
 10
83.0012345588
 20
66.5286832164
 30
0.0
 10
83.0820774914
 20
66.1742920234
 30
0.0
 10
83.1133703861
 20
65.8115909652
 30
0.0
 10
83.1133703861
 20
65.6372130245
 30
0.0
  0
SPLINE
  5
2A4
100
AcDbEntity
  8
0
100
AcDbSpline
 62
7
  6
BYLAYER
 70
0
 71
3
 72
12
 73
8
 74
0
 42
0.0000001
 43
0.0000001
 44
0.0000000001
 40
0.0
 40
0.0
 40
0.0
 40
0.0
 40
0.2502661452
 40
0.5126917073
 40
0.7682405583
 40
0.8881002135
 40
1.0
 40
1.0
 40
1.0
 40
1.0
 10
82.9218126386
 20
69.730090931
 30
0.0
 10
83.1348934902
 20
69.5471951891
 30
0.0
 10
83.5270035027
 20
69.119204325
 30
0.0
 10
83.9795634451
 20
68.3805204379
 30
0.0
 10
84.2351028613
 20
67.7060412153
 30
0.0
 10
84.3421948037
 20
67.1688466059
 30
0.0
 10
84.3616177241
 20
66.9085868085
 30
0.0
 10
84.3616177241
 20
66.7830301211
 30
0.0
  0
SPLINE
  5
2A5
100
AcDbEntity
  8
0
100
AcDbSpline
 62
7
  6
BYLAYER
 70
0
 71
3
 72
11
 73
7
 74
0
 42
0.0000001
 43
0.0000001
 44
0.0000000001
 40
0.0
 40
0.0
 40
0.0
 40
0.0
 40
0.286696489
 40
0.5465415501
 40
0.7818064469
 40
1.0
 40
1.0
 40
1.0
 40
1.0
 10
87.9087603791
 20
70.1270544251
 30
0.0
 10
87.9087603791
 20
69.9962103932
 30
0.0
 10
87.8906579147
 20
69.7461243072
 30
0.0
 10
87.8002545833
 20
69.3984848104
 30
0.0
 10
87.6486241134
 20
69.1067936575
 30
0.0
 10
87.5045135484
 20
68.9534641275
 30
0.0
 10
87.4259098851
 20
68.892327383
 30
0.0
  0
SPLINE
  5
2A6
100
AcDbEntity
  8
0
100
AcDbSpline
 62
7
  6
BYLAYER
 70
0
 71
3
 72
11
 73
7
 74
0
 42
0.0000001
 43
0.0000001
 44
0.0000000001
 40
0.0
 40
0.0
 40
0.0
 40
0.0
 40
0.286696489
 40
0.5465415501
 40
0.7818064469
 40
1.0
 40
1.0
 40
1.0
 40
1.0
 10
87.9087603791
 20
79.6670686668
 30
0.0
 10
87.9087603791
 20
79.5362246349
 30
0.0
 10
87.8906579147
 20
79.2861385489
 30
0.0
 10
87.8002545833
 20
78.9384990522
 30
0.0
 10
87.6486241134
 20
78.6468078992
 30
0.0
 10
87.5045135484
 20
78.4934783693
 30
0.0
 10
87.4259098851
 20
78.4323416247
 30
0.0
  0
SPLINE
  5
2A7
100
AcDbEntity
  8
0
100
AcDbSpline
 62
7
  6
BYLAYER
 70
0
 71
3
 72
11
 73
7
 74
0
 42
0.0000001
 43
0.0000001
 44
0.0000000001
 40
0.0
 40
0.0
 40
0.0
 40
0.0
 40
0.2372428732
 40
0.4999994739
 40
0.7627563609
 40
1.0
 40
1.0
 40
1.0
 40
1.0
 10
19.5240369235
 20
77.7742384552
 30
0.0
 10
19.4857883389
 20
77.7521557564
 30
0.0
 10
19.3968414133
 20
77.7199358332
 30
0.0
 10
19.2546296634
 20
77.7044975224
 30
0.0
 10
19.1124176989
 20
77.7199351842
 30
0.0
 10
19.0234704235
 20
77.7521546658
 30
0.0
 10
18.9852215562
 20
77.77423716
 30
0.0
  0
SPLINE
  5
2A8
100
AcDbEntity
  8
0
100
AcDbSpline
 62
7
  6
BYLAYER
 70
0
 71
3
 72
11
 73
7
 74
0
 42
0.0000001
 43
0.0000001
 44
0.0000000001
 40
0.0
 40
0.0
 40
0.0
 40
0.0
 40
0.2372428732
 40
0.4999994739
 40
0.7627563609
 40
1.0
 40
1.0
 40
1.0
 40
1.0
 10
26.9327614962
 20
75.9336951588
 30
0.0
 10
26.8945129116
 20
75.91161246
 30
0.0
 10
26.8055659859
 20
75.8793925368
 30
0.0
 10
26.6633542361
 20
75.863954226
 30
0.0
 10
26.5211422716
 20
75.8793918878
 30
0.0
 10
26.4321949962
 20
75.9116113694
 30
0.0
 10
26.3939461289
 20
75.9336938636
 30
0.0
  0
SPLINE
  5
2A9
100
AcDbEntity
  8
0
100
AcDbSpline
 62
7
  6
BYLAYER
 70
0
 71
3
 72
11
 73
7
 74
0
 42
0.0000001
 43
0.0000001
 44
0.0000000001
 40
0.0
 40
0.0
 40
0.0
 40
0.0
 40
0.2372436391
 40
0.5000005261
 40
0.7627571268
 40
1.0
 40
1.0
 40
1.0
 40
1.0
 10
21.6343860823
 20
93.8211368591
 30
0.0
 10
21.596137215
 20
93.8432193533
 30
0.0
 10
21.5071899396
 20
93.8754388349
 30
0.0
 10
21.3649779752
 20
93.8908764967
 30
0.0
 10
21.2227662253
 20
93.8754381859
 30
0.0
 10
21.1338192996
 20
93.8432182627
 30
0.0
 10
21.0955707151
 20
93.8211355639
 30
0.0
  0
SPLINE
  5
2AA
100
AcDbEntity
  8
0
100
AcDbSpline
 62
7
  6
BYLAYER
 70
0
 71
3
 72
11
 73
7
 74
0
 42
0.0000001
 43
0.0000001
 44
0.0000000001
 40
0.0
 40
0.0
 40
0.0
 40
0.0
 40
0.2372436391
 40
0.5000005261
 40
0.7627571268
 40
1.0
 40
1.0
 40
1.0
 40
1.0
 10
32.7250003354
 20
94.1063208719
 30
0.0
 10
32.6867514681
 20
94.1284033661
 30
0.0
 10
32.5978041927
 20
94.1606228477
 30
0.0
 10
32.4555922282
 20
94.1760605095
 30
0.0
 10
32.3133804784
 20
94.1606221987
 30
0.0
 10
32.2244335527
 20
94.1284022755
 30
0.0
 10
32.1861849681
 20
94.1063195767
 30
0.0
  0
SPLINE
  5
2AB
100
AcDbEntity
  8
0
100
AcDbSpline
 62
7
  6
BYLAYER
 70
0
 71
3
 72
17
 73
13
 74
0
 42
0.0000001
 43
0.0000001
 44
0.0000000001
 40
0.0
 40
0.0
 40
0.0
 40
0.0
 40
0.1245344736
 40
0.261053881
 40
0.4037351442
 40
0.545778264
 40
0.6804972414
 40
0.8023552014
 40
0.8574787379
 40
0.9085390331
 40
0.9558250202
 40
1.0
 40
1.0
 40
1.0
 40
1.0
 10
76.4950167036
 20
52.4525579908
 30
0.0
 10
76.4950167036
 20
52.2385902718
 30
0.0
 10
76.5497109862
 20
51.7895509353
 30
0.0
 10
76.757297002
 20
51.124632454
 30
0.0
 10
77.0806648769
 20
50.47383428
 30
0.0
 10
77.4976545439
 20
49.8824232123
 30
0.0
 10
77.9792821078
 20
49.3911695581
 30
0.0
 10
78.4227176112
 20
49.0825850912
 30
0.0
 10
78.7812353379
 20
48.9219438358
 30
0.0
 10
79.0357218346
 20
48.8489536804
 30
0.0
 10
79.2802235752
 20
48.8210608166
 30
0.0
 10
79.4381966449
 20
48.8337257414
 30
0.0
 10
79.5126965657
 20
48.8482306636
 30
0.0
  0
SPLINE
  5
2AC
100
AcDbEntity
  8
0
100
AcDbSpline
 62
7
  6
BYLAYER
 70
0
 71
3
 72
11
 73
7
 74
0
 42
0.0000001
 43
0.0000001
 44
0.0000000001
 40
0.0
 40
0.0
 40
0.0
 40
0.0
 40
0.2897016594
 40
0.5490895814
 40
0.7822189142
 40
1.0
 40
1.0
 40
1.0
 40
1.0
 10
79.8356903757
 20
49.9017038699
 30
0.0
 10
79.8356903757
 20
49.7627115057
 30
0.0
 10
79.814617237
 20
49.4983761302
 30
0.0
 10
79.7075701813
 20
49.135190499
 30
0.0
 10
79.5273253595
 20
48.8404861533
 30
0.0
 10
79.3580202948
 20
48.6981634156
 30
0.0
 10
79.2675361575
 20
48.6459135697
 30
0.0
  0
SPLINE
  5
2AD
100
AcDbEntity
  8
0
100
AcDbSpline
 62
7
  6
BYLAYER
 70
0
 71
3
 72
9
 73
5
 74
0
 42
0.0000001
 43
0.0000001
 44
0.0000000001
 40
0.0
 40
0.0
 40
0.0
 40
0.0
 40
0.2437896019
 40
1.0
 40
1.0
 40
1.0
 40
1.0
 10
32.925275836
 20
84.6581248522
 30
0.0
 10
32.925275836
 20
84.6446050244
 30
0.0
 10
32.9260877414
 20
84.5891495584
 30
0.0
 10
32.9300310149
 20
84.5337521736
 30
0.0
 10
32.9345389308
 20
84.4920580384
 30
0.0
  0
SPLINE
  5
2AE
100
AcDbEntity
  8
0
100
AcDbSpline
 62
7
  6
BYLAYER
 70
0
 71
3
 72
17
 73
13
 74
0
 42
0.0000001
 43
0.0000001
 44
0.0000000001
 40
0.0
 40
0.0
 40
0.0
 40
0.0
 40
0.1286930371
 40
0.2702795962
 40
0.4174375935
 40
0.5617786795
 40
0.6954478243
 40
0.81271112
 40
0.8646738576
 40
0.9125098523
 40
0.9571380034
 40
1.0
 40
1.0
 40
1.0
 40
1.0
 10
50.7755218963
 20
58.1763819706
 30
0.0
 10
50.7755218963
 20
57.9592683959
 30
0.0
 10
50.8362532754
 20
57.5027669098
 30
0.0
 10
51.0629725502
 20
56.8324991081
 30
0.0
 10
51.4122896143
 20
56.1868186859
 30
0.0
 10
51.8561684506
 20
55.6186763491
 30
0.0
 10
52.3583086903
 20
55.1739650044
 30
0.0
 10
52.812804497
 20
54.9254232115
 30
0.0
 10
53.1683441897
 20
54.8308674043
 30
0.0
 10
53.4130422043
 20
54.8128208373
 30
0.0
 10
53.6408893871
 20
54.8462724693
 30
0.0
 10
53.7789507355
 20
54.9035888599
 30
0.0
 10
53.8415690495
 20
54.9397527431
 30
0.0
  0
SPLINE
  5
2AF
100
AcDbEntity
  8
0
100
AcDbSpline
 62
7
  6
BYLAYER
 70
0
 71
3
 72
11
 73
7
 74
0
 42
0.0000001
 43
0.0000001
 44
0.0000000001
 40
0.0
 40
0.0
 40
0.0
 40
0.0
 40
0.2897016594
 40
0.5490895814
 40
0.7822189142
 40
1.0
 40
1.0
 40
1.0
 40
1.0
 10
16.9736358101
 20
86.1943069468
 30
0.0
 10
16.9736358101
 20
86.0553145826
 30
0.0
 10
16.9525626714
 20
85.7909792071
 30
0.0
 10
16.8455156157
 20
85.4277935758
 30
0.0
 10
16.6652707939
 20
85.1330892302
 30
0.0
 10
16.4959657292
 20
84.9907664925
 30
0.0
 10
16.405481592
 20
84.9385166466
 30
0.0
  0
SPLINE
  5
2B0
100
AcDbEntity
  8
0
100
AcDbSpline
 62
7
  6
BYLAYER
 70
0
 71
3
 72
17
 73
13
 74
0
 42
0.0000001
 43
0.0000001
 44
0.0000000001
 40
0.0
 40
0.0
 40
0.0
 40
0.0
 40
0.1245344736
 40
0.261053881
 40
0.4037351442
 40
0.545778264
 40
0.6804972414
 40
0.8023552014
 40
0.8574787379
 40
0.9085390331
 40
0.9558250202
 40
1.0
 40
1.0
 40
1.0
 40
1.0
 10
13.632962138
 20
88.7451610676
 30
0.0
 10
13.632962138
 20
88.5311933487
 30
0.0
 10
13.6876564206
 20
88.0821540122
 30
0.0
 10
13.8952424364
 20
87.4172355308
 30
0.0
 10
14.2186103114
 20
86.7664373569
 30
0.0
 10
14.6355999783
 20
86.1750262892
 30
0.0
 10
15.1172275422
 20
85.683772635
 30
0.0
 10
15.5606630456
 20
85.3751881681
 30
0.0
 10
15.9191807724
 20
85.2145469127
 30
0.0
 10
16.173667269
 20
85.1415567573
 30
0.0
 10
16.4181690097
 20
85.1136638934
 30
0.0
 10
16.5761420794
 20
85.1263288182
 30
0.0
 10
16.6506420001
 20
85.1408337404
 30
0.0
  0
SPLINE
  5
2B1
100
AcDbEntity
  8
0
100
AcDbSpline
 62
7
  6
BYLAYER
 70
0
 71
3
 72
11
 73
7
 74
0
 42
0.0000001
 43
0.0000001
 44
0.0000000001
 40
0.0
 40
0.0
 40
0.0
 40
0.0
 40
0.2593171142
 40
0.5209138456
 40
0.7715877078
 40
1.0
 40
1.0
 40
1.0
 40
1.0
 10
77.4355817455
 20
68.327724951
 30
0.0
 10
77.322498777
 20
68.6561457272
 30
0.0
 10
77.0377890119
 20
69.2971610467
 30
0.0
 10
76.4731492043
 20
70.1677976707
 30
0.0
 10
75.8032803594
 20
70.9055243984
 30
0.0
 10
75.2871404064
 20
71.2964318506
 30
0.0
 10
75.0221797576
 20
71.449403492
 30
0.0
  0
SPLINE
  5
2B2
100
AcDbEntity
  8
0
100
AcDbSpline
 62
7
  6
BYLAYER
 70
0
 71
3
 72
18
 73
14
 74
0
 42
0.0000001
 43
0.0000001
 44
0.0000000001
 40
0.0
 40
0.0
 40
0.0
 40
0.0
 40
0.0428463662
 40
0.0874628483
 40
0.1352814188
 40
0.1872327924
 40
0.2437229316
 40
0.3047269508
 40
0.4383587617
 40
0.5826629504
 40
0.7297843634
 40
0.8713371892
 40
1.0
 40
1.0
 40
1.0
 40
1.0
 10
52.7800282625
 20
76.4800473232
 30
0.0
 10
52.8583072412
 20
76.5252240916
 30
0.0
 10
53.0308302099
 20
76.5969756513
 30
0.0
 10
53.3156531335
 20
76.6386558408
 30
0.0
 10
53.6215048151
 20
76.6162117508
 30
0.0
 10
53.9415871331
 20
76.5311310695
 30
0.0
 10
54.269659566
 20
76.3861703747
 30
0.0
 10
54.7225555093
 20
76.1090021026
 30
0.0
 10
55.2620554544
 20
75.6311837191
 30
0.0
 10
55.8165023357
 20
74.9213568872
 30
0.0
 10
56.2532711425
 20
74.1141420343
 30
0.0
 10
56.5366590598
 20
73.2763143949
 30
0.0
 10
56.6125855569
 20
72.705664581
 30
0.0
 10
56.6125855569
 20
72.4342637142
 30
0.0
  0
SPLINE
  5
2B3
100
AcDbEntity
  8
0
100
AcDbSpline
 62
7
  6
BYLAYER
 70
0
 71
3
 72
15
 73
11
 74
0
 42
0.0000001
 43
0.0000001
 44
0.0000000001
 40
0.0
 40
0.0
 40
0.0
 40
0.0
 40
0.0896924302
 40
0.1863852948
 40
0.2947229722
 40
0.4163930761
 40
0.5506721356
 40
0.6951453317
 40
0.8462969305
 40
1.0
 40
1.0
 40
1.0
 40
1.0
 10
50.3461806916
 20
74.6349538723
 30
0.0
 10
50.4435016672
 20
74.6911472802
 30
0.0
 10
50.6693003735
 20
74.7705112614
 30
0.0
 10
51.0439991695
 20
74.7701903681
 30
0.0
 10
51.4422677761
 20
74.6601001056
 30
0.0
 10
51.8494271171
 20
74.4480538301
 30
0.0
 10
52.2507078265
 20
74.1436379434
 30
0.0
 10
52.6304058793
 20
73.7593097171
 30
0.0
 10
52.9731058844
 20
73.3109724069
 30
0.0
 10
53.1678398127
 20
72.9811333129
 30
0.0
 10
53.2556536274
 20
72.8097390066
 30
0.0
  0
SPLINE
  5
2B4
100
AcDbEntity
  8
0
100
AcDbSpline
 62
7
  6
BYLAYER
 70
0
 71
3
 72
17
 73
13
 74
0
 42
0.0000001
 43
0.0000001
 44
0.0000000001
 40
0.0
 40
0.0
 40
0.0
 40
0.0
 40
0.0428592926
 40
0.087485474
 40
0.1353198781
 40
0.1872819044
 40
0.3045421965
 40
0.4382074305
 40
0.582548911
 40
0.7297129633
 40
0.8713059682
 40
1.0
 40
1.0
 40
1.0
 40
1.0
 10
58.6204688839
 20
63.5646818817
 30
0.0
 10
58.6830854583
 20
63.6008396709
 30
0.0
 10
58.8211348971
 20
63.6581626769
 30
0.0
 10
59.0489732358
 20
63.6916049193
 30
0.0
 10
59.293664575
 20
63.6735766513
 30
0.0
 10
59.649195343
 20
63.5790171767
 30
0.0
 10
60.103686272
 20
63.3304987746
 30
0.0
 10
60.6058265329
 20
62.8858015642
 30
0.0
 10
61.0497171006
 20
62.3176634726
 30
0.0
 10
61.3990535098
 20
61.6719680392
 30
0.0
 10
61.6257833789
 20
61.0016793042
 30
0.0
 10
61.6865175671
 20
60.5451653283
 30
0.0
 10
61.6865175671
 20
60.3280500523
 30
0.0
  0
SPLINE
  5
2B5
100
AcDbEntity
  8
0
100
AcDbSpline
 62
7
  6
BYLAYER
 70
0
 71
3
 72
17
 73
13
 74
0
 42
0.0000001
 43
0.0000001
 44
0.0000000001
 40
0.0
 40
0.0
 40
0.0
 40
0.0
 40
0.0428592926
 40
0.087485474
 40
0.1353198781
 40
0.1872819044
 40
0.3045421965
 40
0.4382074305
 40
0.582548911
 40
0.7297129633
 40
0.8713059682
 40
1.0
 40
1.0
 40
1.0
 40
1.0
 10
79.2675361575
 20
48.6459135697
 30
0.0
 10
79.1999102572
 20
48.6068631574
 30
0.0
 10
79.0508168633
 20
48.5449543109
 30
0.0
 10
78.8047514575
 20
48.5088366891
 30
0.0
 10
78.5404848112
 20
48.5283072186
 30
0.0
 10
78.1565115817
 20
48.6304314512
 30
0.0
 10
77.6656613784
 20
48.8988313254
 30
0.0
 10
77.1233498966
 20
49.3791043126
 30
0.0
 10
76.6439480835
 20
49.9926934516
 30
0.0
 10
76.2666647615
 20
50.6900445196
 30
0.0
 10
76.0217965029
 20
51.4139563534
 30
0.0
 10
75.9562035796
 20
51.9069914474
 30
0.0
 10
75.9562035796
 20
52.1414759455
 30
0.0
  0
SPLINE
  5
2B6
100
AcDbEntity
  8
0
100
AcDbSpline
 62
7
  6
BYLAYER
 70
0
 71
3
 72
11
 73
7
 74
0
 42
0.0000001
 43
0.0000001
 44
0.0000000001
 40
0.0
 40
0.0
 40
0.0
 40
0.0
 40
0.2177839466
 40
0.4509170841
 40
0.710307871
 40
1.0
 40
1.0
 40
1.0
 40
1.0
 10
53.8415690495
 20
54.9397527431
 30
0.0
 10
53.9253487379
 20
54.9881379307
 30
0.0
 10
54.0821219037
 20
55.119909668
 30
0.0
 10
54.2490108376
 20
55.3927943759
 30
0.0
 10
54.3481276779
 20
55.7290745119
 30
0.0
 10
54.3676393001
 20
55.973826648
 30
0.0
 10
54.3676393001
 20
56.1025189376
 30
0.0
  0
SPLINE
  5
2B7
100
AcDbEntity
  8
0
100
AcDbSpline
 62
7
  6
BYLAYER
 70
0
 71
3
 72
9
 73
5
 74
0
 42
0.0000001
 43
0.0000001
 44
0.0000000001
 40
0.0
 40
0.0
 40
0.0
 40
0.0
 40
0.2438606766
 40
1.0
 40
1.0
 40
1.0
 40
1.0
 10
35.0299668791
 20
83.2822342909
 30
0.0
 10
35.0315198659
 20
83.2947994616
 30
0.0
 10
35.0370369918
 20
83.3464287506
 30
0.0
 10
35.0392369281
 20
83.3983991577
 30
0.0
 10
35.0392369281
 20
83.4376564573
 30
0.0
  0
SPLINE
  5
2B8
100
AcDbEntity
  8
0
100
AcDbSpline
 62
7
  6
BYLAYER
 70
0
 71
3
 72
17
 73
13
 74
0
 42
0.0000001
 43
0.0000001
 44
0.0000000001
 40
0.0
 40
0.0
 40
0.0
 40
0.0
 40
0.042857965
 40
0.0874854797
 40
0.1353180708
 40
0.1872814984
 40
0.3045423159
 40
0.4382097446
 40
0.5825520305
 40
0.7297107839
 40
0.8713099826
 40
1.0
 40
1.0
 40
1.0
 40
1.0
 10
34.3632066486
 20
86.2915200307
 30
0.0
 10
34.4064025776
 20
86.3164822065
 30
0.0
 10
34.5016538419
 20
86.356050771
 30
0.0
 10
34.6588634186
 20
86.379108536
 30
0.0
 10
34.8276995098
 20
86.3666671525
 30
0.0
 10
35.0730197295
 20
86.3014352322
 30
0.0
 10
35.3866242137
 20
86.1299555983
 30
0.0
 10
35.7331055112
 20
85.8231137649
 30
0.0
 10
36.0393810258
 20
85.4310957411
 30
0.0
 10
36.2804323278
 20
84.9855684169
 30
0.0
 10
36.4368547543
 20
84.5230660267
 30
0.0
 10
36.4787675089
 20
84.2080707803
 30
0.0
 10
36.4787675089
 20
84.058266014
 30
0.0
  0
SPLINE
  5
2B9
100
AcDbEntity
  8
0
100
AcDbSpline
 62
7
  6
BYLAYER
 70
0
 71
3
 72
11
 73
7
 74
0
 42
0.0000001
 43
0.0000001
 44
0.0000000001
 40
0.0
 40
0.0
 40
0.0
 40
0.0
 40
0.2372436391
 40
0.5000005261
 40
0.7627571268
 40
1.0
 40
1.0
 40
1.0
 40
1.0
 10
26.3939461289
 20
90.4511068402
 30
0.0
 10
26.4321949962
 20
90.4290243459
 30
0.0
 10
26.5211422716
 20
90.3968048644
 30
0.0
 10
26.6633542361
 20
90.3813672026
 30
0.0
 10
26.8055659859
 20
90.3968055134
 30
0.0
 10
26.8945129116
 20
90.4290254366
 30
0.0
 10
26.9327614962
 20
90.4511081354
 30
0.0
  0
SPLINE
  5
2BA
100
AcDbEntity
  8
0
100
AcDbSpline
 62
7
  6
BYLAYER
 70
0
 71
3
 72
11
 73
7
 74
0
 42
0.0000001
 43
0.0000001
 44
0.0000000001
 40
0.0
 40
0.0
 40
0.0
 40
0.0
 40
0.2372436391
 40
0.5000005261
 40
0.7627571268
 40
1.0
 40
1.0
 40
1.0
 40
1.0
 10
18.9852215562
 20
92.2916501366
 30
0.0
 10
19.0234704235
 20
92.2695676423
 30
0.0
 10
19.1124176989
 20
92.2373481608
 30
0.0
 10
19.2546296634
 20
92.221910499
 30
0.0
 10
19.3968414133
 20
92.2373488098
 30
0.0
 10
19.4857883389
 20
92.269568733
 30
0.0
 10
19.5240369235
 20
92.2916514317
 30
0.0
  0
SPLINE
  5
2BB
100
AcDbEntity
  8
0
100
AcDbSpline
 62
7
  6
BYLAYER
 70
0
 71
3
 72
9
 73
5
 74
0
 42
0.0000001
 43
0.0000001
 44
0.0000000001
 40
0.0
 40
0.0
 40
0.0
 40
0.0
 40
0.2371881918
 40
1.0
 40
1.0
 40
1.0
 40
1.0
 10
35.3623402319
 20
83.0944629765
 30
0.0
 10
35.3693424478
 20
83.1209277211
 30
0.0
 10
35.3945978056
 20
83.2336251391
 30
0.0
 10
35.4038353266
 20
83.3496162932
 30
0.0
 10
35.4038353266
 20
83.4376573337
 30
0.0
  0
SPLINE
  5
2BC
100
AcDbEntity
  8
0
100
AcDbSpline
 62
7
  6
BYLAYER
 70
0
 71
3
 72
11
 73
7
 74
0
 42
0.0000001
 43
0.0000001
 44
0.0000000001
 40
0.0
 40
0.0
 40
0.0
 40
0.0
 40
0.2897016594
 40
0.5490895814
 40
0.7822189142
 40
1.0
 40
1.0
 40
1.0
 40
1.0
 10
75.9562035796
 20
52.1414759455
 30
0.0
 10
75.9562035796
 20
52.2804683097
 30
0.0
 10
75.9772767183
 20
52.5448036852
 30
0.0
 10
76.084323774
 20
52.9079893165
 30
0.0
 10
76.2645685958
 20
53.2026936621
 30
0.0
 10
76.4338736606
 20
53.3450163998
 30
0.0
 10
76.5243577978
 20
53.3972662457
 30
0.0
  0
SPLINE
  5
2BD
100
AcDbEntity
  8
0
100
AcDbSpline
 62
7
  6
BYLAYER
 70
0
 71
3
 72
11
 73
7
 74
0
 42
0.0000001
 43
0.0000001
 44
0.0000000001
 40
0.0
 40
0.0
 40
0.0
 40
0.0
 40
0.2896413964
 40
0.5491107671
 40
0.7822355978
 40
1.0
 40
1.0
 40
1.0
 40
1.0
 10
36.4787675089
 20
84.058266014
 30
0.0
 10
36.4787675089
 20
83.9694841774
 30
0.0
 10
36.4652726369
 20
83.8006001097
 30
0.0
 10
36.3969188277
 20
83.5685588286
 30
0.0
 10
36.2817770906
 20
83.3802243308
 30
0.0
 10
36.1735611114
 20
83.2893754929
 30
0.0
 10
36.1157673606
 20
83.25597749
 30
0.0
  0
SPLINE
  5
2BE
100
AcDbEntity
  8
0
100
AcDbSpline
 62
7
  6
BYLAYER
 70
0
 71
3
 72
11
 73
7
 74
0
 42
0.0000001
 43
0.0000001
 44
0.0000000001
 40
0.0
 40
0.0
 40
0.0
 40
0.0
 40
0.2855038523
 40
0.545310146
 40
0.7813314918
 40
1.0
 40
1.0
 40
1.0
 40
1.0
 10
56.6125855569
 20
72.4342637142
 30
0.0
 10
56.6125855569
 20
72.2945313012
 30
0.0
 10
56.5939783698
 20
72.0270101062
 30
0.0
 10
56.5014119702
 20
71.6535976
 30
0.0
 10
56.3463512606
 20
71.3367941427
 30
0.0
 10
56.1986308022
 20
71.1659465552
 30
0.0
 10
56.1174861159
 20
71.0961671731
 30
0.0
  0
SPLINE
  5
2BF
100
AcDbEntity
  8
0
100
AcDbSpline
 62
7
  6
BYLAYER
 70
0
 71
3
 72
17
 73
13
 74
0
 42
0.0000001
 43
0.0000001
 44
0.0000000001
 40
0.0
 40
0.0
 40
0.0
 40
0.0
 40
0.1286888525
 40
0.2702802895
 40
0.4174331647
 40
0.5617754839
 40
0.695448121
 40
0.8127120865
 40
0.8646770447
 40
0.9125101515
 40
0.9571398234
 40
1.0
 40
1.0
 40
1.0
 40
1.0
 10
67.344102478
 20
62.1428103172
 30
0.0
 10
67.4569144119
 20
62.0776797902
 30
0.0
 10
67.7123403456
 20
61.9722935676
 30
0.0
 10
68.1286278213
 20
61.8890058481
 30
0.0
 10
68.568927988
 20
61.8768186889
 30
0.0
 10
68.9973043023
 20
61.937014053
 30
0.0
 10
69.3790325577
 20
62.0645166724
 30
0.0
 10
69.6445246737
 20
62.2261258075
 30
0.0
 10
69.8003279663
 20
62.3824956413
 30
0.0
 10
69.8831005168
 20
62.5042370755
 30
0.0
 10
69.9341051363
 20
62.6326498394
 30
0.0
 10
69.9457140171
 20
62.7215897695
 30
0.0
 10
69.945696783
 20
62.7649743048
 30
0.0
  0
SPLINE
  5
2C0
100
AcDbEntity
  8
0
100
AcDbSpline
 62
7
  6
BYLAYER
 70
0
 71
3
 72
11
 73
7
 74
0
 42
0.0000001
 43
0.0000001
 44
0.0000000001
 40
0.0
 40
0.0
 40
0.0
 40
0.0
 40
0.2893985563
 40
0.5491303118
 40
0.7823153329
 40
1.0
 40
1.0
 40
1.0
 40
1.0
 10
68.9605418499
 20
63.0760564529
 30
0.0
 10
68.9939416686
 20
63.0567734948
 30
0.0
 10
69.0545579593
 20
63.014933471
 30
0.0
 10
69.1271514051
 20
62.9388176164
 30
0.0
 10
69.1730086308
 20
62.8544747274
 30
0.0
 10
69.1837167565
 20
62.7939840735
 30
0.0
 10
69.1836962534
 20
62.7649744299
 30
0.0
  0
SPLINE
  5
2C1
100
AcDbEntity
  8
0
100
AcDbSpline
 62
7
  6
BYLAYER
 70
0
 71
3
 72
20
 73
16
 74
0
 42
0.0000001
 43
0.0000001
 44
0.0000000001
 40
0.0
 40
0.0
 40
0.0
 40
0.0
 40
0.0662497053
 40
0.1376275769
 40
0.2896245612
 40
0.4434640714
 40
0.5857132608
 40
0.649337297
 40
0.7069760692
 40
0.7588377487
 40
0.8061438637
 40
0.851149766
 40
0.896766262
 40
0.945746983
 40
1.0
 40
1.0
 40
1.0
 40
1.0
 10
35.0392369281
 20
83.4376564573
 30
0.0
 10
35.0392369281
 20
83.5157706268
 30
0.0
 10
35.0257561934
 20
83.6781922791
 30
0.0
 10
34.9526111825
 20
84.0124867024
 30
0.0
 10
34.780224372
 20
84.4269219875
 30
0.0
 10
34.4806838121
 20
84.8660537938
 30
0.0
 10
34.1678798
 20
85.1599932906
 30
0.0
 10
33.8996785759
 20
85.3191813668
 30
0.0
 10
33.7077031804
 20
85.3921667829
 30
0.0
 10
33.5231950052
 20
85.4200547443
 30
0.0
 10
33.3519072767
 20
85.4005010077
 30
0.0
 10
33.2013191363
 20
85.3318319858
 30
0.0
 10
33.0793322088
 20
85.2172866594
 30
0.0
 10
32.9908582811
 20
85.0633129887
 30
0.0
 10
32.957120966
 20
84.9452086798
 30
0.0
 10
32.9452466629
 20
84.8823513995
 30
0.0
  0
SPLINE
  5
2C2
100
AcDbEntity
  8
0
100
AcDbSpline
 62
7
  6
BYLAYER
 70
0
 71
3
 72
9
 73
5
 74
0
 42
0.0000001
 43
0.0000001
 44
0.0000000001
 40
0.0
 40
0.0
 40
0.0
 40
0.0
 40
0.2407178034
 40
1.0
 40
1.0
 40
1.0
 40
1.0
 10
32.9452466629
 20
84.8823513995
 30
0.0
 10
32.9418909159
 20
84.864587567
 30
0.0
 10
32.9298820387
 20
84.7904321056
 30
0.0
 10
32.925275836
 20
84.7151472996
 30
0.0
 10
32.925275836
 20
84.6581248522
 30
0.0
  0
SPLINE
  5
2C3
100
AcDbEntity
  8
0
100
AcDbSpline
 62
7
  6
BYLAYER
 70
0
 71
3
 72
17
 73
13
 74
0
 42
0.0000001
 43
0.0000001
 44
0.0000000001
 40
0.0
 40
0.0
 40
0.0
 40
0.0
 40
0.1286837031
 40
0.2702725349
 40
0.4174302725
 40
0.5617759577
 40
0.6954465725
 40
0.8127112124
 40
0.8646756474
 40
0.9125092815
 40
0.9571393976
 40
1.0
 40
1.0
 40
1.0
 40
1.0
 10
35.4038353266
 20
83.4376573337
 30
0.0
 10
35.4038353266
 20
83.5874553816
 30
0.0
 10
35.361929361
 20
83.902432839
 30
0.0
 10
35.2055192892
 20
84.3649194961
 30
0.0
 10
34.9644829131
 20
84.8104466753
 30
0.0
 10
34.6582097331
 20
85.2024774234
 30
0.0
 10
34.311723819
 20
85.5093362545
 30
0.0
 10
33.9981128219
 20
85.6808244542
 30
0.0
 10
33.7527872742
 20
85.746069557
 30
0.0
 10
33.5839448414
 20
85.7585073476
 30
0.0
 10
33.4267265632
 20
85.735454636
 30
0.0
 10
33.3314693217
 20
85.6958818409
 30
0.0
 10
33.2882710568
 20
85.6709171505
 30
0.0
  0
SPLINE
  5
2C4
100
AcDbEntity
  8
0
100
AcDbSpline
 62
7
  6
BYLAYER
 70
0
 71
3
 72
11
 73
7
 74
0
 42
0.0000001
 43
0.0000001
 44
0.0000000001
 40
0.0
 40
0.0
 40
0.0
 40
0.0
 40
0.2897016594
 40
0.5490895814
 40
0.7822189142
 40
1.0
 40
1.0
 40
1.0
 40
1.0
 10
61.6865175671
 20
60.3280500523
 30
0.0
 10
61.6865175671
 20
60.1993534188
 30
0.0
 10
61.6670054017
 20
59.9545984415
 30
0.0
 10
61.5678877575
 20
59.6183154495
 30
0.0
 10
61.400994404
 20
59.3454410555
 30
0.0
 10
61.2442304552
 20
59.2136607427
 30
0.0
 10
61.1604488466
 20
59.1652812558
 30
0.0
  0
SPLINE
  5
2C5
100
AcDbEntity
  8
0
100
AcDbSpline
 62
7
  6
BYLAYER
 70
0
 71
3
 72
17
 73
13
 74
0
 42
0.0000001
 43
0.0000001
 44
0.0000000001
 40
0.0
 40
0.0
 40
0.0
 40
0.0
 40
0.0428592926
 40
0.087485474
 40
0.1353198781
 40
0.1872819044
 40
0.3045421965
 40
0.4382074305
 40
0.582548911
 40
0.7297129633
 40
0.8713059682
 40
1.0
 40
1.0
 40
1.0
 40
1.0
 10
16.405481592
 20
84.9385166466
 30
0.0
 10
16.3378556916
 20
84.8994662342
 30
0.0
 10
16.1887622977
 20
84.8375573878
 30
0.0
 10
15.9426968919
 20
84.801439766
 30
0.0
 10
15.6784302456
 20
84.8209102955
 30
0.0
 10
15.2944570161
 20
84.923034528
 30
0.0
 10
14.8036068128
 20
85.1914344023
 30
0.0
 10
14.2612953311
 20
85.6717073895
 30
0.0
 10
13.7818935179
 20
86.2852965285
 30
0.0
 10
13.404610196
 20
86.9826475965
 30
0.0
 10
13.1597419374
 20
87.7065594303
 30
0.0
 10
13.0941490141
 20
88.1995945242
 30
0.0
 10
13.0941490141
 20
88.4340790224
 30
0.0
  0
SPLINE
  5
2C6
100
AcDbEntity
  8
0
100
AcDbSpline
 62
7
  6
BYLAYER
 70
0
 71
3
 72
17
 73
13
 74
0
 42
0.0000001
 43
0.0000001
 44
0.0000000001
 40
0.0
 40
0.0
 40
0.0
 40
0.0
 40
0.1286930371
 40
0.2702795962
 40
0.4174375935
 40
0.5617786795
 40
0.6954478243
 40
0.81271112
 40
0.8646738576
 40
0.9125098523
 40
0.9571380034
 40
1.0
 40
1.0
 40
1.0
 40
1.0
 10
54.3676393001
 20
56.1025189376
 30
0.0
 10
54.3676393001
 20
56.3196325123
 30
0.0
 10
54.3069079209
 20
56.7761339985
 30
0.0
 10
54.0801886462
 20
57.4464018002
 30
0.0
 10
53.7308715821
 20
58.0920822224
 30
0.0
 10
53.2869927458
 20
58.6602245591
 30
0.0
 10
52.784852506
 20
59.1049359038
 30
0.0
 10
52.3303566994
 20
59.3534776967
 30
0.0
 10
51.9748170067
 20
59.4480335039
 30
0.0
 10
51.730118992
 20
59.466080071
 30
0.0
 10
51.5022718093
 20
59.4326284389
 30
0.0
 10
51.3642104609
 20
59.3753120484
 30
0.0
 10
51.3015921468
 20
59.3391481651
 30
0.0
  0
SPLINE
  5
2C7
100
AcDbEntity
  8
0
100
AcDbSpline
 62
7
  6
BYLAYER
 70
0
 71
3
 72
16
 73
12
 74
0
 42
0.0000001
 43
0.0000001
 44
0.0000000001
 40
0.0
 40
0.0
 40
0.0
 40
0.0
 40
0.1500316134
 40
0.3004235759
 40
0.4460902915
 40
0.582457158
 40
0.7060654177
 40
0.8153331598
 40
0.9115206135
 40
0.9563081586
 40
1.0
 40
1.0
 40
1.0
 40
1.0
 10
53.7489811627
 20
72.4907184326
 30
0.0
 10
53.6602837683
 20
72.7118404321
 30
0.0
 10
53.4522444463
 20
73.1429820544
 30
0.0
 10
53.0636406617
 20
73.7375254116
 30
0.0
 10
52.6136753635
 20
74.2591761372
 30
0.0
 10
52.1244351364
 20
74.682222021
 30
0.0
 10
51.6187307378
 20
74.9860143765
 30
0.0
 10
51.1193013622
 20
75.1555190756
 30
0.0
 10
50.7145279538
 20
75.1733862135
 30
0.0
 10
50.4275937467
 20
75.1057022235
 30
0.0
 10
50.2985754955
 20
75.0474114871
 30
0.0
 10
50.2384900274
 20
75.0127184954
 30
0.0
  0
SPLINE
  5
2C8
100
AcDbEntity
  8
0
100
AcDbSpline
 62
7
  6
BYLAYER
 70
0
 71
3
 72
11
 73
7
 74
0
 42
0.0000001
 43
0.0000001
 44
0.0000000001
 40
0.0
 40
0.0
 40
0.0
 40
0.0
 40
0.2897016594
 40
0.5490895814
 40
0.7822189142
 40
1.0
 40
1.0
 40
1.0
 40
1.0
 10
13.0941490141
 20
88.4340790224
 30
0.0
 10
13.0941490141
 20
88.5730713866
 30
0.0
 10
13.1152221528
 20
88.8374067621
 30
0.0
 10
13.2222692084
 20
89.2005923933
 30
0.0
 10
13.4025140303
 20
89.4952967389
 30
0.0
 10
13.571819095
 20
89.6376194767
 30
0.0
 10
13.6623032322
 20
89.6898693225
 30
0.0
  0
SPLINE
  5
2C9
100
AcDbEntity
  8
0
100
AcDbSpline
 62
7
  6
BYLAYER
 70
0
 71
3
 72
12
 73
8
 74
0
 42
0.0000001
 43
0.0000001
 44
0.0000000001
 40
0.0
 40
0.0
 40
0.0
 40
0.0
 40
0.2895552427
 40
0.5486519847
 40
0.7816312597
 40
0.8918385312
 40
1.0
 40
1.0
 40
1.0
 40
1.0
 10
35.5088883481
 20
94.2618968363
 30
0.0
 10
35.3416667685
 20
94.3584400761
 30
0.0
 10
35.0090412621
 20
94.5166514273
 30
0.0
 10
34.4981875552
 20
94.6402375404
 30
0.0
 10
34.0902551628
 20
94.6292985498
 30
0.0
 10
33.7990045459
 20
94.5487550419
 30
0.0
 10
33.666375133
 20
94.4866236395
 30
0.0
 10
33.6039108657
 20
94.450560091
 30
0.0
  0
ENDSEC
  0
SECTION
  2
OBJECTS
  0
DICTIONARY
  5
C
100
AcDbDictionary
280
0
281
1
  3
ACAD_GROUP
350
D
  3
ACAD_MLINESTYLE
350
17
  3
ACAD_LAYOUT
350
1A
  3
ACAD_PLOTSETTINGS
350
19
  3
ACAD_PLOTSTYLENAME
350
E
  0
DICTIONARY
  5
D
102
{ACAD_REACTORS
330
C
102
}
100
AcDbDictionary
280
0
281
1
  0
ACDBDICTIONARYWDFLT
  5
E
102
{ACAD_REACTORS
330
C
102
}
100
AcDbDictionary
281
1
  3
Normal
350
F
100
AcDbDictionaryWithDefault
340
F
  0
DICTIONARY
  5
17
102
{ACAD_REACTORS
330
C
102
}
100
AcDbDictionary
280
0
281
1
  3
Standard
350
18
  0
DICTIONARY
  5
19
102
{ACAD_REACTORS
330
C
102
}
100
AcDbDictionary
281
1
  0
DICTIONARY
  5
1A
102
{ACAD_REACTORS
330
C
102
}
100
AcDbDictionary
281
1
  3
Model
350
2CA
  3
Layout1
350
2CB
  0
ACDBPLACEHOLDER
  5
F
102
{ACAD_REACTORS
330
E
102
}
  0
MLINESTYLE
  5
18
102
{ACAD_REACTORS
330
17
102
}
100
AcDbMlineStyle
  2
STANDARD
 70
0
  3

 62
256
 51
90.0
 52
90.0
 71
2
 49
0.5
 62
256
  6
BYLAYER
 49
-0.5
 62
256
  6
BYLAYER
  0
LAYOUT
  5
2CA
102
{ACAD_REACTORS
330
1A
102
}
100
AcDbPlotSettings
  1

  2
none_device
  4

  6

 40
0.0
 41
0.0
 42
0.0
 43
0.0
 44
210.0
 45
297.0
 46
0.0
 47
0.0
 48
0.0
 49
0.0
140
0.0
141
0.0
142
1.0
143
1.0
 70
1024
 72
1
 73
0
 74
0
  7

 75
0
147
1.0
148
0.0
149
0.0
100
AcDbLayout
  1
Model
 70
0
 71
0
 10
0.0
 20
0.0
 11
210.0
 21
297.0
 12
0.0
 22
0.0
 32
0.0
 14
0.0
 24
0.0
 34
0.0
 15
0.0
 25
0.0
 35
0.0
146
0.0
 13
0.0
 23
0.0
 33
0.0
 16
1.0
 26
0.0
 36
0.0
 17
0.0
 27
1.0
 37
0.0
 76
0
330
211
345
0
346
0
  0
LAYOUT
  5
2CB
102
{ACAD_REACTORS
330
1A
102
}
100
AcDbPlotSettings
  1

  2
none_device
  4

  6

 40
0.0
 41
0.0
 42
0.0
 43
0.0
 44
210.0
 45
297.0
 46
0.0
 47
0.0
 48
0.0
 49
0.0
140
0.0
141
0.0
142
1.0
143
1.0
 70
0
 72
1
 73
0
 74
0
  7

 75
0
147
1.0
148
0.0
149
0.0
100
AcDbLayout
  1
Layout1
 70
0
 71
1
 10
0.0
 20
0.0
 11
210.0
 21
297.0
 12
0.0
 22
0.0
 32
0.0
 14
0.0
 24
0.0
 34
0.0
 15
0.0
 25
0.0
 35
0.0
146
0.0
 13
0.0
 23
0.0
 33
0.0
 16
1.0
 26
0.0
 36
0.0
 17
0.0
 27
1.0
 37
0.0
 76
0
330
212
345
0
346
0
  0
ENDSEC
  0
EOF
