999
DXF file: C:\Users\sesa63760\Dev\_Creo\CAD\MCADID0002677_3D-CAD\drw0001_1.dxf
999
Pro/ENGINEER 2019471 by Parametric Technology Corporation
  0
SECTION
  2
HEADER
  9
$ACADVER
  1
AC1024
  9
$DWGCODEPAGE
  3
ANSI_1252
  9
$EXTMAX
 10
75.5464746613
 20
106.8442998781
 30
0.0
  9
$EXTMIN
 10
-0.0
 20
0.0
 30
0.0
  9
$LIMMIN
 10
-0.0
 20
0.0
  9
$LIMMAX
 10
75.5464746613
 20
106.8442998781
  9
$VIEWCTR
 10
37.7732373306
 20
53.422149939
  9
$VIEWSIZE
 40
106.8442998781
  9
$CLAYER
  8
0
  9
$LTSCALE
 40
6.9646654735
  9
$CELTYPE
  6
BYLAYER
  9
$DIMSCALE
 40
1.0
  9
$DIMASZ
 40
0.8993627936
  9
$DIMEXO
 40
1.0
  9
$DIMDLI
 40
4.8119506908
  9
$DIMEXE
 40
1.0
  9
$DIMCEN
 40
1.139672532
  9
$DIMLFAC
 40
1.0
  9
$DIMBLK
  1
_FILLED
  9
$DIMALT
 70
0
  9
$DIMALTF
 40
0.0393700787
  9
$DIMTXT
 40
1.259107911
  9
$DIMTOL
 70
1
  9
$DIMLIM
 70
0
  9
$DIMTFAC
 40
1.0
  9
$DIMTP
 40
0.01
  9
$DIMTM
 40
0.01
  9
$DIMGAP
 40
0.625
  9
$DIMDSEP
 70
46
  9
$AUNITS
 70
0
  9
$PDMODE
 70
3
  9
$PDSIZE
 40
0.3125
  9
$HANDSEED
  5
267
  9
$TILEMODE
 70
1
  9
$MEASUREMENT
 70
1
  9
$INSUNITS
 70
4
  0
ENDSEC
  0
SECTION
  2
CLASSES
  0
CLASS
  1
ACDBDICTIONARYWDFLT
  2
AcDbDictionaryWithDefault
  3
AutoCAD 2000
 90
0
 91
1
280
0
281
0
  0
CLASS
  1
ACDBPLACEHOLDER
  2
AcDbPlaceHolder
  3
AutoCAD 2000
 90
0
 91
1
280
0
281
0
  0
CLASS
  1
LAYOUT
  2
AcDbLayout
  3
AutoCAD 2000
 90
0
 91
0
280
0
281
0
  0
ENDSEC
  0
SECTION
  2
TABLES
  0
TABLE
  2
VPORT
  5
8
100
AcDbSymbolTable
 70
2
  0
VPORT
  5
1F4
100
AcDbSymbolTableRecord
100
AcDbViewportTableRecord
  2
*ACTIVE
 70
0
 10
0.0
 20
0.0
 11
1.0
 21
1.0
 12
37.7732373306
 22
53.422149939
 13
0.0
 23
0.0
 14
1.0
 24
1.0
 15
0.0
 25
0.0
 16
0.0
 26
0.0
 36
1.0
 17
0.0
 27
0.0
 37
0.0
 40
106.8442998781
 41
0.7070707071
 42
50.0
 43
0.0
 44
0.0
 50
0.0
 51
0.0
 71
0
 72
100
 73
1
 74
1
 75
0
 76
0
 77
0
 78
0
  0
ENDTAB
  0
TABLE
  2
LTYPE
  5
5
100
AcDbSymbolTable
 70
6
  0
LTYPE
  5
14
100
AcDbSymbolTableRecord
100
AcDbLinetypeTableRecord
  2
BYBLOCK
 70
0
  3

 72
65
 73
0
 40
0.0
  0
LTYPE
  5
15
100
AcDbSymbolTableRecord
100
AcDbLinetypeTableRecord
  2
BYLAYER
 70
0
  3

 72
65
 73
0
 40
0.0
  0
LTYPE
  5
16
100
AcDbSymbolTableRecord
100
AcDbLinetypeTableRecord
  2
CONTINUOUS
 70
64
  3
Solid line
 72
65
 73
0
 40
0.0
  0
LTYPE
  5
1F5
100
AcDbSymbolTableRecord
100
AcDbLinetypeTableRecord
  2
CENTER
 70
64
  3
____ _ ____ _ ____ _ ____ _ ____ _ ____ _ ____
 72
65
 73
4
 40
0.6
 49
0.375
 74
0
 49
-0.075
 74
0
 49
0.075
 74
0
 49
-0.075
 74
0
  0
LTYPE
  5
1F6
100
AcDbSymbolTableRecord
100
AcDbLinetypeTableRecord
  2
HIDDEN
 70
64
  3
- - - - - - - - - - - - - - - - - - - -
 72
65
 73
2
 40
0.2
 49
0.1
 74
0
 49
-0.1
 74
0
  0
LTYPE
  5
1F7
100
AcDbSymbolTableRecord
100
AcDbLinetypeTableRecord
  2
PHANTOM
 70
64
  3
_____ _ _ _____ _ _ _____ _ _ _____
 72
65
 73
6
 40
0.8
 49
0.45
 74
0
 49
-0.05
 74
0
 49
0.1
 74
0
 49
-0.05
 74
0
 49
0.1
 74
0
 49
-0.05
 74
0
  0
LTYPE
  5
1F8
100
AcDbSymbolTableRecord
100
AcDbLinetypeTableRecord
  2
DOT
 70
64
  3
. . . . . . . . . . . . . . . . . . . .
 72
65
 73
2
 40
0.2
 49
0.1
 74
0
 49
-0.1
 74
0
  0
LTYPE
  5
1F9
100
AcDbSymbolTableRecord
100
AcDbLinetypeTableRecord
  2
DASHED
 70
64
  3
- - - - - - - - - - - - - - - - - - - -
 72
65
 73
2
 40
0.2
 49
0.1
 74
0
 49
-0.1
 74
0
  0
ENDTAB
  0
TABLE
  2
LAYER
  5
2
100
AcDbSymbolTable
 70
36
  0
LAYER
  5
10
100
AcDbSymbolTableRecord
100
AcDbLayerTableRecord
  2
0
 70
0
 62
7
  6
CONTINUOUS
370
-3
390
F
  0
LAYER
  5
1FA
100
AcDbSymbolTableRecord
100
AcDbLayerTableRecord
  2
DEFAULT_1
 70
0
 62
7
  6
CENTER
370
-3
390
F
  0
LAYER
  5
1FB
100
AcDbSymbolTableRecord
100
AcDbLayerTableRecord
  2
DEFAULT_2
 70
0
 62
7
  6
HIDDEN
370
-3
390
F
  0
LAYER
  5
1FC
100
AcDbSymbolTableRecord
100
AcDbLayerTableRecord
  2
DEFAULT_3
 70
0
 62
7
  6
PHANTOM
370
-3
390
F
  0
LAYER
  5
1FD
100
AcDbSymbolTableRecord
100
AcDbLayerTableRecord
  2
00_COMPONENTS
 70
0
 62
7
  6
CONTINUOUS
370
-3
390
F
  0
LAYER
  5
1FE
100
AcDbSymbolTableRecord
100
AcDbLayerTableRecord
  2
01_1_DEFAULT_DATUMS
 70
0
 62
7
  6
CONTINUOUS
370
-3
390
F
  0
LAYER
  5
1FF
100
AcDbSymbolTableRecord
100
AcDbLayerTableRecord
  2
01_PLANES
 70
0
 62
7
  6
CONTINUOUS
370
-3
390
F
  0
LAYER
  5
200
100
AcDbSymbolTableRecord
100
AcDbLayerTableRecord
  2
02_COORD_SYS
 70
0
 62
7
  6
CONTINUOUS
370
-3
390
F
  0
LAYER
  5
201
100
AcDbSymbolTableRecord
100
AcDbLayerTableRecord
  2
03_AXES
 70
0
 62
7
  6
CONTINUOUS
370
-3
390
F
  0
LAYER
  5
202
100
AcDbSymbolTableRecord
100
AcDbLayerTableRecord
  2
04_POINTS
 70
0
 62
7
  6
CONTINUOUS
370
-3
390
F
  0
LAYER
  5
203
100
AcDbSymbolTableRecord
100
AcDbLayerTableRecord
  2
05_CURVES
 70
0
 62
7
  6
CONTINUOUS
370
-3
390
F
  0
LAYER
  5
204
100
AcDbSymbolTableRecord
100
AcDbLayerTableRecord
  2
06_SURFS
 70
0
 62
7
  6
CONTINUOUS
370
-3
390
F
  0
LAYER
  5
205
100
AcDbSymbolTableRecord
100
AcDbLayerTableRecord
  2
07_COSMETICS
 70
0
 62
7
  6
CONTINUOUS
370
-3
390
F
  0
LAYER
  5
206
100
AcDbSymbolTableRecord
100
AcDbLayerTableRecord
  2
10_NOTES
 70
0
 62
7
  6
CONTINUOUS
370
-3
390
F
  0
LAYER
  5
207
100
AcDbSymbolTableRecord
100
AcDbLayerTableRecord
  2
11_NOTES_PUB
 70
0
 62
7
  6
CONTINUOUS
370
-3
390
F
  0
LAYER
  5
208
100
AcDbSymbolTableRecord
100
AcDbLayerTableRecord
  2
13_REF_GTOL
 70
0
 62
7
  6
CONTINUOUS
370
-3
390
F
  0
LAYER
  5
209
100
AcDbSymbolTableRecord
100
AcDbLayerTableRecord
  2
16_MISC
 70
0
 62
7
  6
CONTINUOUS
370
-3
390
F
  0
LAYER
  5
20A
100
AcDbSymbolTableRecord
100
AcDbLayerTableRecord
  2
17_NO_PRINT
 70
0
 62
7
  6
CONTINUOUS
370
-3
390
F
  0
LAYER
  5
20B
100
AcDbSymbolTableRecord
100
AcDbLayerTableRecord
  2
18_DATUM_CAMS_JOINTS
 70
0
 62
7
  6
CONTINUOUS
370
-3
390
F
  0
LAYER
  5
20C
100
AcDbSymbolTableRecord
100
AcDbLayerTableRecord
  2
19_DATUM_FUNCTIONAL
 70
0
 62
7
  6
CONTINUOUS
370
-3
390
F
  0
LAYER
  5
20D
100
AcDbSymbolTableRecord
100
AcDbLayerTableRecord
  2
20_DATUM_KINEMATIC_SCHEME
 70
0
 62
7
  6
CONTINUOUS
370
-3
390
F
  0
ENDTAB
  0
TABLE
  2
STYLE
  5
3
100
AcDbSymbolTable
 70
1
  0
STYLE
  5
11
100
AcDbSymbolTableRecord
100
AcDbTextStyleTableRecord
  2
STANDARD
 70
0
 40
0.0
 41
1.0
 50
0.0
 71
0
 42
0.2
  3
ARIAL.TTF
  4

  0
STYLE
  5
20E
100
AcDbSymbolTableRecord
100
AcDbTextStyleTableRecord
  2
TEXTSTYLE_1
 70
0
 40
0.0
 41
0.8
 50
0.0
 71
0
 42
0.2
  3
gdt
  4

  0
ENDTAB
  0
TABLE
  2
VIEW
  5
6
100
AcDbSymbolTable
 70
0
  0
ENDTAB
  0
TABLE
  2
UCS
  5
7
100
AcDbSymbolTable
 70
0
  0
ENDTAB
  0
TABLE
  2
APPID
  5
9
100
AcDbSymbolTable
 70
1
  0
APPID
  5
20F
100
AcDbSymbolTableRecord
100
AcDbRegAppTableRecord
  2
ACAD
 70
0
  0
ENDTAB
  0
TABLE
  2
BLOCK_RECORD
  5
1
100
AcDbSymbolTable
 70
0
  0
BLOCK_RECORD
  5
210
100
AcDbSymbolTableRecord
100
AcDbBlockTableRecord
  2
*Model_Space
  0
BLOCK_RECORD
  5
211
100
AcDbSymbolTableRecord
100
AcDbBlockTableRecord
  2
*Paper_Space
  0
BLOCK_RECORD
  5
212
100
AcDbSymbolTableRecord
100
AcDbBlockTableRecord
  2
_FILLED
  0
ENDTAB
  0
TABLE
  2
DIMSTYLE
  5
A
100
AcDbSymbolTable
 70
1
100
AcDbDimStyleTable
 71
0
  0
DIMSTYLE
105
213
100
AcDbSymbolTableRecord
100
AcDbDimStyleTableRecord
  2
STANDARD
 70
0
  3

  4

 40
1.0
 41
0.8993627936
 42
1.0
 43
0.38
 44
1.0
 45
0.0
 46
0.0
 47
0.01
 48
0.01
140
1.259107911
141
0.09
142
0.0
143
25.4
144
1.0
145
0.0
146
1.0
147
0.625
 71
1
 72
0
 73
0
 74
0
 75
0
 76
0
 77
1
 78
8
 79
2
170
0
171
1
172
0
173
0
174
0
175
0
176
0
177
0
178
0
270
2
179
2
271
2
272
2
273
2
274
2
275
0
280
0
281
0
282
0
283
1
284
8
285
0
286
0
287
3
288
0
340
11
278
46
341
212
342
212
343
212
344
212
  0
ENDTAB
  0
ENDSEC
  0
SECTION
  2
BLOCKS
  0
BLOCK
  5
20
100
AcDbEntity
  8
0
100
AcDbBlockBegin
  2
*Model_Space
 70
0
 10
0.0
 20
0.0
 30
0.0
  3
*Model_Space
  1

  0
ENDBLK
  5
21
100
AcDbEntity
  8
0
100
AcDbBlockEnd
  0
BLOCK
  5
1C
100
AcDbEntity
  8
0
100
AcDbBlockBegin
  2
*Paper_Space
 70
0
 10
0.0
 20
0.0
 30
0.0
  3
*Paper_Space
  1

  0
ENDBLK
  5
1D
100
AcDbEntity
  8
0
100
AcDbBlockEnd
  0
BLOCK
  5
214
100
AcDbEntity
  8
0
100
AcDbBlockBegin
  2
_FILLED
 70
64
 10
0.0
 20
0.0
  3
_FILLED
  1

  0
SOLID
  5
215
100
AcDbEntity
  8
0
  6
BYBLOCK
 62
0
100
AcDbTrace
 10
0.0
 20
0.0
 11
-1.0
 21
0.25
 12
-1.0
 22
-0.25
 13
-1.0
 23
-0.25
  0
ENDBLK
  5
216
100
AcDbEntity
  8
0
  6
BYBLOCK
 62
0
100
AcDbBlockEnd
  0
ENDSEC
  0
SECTION
  2
ENTITIES
  0
LINE
  5
217
100
AcDbEntity
  8
0
100
AcDbLine
 62
7
  6
BYLAYER
 10
8.7642602435
 20
42.7870286937
 11
8.7642602435
 21
47.9718190425
  0
LINE
  5
218
100
AcDbEntity
  8
0
100
AcDbLine
 62
7
  6
BYLAYER
 10
8.7642602435
 20
42.7870286937
 11
28.2071660249
 21
31.561915753
  0
LINE
  5
219
100
AcDbEntity
  8
0
100
AcDbLine
 62
7
  6
BYLAYER
 10
16.9545998421
 20
38.0584408967
 11
16.9545998421
 21
33.9339222587
  0
LINE
  5
21A
100
AcDbEntity
  8
0
100
AcDbLine
 62
7
  6
BYLAYER
 10
19.3358498421
 20
45.5997005435
 11
19.3358498421
 21
49.6179130638
  0
LINE
  5
21B
100
AcDbEntity
  8
0
100
AcDbLine
 62
7
  6
BYLAYER
 10
28.2071660249
 20
36.7467061018
 11
8.7642602435
 21
47.9718190425
  0
LINE
  5
21C
100
AcDbEntity
  8
0
100
AcDbLine
 62
7
  6
BYLAYER
 10
21.9552248421
 20
50.1363920987
 11
21.9552248421
 21
49.6179130638
  0
LINE
  5
21D
100
AcDbEntity
  8
0
100
AcDbLine
 62
7
  6
BYLAYER
 10
26.2414748421
 20
50.1363920987
 11
26.2414748421
 21
49.6179130638
  0
LINE
  5
21E
100
AcDbEntity
  8
0
100
AcDbLine
 62
7
  6
BYLAYER
 10
27.2489022324
 20
43.8617879952
 11
27.2489022324
 21
47.1022819632
  0
LINE
  5
21F
100
AcDbEntity
  8
0
100
AcDbLine
 62
7
  6
BYLAYER
 10
28.2071660249
 20
36.7467061018
 11
28.2071660249
 21
31.561915753
  0
LINE
  5
220
100
AcDbEntity
  8
0
100
AcDbLine
 62
7
  6
BYLAYER
 10
28.8608498421
 20
49.1642439083
 11
28.8608498421
 21
49.6179130638
  0
LINE
  5
221
100
AcDbEntity
  8
0
100
AcDbLine
 62
7
  6
BYLAYER
 10
49.9948955223
 20
71.8898819932
 11
46.2407537388
 21
69.4328438409
  0
LINE
  5
222
100
AcDbEntity
  8
0
100
AcDbLine
 62
7
  6
BYLAYER
 10
44.9254645296
 20
66.9517567622
 11
22.2307527705
 21
52.0983559412
  0
LINE
  5
223
100
AcDbEntity
  8
0
100
AcDbLine
 62
7
  6
BYLAYER
 10
50.0567864374
 20
66.581615681
 11
36.0392262594
 21
58.4886218476
  0
LINE
  5
224
100
AcDbEntity
  8
0
100
AcDbLine
 62
7
  6
BYLAYER
 10
34.9166989179
 20
56.5443366661
 11
36.0392262594
 21
58.4886218476
  0
LINE
  5
225
100
AcDbEntity
  8
0
100
AcDbLine
 62
7
  6
BYLAYER
 10
38.0036654646
 20
57.3544780014
 11
36.881138123
 21
55.41019282
  0
LINE
  5
226
100
AcDbEntity
  8
0
100
AcDbLine
 62
7
  6
BYLAYER
 10
52.0212256426
 20
65.4474718349
 11
38.0036654646
 21
57.3544780014
  0
LINE
  5
227
100
AcDbEntity
  8
0
100
AcDbLine
 62
7
  6
BYLAYER
 10
36.881138123
 20
55.41019282
 11
50.898698301
 21
63.5031866534
  0
LINE
  5
228
100
AcDbEntity
  8
0
100
AcDbLine
 62
7
  6
BYLAYER
 10
46.2407537388
 20
69.4328438409
 11
44.9254645296
 21
66.9517567622
  0
LINE
  5
229
100
AcDbEntity
  8
0
100
AcDbLine
 62
7
  6
BYLAYER
 10
56.3985220119
 20
63.5683862658
 11
65.270145423
 21
68.0866906671
  0
LINE
  5
22A
100
AcDbEntity
  8
0
100
AcDbLine
 62
7
  6
BYLAYER
 10
39.9733498421
 20
45.5997005435
 11
39.9733498421
 21
40.4149101947
  0
LINE
  5
22B
100
AcDbEntity
  8
0
100
AcDbLine
 62
7
  6
BYLAYER
 10
27.2489022324
 20
47.1022819632
 11
54.9074928672
 21
61.1887603908
  0
LINE
  5
22C
100
AcDbEntity
  8
0
100
AcDbLine
 62
7
  6
BYLAYER
 10
34.9166989179
 20
56.5443366661
 11
36.881138123
 21
55.41019282
  0
LINE
  5
22D
100
AcDbEntity
  8
0
100
AcDbLine
 62
7
  6
BYLAYER
 10
54.9074928672
 20
57.9482664228
 11
27.2489022324
 21
43.8617879952
  0
LINE
  5
22E
100
AcDbEntity
  8
0
100
AcDbLine
 62
7
  6
BYLAYER
 10
65.270145423
 20
61.6057027312
 11
56.3985220119
 21
57.0873983298
  0
LINE
  5
22F
100
AcDbEntity
  8
0
100
AcDbLine
 62
7
  6
BYLAYER
 10
38.0036654646
 20
57.3544780014
 11
36.0392262594
 21
58.4886218476
  0
LINE
  5
230
100
AcDbEntity
  8
0
100
AcDbLine
 62
7
  6
BYLAYER
 10
50.898698301
 20
63.5031866534
 11
52.0212256426
 21
65.4474718349
  0
LINE
  5
231
100
AcDbEntity
  8
0
100
AcDbLine
 62
7
  6
BYLAYER
 10
46.9223382622
 20
69.8789322612
 11
46.9223167258
 21
72.8654016274
  0
LINE
  5
232
100
AcDbEntity
  8
0
100
AcDbLine
 62
7
  6
BYLAYER
 10
54.9074928672
 20
61.1887603908
 11
56.3985220119
 21
63.5683862658
  0
LINE
  5
233
100
AcDbEntity
  8
0
100
AcDbLine
 62
7
  6
BYLAYER
 10
50.8910667257
 20
76.1059242153
 11
50.8910918414
 21
72.6231085071
  0
LINE
  5
234
100
AcDbEntity
  8
0
100
AcDbLine
 62
7
  6
BYLAYER
 10
56.3985220119
 20
57.0873983298
 11
54.9074928672
 21
57.9482664228
  0
LINE
  5
235
100
AcDbEntity
  8
0
100
AcDbLine
 62
7
  6
BYLAYER
 10
54.4632070446
 20
71.5232938252
 11
54.4993771073
 21
71.8898928207
  0
LINE
  5
236
100
AcDbEntity
  8
0
100
AcDbLine
 62
7
  6
BYLAYER
 10
54.9074928672
 20
61.1887603908
 11
50.898698301
 21
63.5031866534
  0
LINE
  5
237
100
AcDbEntity
  8
0
100
AcDbLine
 62
7
  6
BYLAYER
 10
47.8117030091
 20
65.2854238966
 11
44.9254645296
 21
66.9517567622
  0
LINE
  5
238
100
AcDbEntity
  8
0
100
AcDbLine
 62
7
  6
BYLAYER
 10
54.4993771073
 20
71.3674507247
 11
54.4993771073
 21
71.8898928207
  0
LINE
  5
239
100
AcDbEntity
  8
0
100
AcDbLine
 62
7
  6
BYLAYER
 10
54.7997447356
 20
72.6231179023
 11
54.7997447356
 21
70.5128878004
  0
LINE
  5
23A
100
AcDbEntity
  8
0
100
AcDbLine
 62
7
  6
BYLAYER
 10
52.0212256426
 20
65.4474718349
 11
50.0567864374
 21
66.581615681
  0
LINE
  5
23B
100
AcDbEntity
  8
0
100
AcDbLine
 62
7
  6
BYLAYER
 10
56.3985220119
 20
63.5683862658
 11
46.2407537388
 21
69.4328438409
  0
LINE
  5
23C
100
AcDbEntity
  8
0
100
AcDbLine
 62
7
  6
BYLAYER
 10
54.4993771073
 20
71.8898928207
 11
49.9948955223
 21
71.8898819932
  0
LINE
  5
23D
100
AcDbEntity
  8
0
100
AcDbLine
 62
7
  6
BYLAYER
 10
50.8910918414
 20
72.6231085071
 11
54.7997447356
 21
72.6231179023
  0
LINE
  5
23E
100
AcDbEntity
  8
0
100
AcDbLine
 62
7
  6
BYLAYER
 10
60.0191917256
 20
76.1059461566
 11
50.8910667257
 21
76.1059242153
  0
LINE
  5
23F
100
AcDbEntity
  8
0
100
AcDbLine
 62
7
  6
BYLAYER
 10
65.270145423
 20
68.0866906671
 11
65.270145423
 21
61.6057027312
  0
LINE
  5
240
100
AcDbEntity
  8
0
100
AcDbLine
 62
7
  6
BYLAYER
 10
67.9567247726
 20
65.042305973
 11
67.9567247726
 21
71.5232939089
  0
SPLINE
  5
241
100
AcDbEntity
  8
0
100
AcDbSpline
 62
7
  6
BYLAYER
 70
0
 71
3
 72
11
 73
7
 74
0
 42
0.0000001
 43
0.0000001
 44
0.0000000001
 40
0.0
 40
0.0
 40
0.0
 40
0.0
 40
0.2320657867
 40
0.4774809528
 40
0.7342754008
 40
1.0
 40
1.0
 40
1.0
 40
1.0
 10
35.3237167288
 20
33.9340882167
 30
0.0
 10
34.8185518574
 20
33.6424328831
 30
0.0
 10
33.7436434301
 20
33.1025142475
 30
0.0
 10
32.0176781264
 20
32.4414887074
 30
0.0
 10
30.1580328311
 20
31.9154453888
 30
0.0
 10
28.8672312756
 20
31.6640284434
 30
0.0
 10
28.2071660249
 20
31.561915753
 30
0.0
  0
SPLINE
  5
242
100
AcDbEntity
  8
0
100
AcDbSpline
 62
7
  6
BYLAYER
 70
0
 71
3
 72
9
 73
5
 74
0
 42
0.0000001
 43
0.0000001
 44
0.0000000001
 40
0.0
 40
0.0
 40
0.0
 40
0.0
 40
0.4777749473
 40
1.0
 40
1.0
 40
1.0
 40
1.0
 10
30.4759926777
 20
32.0757399993
 30
0.0
 10
30.2975668284
 20
31.8716200299
 30
0.0
 10
29.880093456
 20
31.4820782701
 30
0.0
 10
29.4063973387
 20
31.165718268
 30
0.0
 10
29.1497649411
 20
31.0175523686
 30
0.0
  0
SPLINE
  5
243
100
AcDbEntity
  8
0
100
AcDbSpline
 62
7
  6
BYLAYER
 70
0
 71
3
 72
20
 73
16
 74
0
 42
0.0000001
 43
0.0000001
 44
0.0000000001
 40
0.0
 40
0.0
 40
0.0
 40
0.0
 40
0.0428293551
 40
0.0874282727
 40
0.1352282639
 40
0.1871597233
 40
0.243628454
 40
0.3046095543
 40
0.3697350269
 40
0.4383698345
 40
0.5826204461
 40
0.7296870942
 40
0.8711867868
 40
0.9376077948
 40
1.0
 40
1.0
 40
1.0
 40
1.0
 10
26.2414627272
 20
50.1363920986
 30
0.0
 10
26.2414525839
 20
50.197397375
 30
0.0
 10
26.2251697595
 20
50.3224625543
 30
0.0
 10
26.153406395
 20
50.5030246101
 30
0.0
 10
26.0370605446
 20
50.6742363035
 30
0.0
 10
25.8792957789
 20
50.8326320687
 30
0.0
 10
25.6838320072
 20
50.9754682424
 30
0.0
 10
25.4548147158
 20
51.1000535622
 30
0.0
 10
25.1970027902
 20
51.2039005515
 30
0.0
 10
24.8159655533
 20
51.3137056514
 30
0.0
 10
24.3052678359
 20
51.3853246493
 30
0.0
 10
23.6864493121
 20
51.368248163
 30
0.0
 10
23.1874659995
 20
51.2684757211
 30
0.0
 10
22.8249432188
 20
51.1370720116
 30
0.0
 10
22.6598892866
 20
51.0557379717
 30
0.0
 10
22.5829253124
 20
51.0113030657
 30
0.0
  0
SPLINE
  5
244
100
AcDbEntity
  8
0
100
AcDbSpline
 62
7
  6
BYLAYER
 70
0
 71
3
 72
11
 73
7
 74
0
 42
0.0000001
 43
0.0000001
 44
0.0000000001
 40
0.0
 40
0.0
 40
0.0
 40
0.0
 40
0.2780736586
 40
0.5367143743
 40
0.7765974938
 40
1.0
 40
1.0
 40
1.0
 40
1.0
 10
12.8729829554
 20
52.0805225215
 30
0.0
 10
12.3997792102
 20
51.8073198426
 30
0.0
 10
11.5139779388
 20
51.2295430265
 30
0.0
 10
10.3504370619
 20
50.2346760893
 30
0.0
 10
9.4185542706
 20
49.1574405322
 30
0.0
 10
8.9490591666
 20
48.3700063204
 30
0.0
 10
8.7642602435
 20
47.9718190425
 30
0.0
  0
SPLINE
  5
245
100
AcDbEntity
  8
0
100
AcDbSpline
 62
7
  6
BYLAYER
 70
0
 71
3
 72
23
 73
19
 74
0
 42
0.0000001
 43
0.0000001
 44
0.0000000001
 40
0.0
 40
0.0
 40
0.0
 40
0.0
 40
0.0427776923
 40
0.0872332138
 40
0.1347409366
 40
0.1862127772
 40
0.242078895
 40
0.3023576304
 40
0.3667427324
 40
0.4346733672
 40
0.5054026902
 40
0.5780540994
 40
0.6516631989
 40
0.7252320393
 40
0.7977582536
 40
0.8682770519
 40
0.9359605361
 40
1.0
 40
1.0
 40
1.0
 40
1.0
 10
28.8608413136
 20
49.6179130383
 30
0.0
 10
28.8608308902
 20
49.7498607002
 30
0.0
 10
28.8265686039
 20
50.0200231104
 30
0.0
 10
28.6756687904
 20
50.410990334
 30
0.0
 10
28.4304396377
 20
50.7827924668
 30
0.0
 10
28.0974257853
 20
51.1283018198
 30
0.0
 10
27.6840230242
 20
51.4416978908
 30
0.0
 10
27.1986321402
 20
51.7174198421
 30
0.0
 10
26.6508749311
 20
51.9502898549
 30
0.0
 10
26.0516707308
 20
52.1358140264
 30
0.0
 10
25.4130375944
 20
52.27037608
 30
0.0
 10
24.7478290339
 20
52.3512479514
 30
0.0
 10
24.0694759368
 20
52.3767868213
 30
0.0
 10
23.391701968
 20
52.3465002947
 30
0.0
 10
22.728242885
 20
52.2610183716
 30
0.0
 10
22.0923685956
 20
52.1220198186
 30
0.0
 10
21.4971591119
 20
51.9322557508
 30
0.0
 10
21.1238137106
 20
51.7695198235
 30
0.0
 10
20.9477974518
 20
51.6798750089
 30
0.0
  0
SPLINE
  5
246
100
AcDbEntity
  8
0
100
AcDbSpline
 62
7
  6
BYLAYER
 70
0
 71
3
 72
11
 73
7
 74
0
 42
0.0000001
 43
0.0000001
 44
0.0000000001
 40
0.0
 40
0.0
 40
0.0
 40
0.0
 40
0.2434714959
 40
0.4897592476
 40
0.7413253539
 40
1.0
 40
1.0
 40
1.0
 40
1.0
 10
46.9223464723
 20
72.8654016223
 30
0.0
 10
46.9223447486
 20
73.0321144929
 30
0.0
 10
46.9543129666
 20
73.3683065564
 30
0.0
 10
47.0966249566
 20
73.8584577799
 30
0.0
 10
47.3294656238
 20
74.3241459543
 30
0.0
 10
47.5380606722
 20
74.6067820979
 30
0.0
 10
47.6542381248
 20
74.7404808025
 30
0.0
  0
SPLINE
  5
247
100
AcDbEntity
  8
0
100
AcDbSpline
 62
7
  6
BYLAYER
 70
0
 71
3
 72
11
 73
7
 74
0
 42
0.0000001
 43
0.0000001
 44
0.0000000001
 40
0.0
 40
0.0
 40
0.0
 40
0.0
 40
0.2361828692
 40
0.483388624
 40
0.7392924189
 40
1.0
 40
1.0
 40
1.0
 40
1.0
 10
47.6542381248
 20
74.7404808025
 30
0.0
 10
47.8407956417
 20
74.9551739103
 30
0.0
 10
48.2803277596
 20
75.3468034026
 30
0.0
 10
49.0669726403
 20
75.7776106037
 30
0.0
 10
49.9532477831
 20
76.0455950352
 30
0.0
 10
50.5771090983
 20
76.1059234607
 30
0.0
 10
50.8910667257
 20
76.1059242153
 30
0.0
  0
SPLINE
  5
248
100
AcDbEntity
  8
0
100
AcDbSpline
 62
7
  6
BYLAYER
 70
0
 71
3
 72
14
 73
10
 74
0
 42
0.0000001
 43
0.0000001
 44
0.0000000001
 40
0.0
 40
0.0
 40
0.0
 40
0.0
 40
0.1080438269
 40
0.2181254863
 40
0.3321057977
 40
0.451495128
 40
0.57744028
 40
0.7107256254
 40
1.0
 40
1.0
 40
1.0
 40
1.0
 10
65.5754680882
 20
71.5232939084
 30
0.0
 10
65.575468681
 20
71.4181108079
 30
0.0
 10
65.5571673766
 20
71.2053389388
 30
0.0
 10
65.4756919751
 20
70.8910360443
 30
0.0
 10
65.3410429941
 20
70.5835493258
 30
0.0
 10
65.1551922169
 20
70.2859036034
 30
0.0
 10
64.9199797422
 20
70.0008345131
 30
0.0
 10
64.5335618508
 20
69.6309829308
 30
0.0
 10
64.1919893977
 20
69.3958131479
 30
0.0
 10
63.9481031829
 20
69.2550062166
 30
0.0
  0
SPLINE
  5
249
100
AcDbEntity
  8
0
100
AcDbSpline
 62
7
  6
BYLAYER
 70
0
 71
3
 72
11
 73
7
 74
0
 42
0.0000001
 43
0.0000001
 44
0.0000000001
 40
0.0
 40
0.0
 40
0.0
 40
0.0
 40
0.2367244208
 40
0.4827116737
 40
0.7375812781
 40
1.0
 40
1.0
 40
1.0
 40
1.0
 10
47.4131305403
 20
70.2103027559
 30
0.0
 10
47.5356757637
 20
70.3923582039
 30
0.0
 10
47.8255936974
 20
70.737907913
 30
0.0
 10
48.3600651163
 20
71.1703004042
 30
0.0
 10
48.9831188036
 20
71.51284914
 30
0.0
 10
49.4382443509
 20
71.671637441
 30
0.0
 10
49.6735047186
 20
71.7335767016
 30
0.0
  0
SPLINE
  5
24A
100
AcDbEntity
  8
0
100
AcDbSpline
 62
7
  6
BYLAYER
 70
0
 71
3
 72
19
 73
15
 74
0
 42
0.0000001
 43
0.0000001
 44
0.0000000001
 40
0.0
 40
0.0
 40
0.0
 40
0.0
 40
0.0450645247
 40
0.0909783313
 40
0.1385150672
 40
0.1883131758
 40
0.2408486961
 40
0.2964320742
 40
0.3552148727
 40
0.4172166869
 40
0.5502695644
 40
0.6938358325
 40
0.8449454124
 40
1.0
 40
1.0
 40
1.0
 40
1.0
 10
67.9567145697
 20
71.5232939036
 30
0.0
 10
67.9567050575
 20
71.6735615564
 30
0.0
 10
67.9305952675
 20
71.9775359558
 30
0.0
 10
67.8141372357
 20
72.4265255607
 30
0.0
 10
67.6218692799
 20
72.8658382372
 30
0.0
 10
67.3562457033
 20
73.2910190224
 30
0.0
 10
67.020288154
 20
73.6982592342
 30
0.0
 10
66.617397241
 20
74.0838385859
 30
0.0
 10
66.1516042246
 20
74.4444590454
 30
0.0
 10
65.4357438393
 20
74.8980212658
 30
0.0
 10
64.4075276768
 20
75.3767296297
 30
0.0
 10
63.039200932
 20
75.7926458838
 30
0.0
 10
61.5580934362
 20
76.048622814
 30
0.0
 10
60.5362212331
 20
76.1059473994
 30
0.0
 10
60.0191917256
 20
76.1059461566
 30
0.0
  0
SPLINE
  5
24B
100
AcDbEntity
  8
0
100
AcDbSpline
 62
7
  6
BYLAYER
 70
0
 71
3
 72
14
 73
10
 74
0
 42
0.0000001
 43
0.0000001
 44
0.0000000001
 40
0.0
 40
0.0
 40
0.0
 40
0.0
 40
0.1098997568
 40
0.2215610865
 40
0.3366133953
 40
0.456426495
 40
0.5820801886
 40
0.7143703946
 40
1.0
 40
1.0
 40
1.0
 40
1.0
 10
67.956714575
 20
65.0423059679
 30
0.0
 10
67.9567233382
 20
64.9040491074
 30
0.0
 10
67.9346546965
 20
64.6248456429
 30
0.0
 10
67.8362462823
 20
64.2113807239
 30
0.0
 10
67.6733598907
 20
63.8053937823
 30
0.0
 10
67.4479634824
 20
63.4103462855
 30
0.0
 10
67.1619933447
 20
63.0293297919
 30
0.0
 10
66.6916389633
 20
62.5314577822
 30
0.0
 10
66.2723847723
 20
62.2075354752
 30
0.0
 10
65.9717250115
 20
62.0107574776
 30
0.0
  0
SPLINE
  5
24C
100
AcDbEntity
  8
0
100
AcDbSpline
 62
7
  6
BYLAYER
 70
0
 71
3
 72
9
 73
5
 74
0
 42
0.0000001
 43
0.0000001
 44
0.0000000001
 40
0.0
 40
0.0
 40
0.0
 40
0.0
 40
0.2441542994
 40
1.0
 40
1.0
 40
1.0
 40
1.0
 10
65.9717250115
 20
62.0107574776
 30
0.0
 10
65.9165436628
 20
61.9746419851
 30
0.0
 10
65.6883857939
 20
61.8300166459
 30
0.0
 10
65.45207349
 20
61.6983584208
 30
0.0
 10
65.270145423
 20
61.6057027312
 30
0.0
  0
SPLINE
  5
24D
100
AcDbEntity
  8
0
100
AcDbSpline
 62
7
  6
BYLAYER
 70
0
 71
3
 72
15
 73
11
 74
0
 42
0.0000001
 43
0.0000001
 44
0.0000000001
 40
0.0
 40
0.0
 40
0.0
 40
0.0
 40
0.1080133214
 40
0.218060513
 40
0.3319956366
 40
0.451356168
 40
0.5772697885
 40
0.7104870029
 40
0.8514256002
 40
1.0
 40
1.0
 40
1.0
 40
1.0
 10
39.9733428909
 20
40.4149101953
 30
0.0
 10
39.9733425813
 20
40.1143748165
 30
0.0
 10
39.9211073718
 20
39.5064291359
 30
0.0
 10
39.6881964717
 20
38.6084680536
 30
0.0
 10
39.3036961021
 20
37.7298375843
 30
0.0
 10
38.7724277833
 20
36.8795144676
 30
0.0
 10
38.1005644876
 20
36.0650554401
 30
0.0
 10
37.294763263
 20
35.293751185
 30
0.0
 10
36.3631382907
 20
34.5727250682
 30
0.0
 10
35.6817254015
 20
34.1407833864
 30
0.0
 10
35.3237167288
 20
33.9340882167
 30
0.0
  0
SPLINE
  5
24E
100
AcDbEntity
  8
0
100
AcDbSpline
 62
7
  6
BYLAYER
 70
0
 71
3
 72
11
 73
7
 74
0
 42
0.0000001
 43
0.0000001
 44
0.0000000001
 40
0.0
 40
0.0
 40
0.0
 40
0.0
 40
0.2367059691
 40
0.4790967955
 40
0.7322113394
 40
1.0
 40
1.0
 40
1.0
 40
1.0
 10
39.9733424454
 20
45.5997005441
 30
0.0
 10
39.9733436959
 20
45.9401859159
 30
0.0
 10
39.9059700172
 20
46.6310801591
 30
0.0
 10
39.6062167765
 20
47.646677902
 30
0.0
 10
39.1133864567
 20
48.6334588929
 30
0.0
 10
38.6748394718
 20
49.2449766472
 30
0.0
 10
38.4296682005
 20
49.5420738967
 30
0.0
  0
SPLINE
  5
24F
100
AcDbEntity
  8
0
100
AcDbSpline
 62
7
  6
BYLAYER
 70
0
 71
3
 72
14
 73
10
 74
0
 42
0.0000001
 43
0.0000001
 44
0.0000000001
 40
0.0
 40
0.0
 40
0.0
 40
0.0
 40
0.264161195
 40
0.3953871308
 40
0.5244924711
 40
0.6504151722
 40
0.7721702941
 40
0.8889480109
 40
1.0
 40
1.0
 40
1.0
 40
1.0
 10
26.1420725046
 20
54.6887272079
 30
0.0
 10
24.9383595511
 20
54.7789250961
 30
0.0
 10
23.1247251203
 20
54.7942724211
 30
0.0
 10
20.7366826662
 20
54.5774698416
 30
0.0
 10
18.9922621789
 20
54.2989490154
 30
0.0
 10
17.3140499864
 20
53.9078400094
 30
0.0
 10
15.7232805172
 20
53.4091693427
 30
0.0
 10
14.2408780451
 20
52.8092663168
 30
0.0
 10
13.3124510983
 20
52.3342480576
 30
0.0
 10
12.8729829554
 20
52.0805225215
 30
0.0
  0
SPLINE
  5
250
100
AcDbEntity
  8
0
100
AcDbSpline
 62
7
  6
BYLAYER
 70
0
 71
3
 72
24
 73
20
 74
0
 42
0.0000001
 43
0.0000001
 44
0.0000000001
 40
0.0
 40
0.0
 40
0.0
 40
0.0
 40
0.062379375
 40
0.1287359376
 40
0.198326558
 40
0.2703085741
 40
0.3436900263
 40
0.417425721
 40
0.4904543257
 40
0.5617454441
 40
0.6303476208
 40
0.6954395139
 40
0.7563911303
 40
0.8128326105
 40
0.8647377804
 40
0.9125166396
 40
0.9570901825
 40
0.9786560283
 40
1.0
 40
1.0
 40
1.0
 40
1.0
 10
63.9481031829
 20
69.2550062166
 30
0.0
 10
63.7485051669
 20
69.1397689362
 30
0.0
 10
63.3206811183
 20
68.9288618866
 30
0.0
 10
62.6306140212
 20
68.6787736933
 30
0.0
 10
61.8848357364
 20
68.4894882933
 30
0.0
 10
61.0994218115
 20
68.3649139242
 30
0.0
 10
60.2909367217
 20
68.307763124
 30
0.0
 10
59.4766663575
 20
68.3192251223
 30
0.0
 10
58.6739683461
 20
68.3990421204
 30
0.0
 10
57.8999437536
 20
68.5455197253
 30
0.0
 10
57.1710381287
 20
68.7555701642
 30
0.0
 10
56.5026686396
 20
69.0248257598
 30
0.0
 10
55.9088741431
 20
69.3477854567
 30
0.0
 10
55.4020726863
 20
69.7180560911
 30
0.0
 10
54.9930621171
 20
70.1288058335
 30
0.0
 10
54.691298591
 20
70.572395918
 30
0.0
 10
54.5345636569
 20
70.967622142
 30
0.0
 10
54.4731573576
 20
71.2856950243
 30
0.0
 10
54.4630125908
 20
71.4444333966
 30
0.0
 10
54.4630178092
 20
71.5232938294
 30
0.0
  0
SPLINE
  5
251
100
AcDbEntity
  8
0
100
AcDbSpline
 62
7
  6
BYLAYER
 70
0
 71
3
 72
24
 73
20
 74
0
 42
0.0000001
 43
0.0000001
 44
0.0000000001
 40
0.0
 40
0.0
 40
0.0
 40
0.0
 40
0.0623810754
 40
0.1287355751
 40
0.1983285203
 40
0.2703115114
 40
0.3436930921
 40
0.4174309963
 40
0.490461932
 40
0.5617546699
 40
0.6303580412
 40
0.6954512103
 40
0.7564032902
 40
0.8128444147
 40
0.8647486632
 40
0.9125271285
 40
0.9571048264
 40
0.9786665173
 40
1.0
 40
1.0
 40
1.0
 40
1.0
 10
29.1497649411
 20
31.0175523686
 30
0.0
 10
28.89313198
 20
30.8693861439
 30
0.0
 10
28.3430781034
 20
30.5982121257
 30
0.0
 10
27.4558355346
 20
30.2766797185
 30
0.0
 10
26.496973217
 20
30.0333085658
 30
0.0
 10
25.4871381373
 20
29.8731461785
 30
0.0
 10
24.4476423858
 20
29.7996620692
 30
0.0
 10
23.4007009729
 20
29.8143985195
 30
0.0
 10
22.3686327843
 20
29.9170372591
 30
0.0
 10
21.3734380944
 20
30.1053896206
 30
0.0
 10
20.4362596473
 20
30.3754732237
 30
0.0
 10
19.5769141805
 20
30.7216628834
 30
0.0
 10
18.813465842
 20
31.1369159775
 30
0.0
 10
18.1618924758
 20
31.6130121787
 30
0.0
 10
17.6360592259
 20
32.1411433122
 30
0.0
 10
17.2480742778
 20
32.7114832594
 30
0.0
 10
17.0465794299
 20
33.2196493395
 30
0.0
 10
16.9677287734
 20
33.6285642362
 30
0.0
 10
16.9546292658
 20
33.832580197
 30
0.0
 10
16.9546198048
 20
33.9339223336
 30
0.0
  0
SPLINE
  5
252
100
AcDbEntity
  8
0
100
AcDbSpline
 62
7
  6
BYLAYER
 70
0
 71
3
 72
12
 73
8
 74
0
 42
0.0000001
 43
0.0000001
 44
0.0000000001
 40
0.0
 40
0.0
 40
0.0
 40
0.0
 40
0.2895302938
 40
0.5486686408
 40
0.7816319325
 40
0.8918400935
 40
1.0
 40
1.0
 40
1.0
 40
1.0
 10
22.5829253124
 20
51.0113030657
 30
0.0
 10
22.4888729247
 20
50.9570022184
 30
0.0
 10
22.3182572546
 20
50.8394518224
 30
0.0
 10
22.1143559502
 20
50.6253780134
 30
0.0
 10
22.0049561871
 20
50.423567483
 30
0.0
 10
21.9622925643
 20
50.2590434166
 30
0.0
 10
21.9552302114
 20
50.1769626427
 30
0.0
 10
21.955236957
 20
50.1363920987
 30
0.0
  0
SPLINE
  5
253
100
AcDbEntity
  8
0
100
AcDbSpline
 62
7
  6
BYLAYER
 70
0
 71
3
 72
14
 73
10
 74
0
 42
0.0000001
 43
0.0000001
 44
0.0000000001
 40
0.0
 40
0.0
 40
0.0
 40
0.0
 40
0.1504596304
 40
0.2930265884
 40
0.5531398067
 40
0.6721956798
 40
0.7851855858
 40
0.8937558483
 40
1.0
 40
1.0
 40
1.0
 40
1.0
 10
20.9477974518
 20
51.6798750089
 30
0.0
 10
20.8249244683
 20
51.617295984
 30
0.0
 10
20.5905243429
 20
51.4851762236
 30
0.0
 10
20.1742520179
 20
51.1953386189
 30
0.0
 10
19.8246725099
 20
50.8607442744
 30
0.0
 10
19.5703240685
 20
50.4865087318
 30
0.0
 10
19.4357790425
 20
50.2032681318
 30
0.0
 10
19.3542168035
 20
49.9126053467
 30
0.0
 10
19.3358506788
 20
49.7152820859
 30
0.0
 10
19.3358583706
 20
49.6179130892
 30
0.0
  0
SPLINE
  5
254
100
AcDbEntity
  8
0
100
AcDbSpline
 62
7
  6
BYLAYER
 70
0
 71
3
 72
21
 73
17
 74
0
 42
0.0000001
 43
0.0000001
 44
0.0000000001
 40
0.0
 40
0.0
 40
0.0
 40
0.0
 40
0.055140734
 40
0.1110293813
 40
0.1681899939
 40
0.227070597
 40
0.2878744352
 40
0.3506132413
 40
0.4807368053
 40
0.547650381
 40
0.6150186175
 40
0.7485950598
 40
0.8140364404
 40
0.8779076874
 40
0.9399300236
 40
1.0
 40
1.0
 40
1.0
 40
1.0
 10
47.7163027594
 20
74.7308432554
 30
0.0
 10
47.7184179466
 20
74.8681990608
 30
0.0
 10
47.7498705753
 20
75.145080073
 30
0.0
 10
47.8766783808
 20
75.5469509931
 30
0.0
 10
48.0798315783
 20
75.9267256657
 30
0.0
 10
48.3534828459
 20
76.2746797203
 30
0.0
 10
48.6906480217
 20
76.5823806423
 30
0.0
 10
49.2188079072
 20
76.9329459582
 30
0.0
 10
49.8321683824
 20
77.1686027268
 30
0.0
 10
50.4827533687
 20
77.2802284841
 30
0.0
 10
51.1510109524
 20
77.3073624077
 30
0.0
 10
51.8159988611
 20
77.2053429222
 30
0.0
 10
52.4317881973
 20
76.9775831865
 30
0.0
 10
52.8529355525
 20
76.7505828808
 30
0.0
 10
53.2251632684
 20
76.4719334411
 30
0.0
 10
53.4380930504
 20
76.2524684409
 30
0.0
 10
53.5327365221
 20
76.1365442101
 30
0.0
  0
SPLINE
  5
255
100
AcDbEntity
  8
0
100
AcDbSpline
 62
7
  6
BYLAYER
 70
0
 71
3
 72
12
 73
8
 74
0
 42
0.0000001
 43
0.0000001
 44
0.0000000001
 40
0.0
 40
0.0
 40
0.0
 40
0.0
 40
0.1081615361
 40
0.2183710432
 40
0.4513366253
 40
0.7104776032
 40
1.0
 40
1.0
 40
1.0
 40
1.0
 10
26.2414623066
 20
49.6179130683
 30
0.0
 10
26.2414693253
 20
49.5773419569
 30
0.0
 10
26.2344017439
 20
49.4952606376
 30
0.0
 10
26.1917429211
 20
49.3307338881
 30
0.0
 10
26.0823384455
 20
49.1289223603
 30
0.0
 10
25.8784381243
 20
48.914850454
 30
0.0
 10
25.7078240926
 20
48.7973014042
 30
0.0
 10
25.6137743718
 20
48.7430020968
 30
0.0
  0
SPLINE
  5
256
100
AcDbEntity
  8
0
100
AcDbSpline
 62
7
  6
BYLAYER
 70
0
 71
3
 72
15
 73
11
 74
0
 42
0.0000001
 43
0.0000001
 44
0.0000000001
 40
0.0
 40
0.0
 40
0.0
 40
0.0
 40
0.1485729903
 40
0.2895090107
 40
0.4227256159
 40
0.5486396783
 40
0.6680008002
 40
0.781936895
 40
0.8919852838
 40
1.0
 40
1.0
 40
1.0
 40
1.0
 10
35.3237167288
 20
39.1188785655
 30
0.0
 10
35.6817220076
 20
39.3255717758
 30
0.0
 10
36.3631273754
 20
39.7575047114
 30
0.0
 10
37.2947408959
 20
40.4785246493
 30
0.0
 10
38.1005404879
 20
41.2498192795
 30
0.0
 10
38.7724081094
 20
42.0642764294
 30
0.0
 10
39.3036825504
 20
42.914602244
 30
0.0
 10
39.6881903497
 20
43.7932379409
 30
0.0
 10
39.9211052585
 20
44.6912084634
 30
0.0
 10
39.9733413416
 20
45.2991612822
 30
0.0
 10
39.9733424454
 20
45.5997005441
 30
0.0
  0
SPLINE
  5
257
100
AcDbEntity
  8
0
100
AcDbSpline
 62
7
  6
BYLAYER
 70
0
 71
3
 72
11
 73
7
 74
0
 42
0.0000001
 43
0.0000001
 44
0.0000000001
 40
0.0
 40
0.0
 40
0.0
 40
0.0
 40
0.2657245992
 40
0.5225190472
 40
0.7679342133
 40
1.0
 40
1.0
 40
1.0
 40
1.0
 10
28.2071660249
 20
36.7467061018
 30
0.0
 10
28.8672312756
 20
36.8488187921
 30
0.0
 10
30.1580328311
 20
37.1002357375
 30
0.0
 10
32.0176781264
 20
37.6262790562
 30
0.0
 10
33.7436434301
 20
38.2873045962
 30
0.0
 10
34.8185518574
 20
38.8272232319
 30
0.0
 10
35.3237167288
 20
39.1188785655
 30
0.0
  0
SPLINE
  5
258
100
AcDbEntity
  8
0
100
AcDbSpline
 62
7
  6
BYLAYER
 70
0
 71
3
 72
23
 73
19
 74
0
 42
0.0000001
 43
0.0000001
 44
0.0000000001
 40
0.0
 40
0.0
 40
0.0
 40
0.0
 40
0.0640408295
 40
0.1317205893
 40
0.202238154
 40
0.2747639468
 40
0.3483318752
 40
0.4219410004
 40
0.494593513
 40
0.565324206
 40
0.6332557614
 40
0.697642482
 40
0.7579222145
 40
0.8137878335
 40
0.8652598587
 40
0.9127680519
 40
0.9572229184
 40
1.0
 40
1.0
 40
1.0
 40
1.0
 10
27.2489022324
 20
43.5377385984
 30
0.0
 10
27.0728821865
 20
43.448091855
 30
0.0
 10
26.6995459856
 20
43.2853526258
 30
0.0
 10
26.1043442329
 20
43.0955991597
 30
0.0
 10
25.4684864604
 20
42.9566054539
 30
0.0
 10
24.8050372337
 20
42.871107215
 30
0.0
 10
24.1272663322
 20
42.840826363
 30
0.0
 10
23.4489132648
 20
42.8663692248
 30
0.0
 10
22.7836945163
 20
42.9472218169
 30
0.0
 10
22.1450508067
 20
43.0817896391
 30
0.0
 10
21.5458392976
 20
43.267329108
 30
0.0
 10
20.9980650817
 20
43.5001859778
 30
0.0
 10
20.512665965
 20
43.7759097372
 30
0.0
 10
20.0992754788
 20
44.089326195
 30
0.0
 10
19.766257764
 20
44.4348272751
 30
0.0
 10
19.5210027727
 20
44.8066197266
 30
0.0
 10
19.3701579166
 20
45.1975997414
 30
0.0
 10
19.3358503413
 20
45.46775474
 30
0.0
 10
19.3358630974
 20
45.5997005431
 30
0.0
  0
SPLINE
  5
259
100
AcDbEntity
  8
0
100
AcDbSpline
 62
7
  6
BYLAYER
 70
0
 71
3
 72
23
 73
19
 74
0
 42
0.0000001
 43
0.0000001
 44
0.0000000001
 40
0.0
 40
0.0
 40
0.0
 40
0.0
 40
0.0623832738
 40
0.1287489226
 40
0.1983464174
 40
0.2703362749
 40
0.3437247487
 40
0.4174677887
 40
0.4905050095
 40
0.561804329
 40
0.6304129898
 40
0.6955106305
 40
0.7564679492
 40
0.8129145788
 40
0.8648228735
 40
0.9126046795
 40
0.9571861387
 40
1.0
 40
1.0
 40
1.0
 40
1.0
 10
56.0903463622
 20
73.7915816012
 30
0.0
 10
56.2899396742
 20
73.9068161658
 30
0.0
 10
56.7177727139
 20
74.1177204867
 30
0.0
 10
57.4078463047
 20
74.3678205803
 30
0.0
 10
58.1536469438
 20
74.5571080213
 30
0.0
 10
58.9390731528
 20
74.6816815017
 30
0.0
 10
59.7475714711
 20
74.738823122
 30
0.0
 10
60.5618563719
 20
74.7273535733
 30
0.0
 10
61.364574368
 20
74.647537705
 30
0.0
 10
62.1386169017
 20
74.5010512917
 30
0.0
 10
62.8675237744
 20
74.2909676866
 30
0.0
 10
63.535891371
 20
74.0216961145
 30
0.0
 10
64.1296888639
 20
73.6987416533
 30
0.0
 10
64.6364828419
 20
73.3284410553
 30
0.0
 10
65.0454548987
 20
72.917730874
 30
0.0
 10
65.3471936218
 20
72.4738950613
 30
0.0
 10
65.5331604319
 20
72.0057151665
 30
0.0
 10
65.5754671967
 20
71.6814663944
 30
0.0
 10
65.5754680882
 20
71.5232939084
 30
0.0
  0
SPLINE
  5
25A
100
AcDbEntity
  8
0
100
AcDbSpline
 62
7
  6
BYLAYER
 70
0
 71
3
 72
10
 73
6
 74
0
 42
0.0000001
 43
0.0000001
 44
0.0000000001
 40
0.0
 40
0.0
 40
0.0
 40
0.0
 40
0.4687024933
 40
0.7264785578
 40
1.0
 40
1.0
 40
1.0
 40
1.0
 10
54.7997447356
 20
72.6231179023
 30
0.0
 10
54.9462405985
 20
72.8548550937
 30
0.0
 10
55.2321812549
 20
73.1783290638
 30
0.0
 10
55.6894174752
 20
73.5436371608
 30
0.0
 10
55.9517895383
 20
73.7115862592
 30
0.0
 10
56.0903463622
 20
73.7915816012
 30
0.0
  0
SPLINE
  5
25B
100
AcDbEntity
  8
0
100
AcDbSpline
 62
7
  6
BYLAYER
 70
0
 71
3
 72
14
 73
10
 74
0
 42
0.0000001
 43
0.0000001
 44
0.0000000001
 40
0.0
 40
0.0
 40
0.0
 40
0.0
 40
0.106242911
 40
0.2148125525
 40
0.3278024687
 40
0.4468578928
 40
0.70697332
 40
0.8495416188
 40
1.0
 40
1.0
 40
1.0
 40
1.0
 10
28.8608408725
 20
49.1642439013
 30
0.0
 10
28.8608468751
 20
49.0668760737
 30
0.0
 10
28.8424818899
 20
48.8695548193
 30
0.0
 10
28.7609214837
 20
48.5788931439
 30
0.0
 10
28.6263762071
 20
48.2956539776
 30
0.0
 10
28.3720310426
 20
47.9214145049
 30
0.0
 10
28.0224480209
 20
47.5868190293
 30
0.0
 10
27.6061738221
 20
47.2969810423
 30
0.0
 10
27.3717741553
 20
47.1648604479
 30
0.0
 10
27.2489022324
 20
47.1022819632
 30
0.0
  0
SPLINE
  5
25C
100
AcDbEntity
  8
0
100
AcDbSpline
 62
7
  6
BYLAYER
 70
0
 71
3
 72
14
 73
10
 74
0
 42
0.0000001
 43
0.0000001
 44
0.0000000001
 40
0.0
 40
0.0
 40
0.0
 40
0.0
 40
0.2856294505
 40
0.4179196152
 40
0.5435733151
 40
0.6633864385
 40
0.7784387886
 40
0.8901001728
 40
1.0
 40
1.0
 40
1.0
 40
1.0
 10
65.9717250115
 20
68.4917454135
 30
0.0
 10
66.2723846086
 20
68.688523304
 30
0.0
 10
66.6916386297
 20
69.0124454185
 30
0.0
 10
67.1619928844
 20
69.5103172127
 30
0.0
 10
67.4479631044
 20
69.8913336265
 30
0.0
 10
67.6733595949
 20
70.286381176
 30
0.0
 10
67.8362461651
 20
70.6923682112
 30
0.0
 10
67.9346545932
 20
71.1058333419
 30
0.0
 10
67.9567233217
 20
71.3850369549
 30
0.0
 10
67.9567145697
 20
71.5232939036
 30
0.0
  0
SPLINE
  5
25D
100
AcDbEntity
  8
0
100
AcDbSpline
 62
7
  6
BYLAYER
 70
0
 71
3
 72
9
 73
5
 74
0
 42
0.0000001
 43
0.0000001
 44
0.0000000001
 40
0.0
 40
0.0
 40
0.0
 40
0.0
 40
0.2558729148
 40
1.0
 40
1.0
 40
1.0
 40
1.0
 10
65.270145423
 20
68.0866906671
 30
0.0
 10
65.3317321518
 20
68.118056695
 30
0.0
 10
65.5708576939
 20
68.2436783283
 30
0.0
 10
65.8035461881
 20
68.381674508
 30
0.0
 10
65.9717250115
 20
68.4917454135
 30
0.0
  0
SPLINE
  5
25E
100
AcDbEntity
  8
0
100
AcDbSpline
 62
7
  6
BYLAYER
 70
0
 71
3
 72
23
 73
19
 74
0
 42
0.0000001
 43
0.0000001
 44
0.0000000001
 40
0.0
 40
0.0
 40
0.0
 40
0.0
 40
0.0427776923
 40
0.0872332138
 40
0.1347409366
 40
0.1862127772
 40
0.242078895
 40
0.3023576304
 40
0.3667427324
 40
0.4346733672
 40
0.5054026902
 40
0.5780540994
 40
0.6516631989
 40
0.7252320393
 40
0.7977582536
 40
0.8682770519
 40
0.9359605361
 40
1.0
 40
1.0
 40
1.0
 40
1.0
 10
19.3358583706
 20
49.6179130892
 30
0.0
 10
19.335868794
 20
49.4859654274
 30
0.0
 10
19.3701310803
 20
49.2158030171
 30
0.0
 10
19.5210308939
 20
48.8248357936
 30
0.0
 10
19.7662600466
 20
48.4530336607
 30
0.0
 10
20.0992738989
 20
48.1075243078
 30
0.0
 10
20.5126766601
 20
47.7941282368
 30
0.0
 10
20.9980675441
 20
47.5184062855
 30
0.0
 10
21.5458247531
 20
47.2855362727
 30
0.0
 10
22.1450289535
 20
47.1000121012
 30
0.0
 10
22.7836620898
 20
46.9654500476
 30
0.0
 10
23.4488706503
 20
46.8845781761
 30
0.0
 10
24.1272237474
 20
46.8590393063
 30
0.0
 10
24.8049977162
 20
46.8893258329
 30
0.0
 10
25.4684567992
 20
46.9748077559
 30
0.0
 10
26.1043310887
 20
47.113806309
 30
0.0
 10
26.6995405723
 20
47.3035703767
 30
0.0
 10
27.0728859737
 20
47.466306304
 30
0.0
 10
27.2489022324
 20
47.5559511187
 30
0.0
  0
SPLINE
  5
25F
100
AcDbEntity
  8
0
100
AcDbSpline
 62
7
  6
BYLAYER
 70
0
 71
3
 72
12
 73
8
 74
0
 42
0.0000001
 43
0.0000001
 44
0.0000000001
 40
0.0
 40
0.0
 40
0.0
 40
0.0
 40
0.2895302938
 40
0.5486686408
 40
0.7816319325
 40
0.8918400935
 40
1.0
 40
1.0
 40
1.0
 40
1.0
 10
25.6137743718
 20
49.2614811316
 30
0.0
 10
25.7078267596
 20
49.3157819789
 30
0.0
 10
25.8784424297
 20
49.4333323749
 30
0.0
 10
26.082343734
 20
49.6474061839
 30
0.0
 10
26.1917434971
 20
49.8492167143
 30
0.0
 10
26.23440712
 20
50.0137407807
 30
0.0
 10
26.2414694729
 20
50.0958215546
 30
0.0
 10
26.2414627272
 20
50.1363920986
 30
0.0
  0
SPLINE
  5
260
100
AcDbEntity
  8
0
100
AcDbSpline
 62
7
  6
BYLAYER
 70
0
 71
3
 72
13
 73
9
 74
0
 42
0.0000001
 43
0.0000001
 44
0.0000000001
 40
0.0
 40
0.0
 40
0.0
 40
0.0
 40
0.2690421662
 40
0.5279783128
 40
0.6519216952
 40
0.7715703855
 40
0.8872949208
 40
1.0
 40
1.0
 40
1.0
 40
1.0
 10
50.8910918414
 20
72.6231085071
 30
0.0
 10
50.4354599304
 20
72.6231074119
 30
0.0
 10
49.5363126652
 20
72.4974529363
 30
0.0
 10
48.516205505
 20
72.0280851715
 30
0.0
 10
47.8511026896
 20
71.4911569853
 30
0.0
 10
47.4496027771
 20
71.0292468049
 30
0.0
 10
47.1516561823
 20
70.5164814883
 30
0.0
 10
47.0273246655
 20
70.14670737
 30
0.0
 10
46.9859604068
 20
69.9603735637
 30
0.0
  0
SPLINE
  5
261
100
AcDbEntity
  8
0
100
AcDbSpline
 62
7
  6
BYLAYER
 70
0
 71
3
 72
20
 73
16
 74
0
 42
0.0000001
 43
0.0000001
 44
0.0000000001
 40
0.0
 40
0.0
 40
0.0
 40
0.0
 40
0.0623926386
 40
0.1288122238
 40
0.2703066646
 40
0.4173679468
 40
0.5616184706
 40
0.630254828
 40
0.6953818524
 40
0.7563646989
 40
0.8128341213
 40
0.8647666223
 40
0.9125678266
 40
0.9571682074
 40
1.0
 40
1.0
 40
1.0
 40
1.0
 10
25.6137743718
 20
48.7430020968
 30
0.0
 10
25.536809868
 20
48.698566885
 30
0.0
 10
25.3717573567
 20
48.6172331638
 30
0.0
 10
25.0092429492
 20
48.4858326004
 30
0.0
 10
24.5102775059
 20
48.3860603107
 30
0.0
 10
23.8914747399
 20
48.3689772136
 30
0.0
 10
23.380781405
 20
48.4405871859
 30
0.0
 10
22.999738802
 20
48.5503897543
 30
0.0
 10
22.7419199677
 20
48.6542372123
 30
0.0
 10
22.5128929925
 20
48.7788171989
 30
0.0
 10
22.3174265849
 20
48.9216580296
 30
0.0
 10
22.1596528441
 20
49.0800503574
 30
0.0
 10
22.0433014274
 20
49.2512654605
 30
0.0
 10
21.9715361924
 20
49.4318341597
 30
0.0
 10
21.9552479321
 20
49.556904315
 30
0.0
 10
21.9552373777
 20
49.6179130593
 30
0.0
  0
SPLINE
  5
262
100
AcDbEntity
  8
0
100
AcDbSpline
 62
7
  6
BYLAYER
 70
0
 71
3
 72
9
 73
5
 74
0
 42
0.0000001
 43
0.0000001
 44
0.0000000001
 40
0.0
 40
0.0
 40
0.0
 40
0.0
 40
0.4744192302
 40
1.0
 40
1.0
 40
1.0
 40
1.0
 10
28.3342107886
 20
44.3428869666
 30
0.0
 10
28.1915126317
 20
44.1825848223
 30
0.0
 10
27.8500180512
 20
43.8802541942
 30
0.0
 10
27.4607665104
 20
43.6456407551
 30
0.0
 10
27.2489022324
 20
43.5377385984
 30
0.0
  0
SPLINE
  5
263
100
AcDbEntity
  8
0
100
AcDbSpline
 62
7
  6
BYLAYER
 70
0
 71
3
 72
20
 73
16
 74
0
 42
0.0000001
 43
0.0000001
 44
0.0000000001
 40
0.0
 40
0.0
 40
0.0
 40
0.0
 40
0.0428293551
 40
0.0874282727
 40
0.1352282639
 40
0.1871597233
 40
0.243628454
 40
0.3046095543
 40
0.3697350269
 40
0.4383698345
 40
0.5826204461
 40
0.7296870942
 40
0.8711867868
 40
0.9376077948
 40
1.0
 40
1.0
 40
1.0
 40
1.0
 10
21.955236957
 20
50.1363920987
 30
0.0
 10
21.9552471003
 20
50.0753868224
 30
0.0
 10
21.9715299247
 20
49.9503216431
 30
0.0
 10
22.0432932892
 20
49.7697595872
 30
0.0
 10
22.1596391396
 20
49.5985478938
 30
0.0
 10
22.3174039054
 20
49.4401521286
 30
0.0
 10
22.5128676771
 20
49.297315955
 30
0.0
 10
22.7418849684
 20
49.1727306352
 30
0.0
 10
22.999696894
 20
49.0688836459
 30
0.0
 10
23.380734131
 20
48.9590785459
 30
0.0
 10
23.8914318484
 20
48.887459548
 30
0.0
 10
24.5102503722
 20
48.9045360343
 30
0.0
 10
25.0092336847
 20
49.0043084762
 30
0.0
 10
25.3717564654
 20
49.1357121857
 30
0.0
 10
25.5368103976
 20
49.2170462257
 30
0.0
 10
25.6137743718
 20
49.2614811316
 30
0.0
  0
SPLINE
  5
264
100
AcDbEntity
  8
0
100
AcDbSpline
 62
7
  6
BYLAYER
 70
0
 71
3
 72
14
 73
10
 74
0
 42
0.0000001
 43
0.0000001
 44
0.0000000001
 40
0.0
 40
0.0
 40
0.0
 40
0.0
 40
0.1504596304
 40
0.2930265884
 40
0.5531398067
 40
0.6721956798
 40
0.7851855858
 40
0.8937558483
 40
1.0
 40
1.0
 40
1.0
 40
1.0
 10
27.2489022324
 20
47.5559511187
 30
0.0
 10
27.3717752159
 20
47.6185301436
 30
0.0
 10
27.6061753414
 20
47.7506499039
 30
0.0
 10
28.0224476663
 20
48.0404875087
 30
0.0
 10
28.3720271743
 20
48.3750818531
 30
0.0
 10
28.6263756157
 20
48.7493173958
 30
0.0
 10
28.7609206417
 20
49.0325579957
 30
0.0
 10
28.8424828807
 20
49.3232207809
 30
0.0
 10
28.8608490054
 20
49.5205440417
 30
0.0
 10
28.8608413136
 20
49.6179130383
 30
0.0
  0
ENDSEC
  0
SECTION
  2
OBJECTS
  0
DICTIONARY
  5
C
100
AcDbDictionary
280
0
281
1
  3
ACAD_GROUP
350
D
  3
ACAD_MLINESTYLE
350
17
  3
ACAD_LAYOUT
350
1A
  3
ACAD_PLOTSETTINGS
350
19
  3
ACAD_PLOTSTYLENAME
350
E
  0
DICTIONARY
  5
D
102
{ACAD_REACTORS
330
C
102
}
100
AcDbDictionary
280
0
281
1
  0
ACDBDICTIONARYWDFLT
  5
E
102
{ACAD_REACTORS
330
C
102
}
100
AcDbDictionary
281
1
  3
Normal
350
F
100
AcDbDictionaryWithDefault
340
F
  0
DICTIONARY
  5
17
102
{ACAD_REACTORS
330
C
102
}
100
AcDbDictionary
280
0
281
1
  3
Standard
350
18
  0
DICTIONARY
  5
19
102
{ACAD_REACTORS
330
C
102
}
100
AcDbDictionary
281
1
  0
DICTIONARY
  5
1A
102
{ACAD_REACTORS
330
C
102
}
100
AcDbDictionary
281
1
  3
Model
350
265
  3
Layout1
350
266
  0
ACDBPLACEHOLDER
  5
F
102
{ACAD_REACTORS
330
E
102
}
  0
MLINESTYLE
  5
18
102
{ACAD_REACTORS
330
17
102
}
100
AcDbMlineStyle
  2
STANDARD
 70
0
  3

 62
256
 51
90.0
 52
90.0
 71
2
 49
0.5
 62
256
  6
BYLAYER
 49
-0.5
 62
256
  6
BYLAYER
  0
LAYOUT
  5
265
102
{ACAD_REACTORS
330
1A
102
}
100
AcDbPlotSettings
  1

  2
none_device
  4

  6

 40
0.0
 41
0.0
 42
0.0
 43
0.0
 44
210.0
 45
297.0
 46
0.0
 47
0.0
 48
0.0
 49
0.0
140
0.0
141
0.0
142
1.0
143
1.0
 70
1024
 72
1
 73
0
 74
0
  7

 75
0
147
1.0
148
0.0
149
0.0
100
AcDbLayout
  1
Model
 70
0
 71
0
 10
0.0
 20
0.0
 11
210.0
 21
297.0
 12
0.0
 22
0.0
 32
0.0
 14
0.0
 24
0.0
 34
0.0
 15
0.0
 25
0.0
 35
0.0
146
0.0
 13
0.0
 23
0.0
 33
0.0
 16
1.0
 26
0.0
 36
0.0
 17
0.0
 27
1.0
 37
0.0
 76
0
330
210
345
0
346
0
  0
LAYOUT
  5
266
102
{ACAD_REACTORS
330
1A
102
}
100
AcDbPlotSettings
  1

  2
none_device
  4

  6

 40
0.0
 41
0.0
 42
0.0
 43
0.0
 44
210.0
 45
297.0
 46
0.0
 47
0.0
 48
0.0
 49
0.0
140
0.0
141
0.0
142
1.0
143
1.0
 70
0
 72
1
 73
0
 74
0
  7

 75
0
147
1.0
148
0.0
149
0.0
100
AcDbLayout
  1
Layout1
 70
0
 71
1
 10
0.0
 20
0.0
 11
210.0
 21
297.0
 12
0.0
 22
0.0
 32
0.0
 14
0.0
 24
0.0
 34
0.0
 15
0.0
 25
0.0
 35
0.0
146
0.0
 13
0.0
 23
0.0
 33
0.0
 16
1.0
 26
0.0
 36
0.0
 17
0.0
 27
1.0
 37
0.0
 76
0
330
211
345
0
346
0
  0
ENDSEC
  0
EOF
