999
DXF file: C:\Users\sesa63760\Dev\_Creo\CAD\MCADID0002667_3D-CAD\drw0001_1.dxf
999
Pro/ENGINEER 2019471 by Parametric Technology Corporation
  0
SECTION
  2
HEADER
  9
$ACADVER
  1
AC1024
  9
$DWGCODEPAGE
  3
ANSI_1252
  9
$EXTMAX
 10
68.0868249031
 20
96.2942237915
 30
0.0
  9
$EXTMIN
 10
0.0
 20
0.0
 30
0.0
  9
$LIMMIN
 10
0.0
 20
0.0
  9
$LIMMAX
 10
68.0868249031
 20
96.2942237915
  9
$VIEWCTR
 10
34.0434124516
 20
48.1471118958
  9
$VIEWSIZE
 40
96.2942237915
  9
$CLAYER
  8
0
  9
$LTSCALE
 40
6.2769568101
  9
$CELTYPE
  6
BYLAYER
  9
$DIMSCALE
 40
1.0
  9
$DIMASZ
 40
0.8105574393
  9
$DIMEXO
 40
1.0
  9
$DIMDLI
 40
4.3368065234
  9
$DIMEXE
 40
1.0
  9
$DIMCEN
 40
1.0271383871
  9
$DIMLFAC
 40
1.0
  9
$DIMBLK
  1
_FILLED
  9
$DIMALT
 70
0
  9
$DIMALTF
 40
0.0393700787
  9
$DIMTXT
 40
1.1347804151
  9
$DIMTOL
 70
1
  9
$DIMLIM
 70
0
  9
$DIMTFAC
 40
1.0
  9
$DIMTP
 40
0.01
  9
$DIMTM
 40
0.01
  9
$DIMGAP
 40
0.625
  9
$DIMDSEP
 70
46
  9
$AUNITS
 70
0
  9
$PDMODE
 70
3
  9
$PDSIZE
 40
0.3125
  9
$HANDSEED
  5
261
  9
$TILEMODE
 70
1
  9
$MEASUREMENT
 70
1
  9
$INSUNITS
 70
4
  0
ENDSEC
  0
SECTION
  2
CLASSES
  0
CLASS
  1
ACDBDICTIONARYWDFLT
  2
AcDbDictionaryWithDefault
  3
AutoCAD 2000
 90
0
 91
1
280
0
281
0
  0
CLASS
  1
ACDBPLACEHOLDER
  2
AcDbPlaceHolder
  3
AutoCAD 2000
 90
0
 91
1
280
0
281
0
  0
CLASS
  1
LAYOUT
  2
AcDbLayout
  3
AutoCAD 2000
 90
0
 91
0
280
0
281
0
  0
ENDSEC
  0
SECTION
  2
TABLES
  0
TABLE
  2
VPORT
  5
8
100
AcDbSymbolTable
 70
2
  0
VPORT
  5
1F4
100
AcDbSymbolTableRecord
100
AcDbViewportTableRecord
  2
*ACTIVE
 70
0
 10
0.0
 20
0.0
 11
1.0
 21
1.0
 12
34.0434124516
 22
48.1471118958
 13
0.0
 23
0.0
 14
1.0
 24
1.0
 15
0.0
 25
0.0
 16
0.0
 26
0.0
 36
1.0
 17
0.0
 27
0.0
 37
0.0
 40
96.2942237915
 41
0.7070707071
 42
50.0
 43
0.0
 44
0.0
 50
0.0
 51
0.0
 71
0
 72
100
 73
1
 74
1
 75
0
 76
0
 77
0
 78
0
  0
ENDTAB
  0
TABLE
  2
LTYPE
  5
5
100
AcDbSymbolTable
 70
6
  0
LTYPE
  5
14
100
AcDbSymbolTableRecord
100
AcDbLinetypeTableRecord
  2
BYBLOCK
 70
0
  3

 72
65
 73
0
 40
0.0
  0
LTYPE
  5
15
100
AcDbSymbolTableRecord
100
AcDbLinetypeTableRecord
  2
BYLAYER
 70
0
  3

 72
65
 73
0
 40
0.0
  0
LTYPE
  5
16
100
AcDbSymbolTableRecord
100
AcDbLinetypeTableRecord
  2
CONTINUOUS
 70
64
  3
Solid line
 72
65
 73
0
 40
0.0
  0
LTYPE
  5
1F5
100
AcDbSymbolTableRecord
100
AcDbLinetypeTableRecord
  2
CENTER
 70
64
  3
____ _ ____ _ ____ _ ____ _ ____ _ ____ _ ____
 72
65
 73
4
 40
0.6
 49
0.375
 74
0
 49
-0.075
 74
0
 49
0.075
 74
0
 49
-0.075
 74
0
  0
LTYPE
  5
1F6
100
AcDbSymbolTableRecord
100
AcDbLinetypeTableRecord
  2
HIDDEN
 70
64
  3
- - - - - - - - - - - - - - - - - - - -
 72
65
 73
2
 40
0.2
 49
0.1
 74
0
 49
-0.1
 74
0
  0
LTYPE
  5
1F7
100
AcDbSymbolTableRecord
100
AcDbLinetypeTableRecord
  2
PHANTOM
 70
64
  3
_____ _ _ _____ _ _ _____ _ _ _____
 72
65
 73
6
 40
0.8
 49
0.45
 74
0
 49
-0.05
 74
0
 49
0.1
 74
0
 49
-0.05
 74
0
 49
0.1
 74
0
 49
-0.05
 74
0
  0
LTYPE
  5
1F8
100
AcDbSymbolTableRecord
100
AcDbLinetypeTableRecord
  2
DOT
 70
64
  3
. . . . . . . . . . . . . . . . . . . .
 72
65
 73
2
 40
0.2
 49
0.1
 74
0
 49
-0.1
 74
0
  0
LTYPE
  5
1F9
100
AcDbSymbolTableRecord
100
AcDbLinetypeTableRecord
  2
DASHED
 70
64
  3
- - - - - - - - - - - - - - - - - - - -
 72
65
 73
2
 40
0.2
 49
0.1
 74
0
 49
-0.1
 74
0
  0
ENDTAB
  0
TABLE
  2
LAYER
  5
2
100
AcDbSymbolTable
 70
36
  0
LAYER
  5
10
100
AcDbSymbolTableRecord
100
AcDbLayerTableRecord
  2
0
 70
0
 62
7
  6
CONTINUOUS
370
-3
390
F
  0
LAYER
  5
1FA
100
AcDbSymbolTableRecord
100
AcDbLayerTableRecord
  2
DEFAULT_1
 70
0
 62
7
  6
CENTER
370
-3
390
F
  0
LAYER
  5
1FB
100
AcDbSymbolTableRecord
100
AcDbLayerTableRecord
  2
DEFAULT_2
 70
0
 62
7
  6
HIDDEN
370
-3
390
F
  0
LAYER
  5
1FC
100
AcDbSymbolTableRecord
100
AcDbLayerTableRecord
  2
DEFAULT_3
 70
0
 62
7
  6
PHANTOM
370
-3
390
F
  0
LAYER
  5
1FD
100
AcDbSymbolTableRecord
100
AcDbLayerTableRecord
  2
00_COMPONENTS
 70
0
 62
7
  6
CONTINUOUS
370
-3
390
F
  0
LAYER
  5
1FE
100
AcDbSymbolTableRecord
100
AcDbLayerTableRecord
  2
01_1_DEFAULT_DATUMS
 70
0
 62
7
  6
CONTINUOUS
370
-3
390
F
  0
LAYER
  5
1FF
100
AcDbSymbolTableRecord
100
AcDbLayerTableRecord
  2
01_PLANES
 70
0
 62
7
  6
CONTINUOUS
370
-3
390
F
  0
LAYER
  5
200
100
AcDbSymbolTableRecord
100
AcDbLayerTableRecord
  2
02_COORD_SYS
 70
0
 62
7
  6
CONTINUOUS
370
-3
390
F
  0
LAYER
  5
201
100
AcDbSymbolTableRecord
100
AcDbLayerTableRecord
  2
03_AXES
 70
0
 62
7
  6
CONTINUOUS
370
-3
390
F
  0
LAYER
  5
202
100
AcDbSymbolTableRecord
100
AcDbLayerTableRecord
  2
04_POINTS
 70
0
 62
7
  6
CONTINUOUS
370
-3
390
F
  0
LAYER
  5
203
100
AcDbSymbolTableRecord
100
AcDbLayerTableRecord
  2
05_CURVES
 70
0
 62
7
  6
CONTINUOUS
370
-3
390
F
  0
LAYER
  5
204
100
AcDbSymbolTableRecord
100
AcDbLayerTableRecord
  2
06_SURFS
 70
0
 62
7
  6
CONTINUOUS
370
-3
390
F
  0
LAYER
  5
205
100
AcDbSymbolTableRecord
100
AcDbLayerTableRecord
  2
07_COSMETICS
 70
0
 62
7
  6
CONTINUOUS
370
-3
390
F
  0
LAYER
  5
206
100
AcDbSymbolTableRecord
100
AcDbLayerTableRecord
  2
10_NOTES
 70
0
 62
7
  6
CONTINUOUS
370
-3
390
F
  0
LAYER
  5
207
100
AcDbSymbolTableRecord
100
AcDbLayerTableRecord
  2
11_NOTES_PUB
 70
0
 62
7
  6
CONTINUOUS
370
-3
390
F
  0
LAYER
  5
208
100
AcDbSymbolTableRecord
100
AcDbLayerTableRecord
  2
13_REF_GTOL
 70
0
 62
7
  6
CONTINUOUS
370
-3
390
F
  0
LAYER
  5
209
100
AcDbSymbolTableRecord
100
AcDbLayerTableRecord
  2
16_MISC
 70
0
 62
7
  6
CONTINUOUS
370
-3
390
F
  0
LAYER
  5
20A
100
AcDbSymbolTableRecord
100
AcDbLayerTableRecord
  2
17_NO_PRINT
 70
0
 62
7
  6
CONTINUOUS
370
-3
390
F
  0
LAYER
  5
20B
100
AcDbSymbolTableRecord
100
AcDbLayerTableRecord
  2
18_DATUM_CAMS_JOINTS
 70
0
 62
7
  6
CONTINUOUS
370
-3
390
F
  0
LAYER
  5
20C
100
AcDbSymbolTableRecord
100
AcDbLayerTableRecord
  2
19_DATUM_FUNCTIONAL
 70
0
 62
7
  6
CONTINUOUS
370
-3
390
F
  0
LAYER
  5
20D
100
AcDbSymbolTableRecord
100
AcDbLayerTableRecord
  2
20_DATUM_KINEMATIC_SCHEME
 70
0
 62
7
  6
CONTINUOUS
370
-3
390
F
  0
ENDTAB
  0
TABLE
  2
STYLE
  5
3
100
AcDbSymbolTable
 70
1
  0
STYLE
  5
11
100
AcDbSymbolTableRecord
100
AcDbTextStyleTableRecord
  2
STANDARD
 70
0
 40
0.0
 41
1.0
 50
0.0
 71
0
 42
0.2
  3
ARIAL.TTF
  4

  0
STYLE
  5
20E
100
AcDbSymbolTableRecord
100
AcDbTextStyleTableRecord
  2
TEXTSTYLE_1
 70
0
 40
0.0
 41
0.8
 50
0.0
 71
0
 42
0.2
  3
gdt
  4

  0
ENDTAB
  0
TABLE
  2
VIEW
  5
6
100
AcDbSymbolTable
 70
0
  0
ENDTAB
  0
TABLE
  2
UCS
  5
7
100
AcDbSymbolTable
 70
0
  0
ENDTAB
  0
TABLE
  2
APPID
  5
9
100
AcDbSymbolTable
 70
1
  0
APPID
  5
20F
100
AcDbSymbolTableRecord
100
AcDbRegAppTableRecord
  2
ACAD
 70
0
  0
ENDTAB
  0
TABLE
  2
BLOCK_RECORD
  5
1
100
AcDbSymbolTable
 70
0
  0
BLOCK_RECORD
  5
210
100
AcDbSymbolTableRecord
100
AcDbBlockTableRecord
  2
*Model_Space
  0
BLOCK_RECORD
  5
211
100
AcDbSymbolTableRecord
100
AcDbBlockTableRecord
  2
*Paper_Space
  0
BLOCK_RECORD
  5
212
100
AcDbSymbolTableRecord
100
AcDbBlockTableRecord
  2
_FILLED
  0
ENDTAB
  0
TABLE
  2
DIMSTYLE
  5
A
100
AcDbSymbolTable
 70
1
100
AcDbDimStyleTable
 71
0
  0
DIMSTYLE
105
213
100
AcDbSymbolTableRecord
100
AcDbDimStyleTableRecord
  2
STANDARD
 70
0
  3

  4

 40
1.0
 41
0.8105574393
 42
1.0
 43
0.38
 44
1.0
 45
0.0
 46
0.0
 47
0.01
 48
0.01
140
1.1347804151
141
0.09
142
0.0
143
25.4
144
1.0
145
0.0
146
1.0
147
0.625
 71
1
 72
0
 73
0
 74
0
 75
0
 76
0
 77
1
 78
8
 79
2
170
0
171
1
172
0
173
0
174
0
175
0
176
0
177
0
178
0
270
2
179
2
271
2
272
2
273
2
274
2
275
0
280
0
281
0
282
0
283
1
284
8
285
0
286
0
287
3
288
0
340
11
278
46
341
212
342
212
343
212
344
212
  0
ENDTAB
  0
ENDSEC
  0
SECTION
  2
BLOCKS
  0
BLOCK
  5
20
100
AcDbEntity
  8
0
100
AcDbBlockBegin
  2
*Model_Space
 70
0
 10
0.0
 20
0.0
 30
0.0
  3
*Model_Space
  1

  0
ENDBLK
  5
21
100
AcDbEntity
  8
0
100
AcDbBlockEnd
  0
BLOCK
  5
1C
100
AcDbEntity
  8
0
100
AcDbBlockBegin
  2
*Paper_Space
 70
0
 10
0.0
 20
0.0
 30
0.0
  3
*Paper_Space
  1

  0
ENDBLK
  5
1D
100
AcDbEntity
  8
0
100
AcDbBlockEnd
  0
BLOCK
  5
214
100
AcDbEntity
  8
0
100
AcDbBlockBegin
  2
_FILLED
 70
64
 10
0.0
 20
0.0
  3
_FILLED
  1

  0
SOLID
  5
215
100
AcDbEntity
  8
0
  6
BYBLOCK
 62
0
100
AcDbTrace
 10
0.0
 20
0.0
 11
-1.0
 21
0.25
 12
-1.0
 22
-0.25
 13
-1.0
 23
-0.25
  0
ENDBLK
  5
216
100
AcDbEntity
  8
0
  6
BYBLOCK
 62
0
100
AcDbBlockEnd
  0
ENDSEC
  0
SECTION
  2
ENTITIES
  0
LINE
  5
217
100
AcDbEntity
  8
0
100
AcDbLine
 62
7
  6
BYLAYER
 10
7.8632515529
 20
37.7504413821
 11
7.8632515529
 21
32.5656510333
  0
LINE
  5
218
100
AcDbEntity
  8
0
100
AcDbLine
 62
7
  6
BYLAYER
 10
12.6257515529
 20
37.7504413821
 11
12.6257515529
 21
41.7686539024
  0
LINE
  5
219
100
AcDbEntity
  8
0
100
AcDbLine
 62
7
  6
BYLAYER
 10
15.2451265529
 20
42.2871329373
 11
15.2451265529
 21
41.7686539024
  0
LINE
  5
21A
100
AcDbEntity
  8
0
100
AcDbLine
 62
7
  6
BYLAYER
 10
19.5313765529
 20
42.2871329373
 11
19.5313765529
 21
41.7686539024
  0
LINE
  5
21B
100
AcDbEntity
  8
0
100
AcDbLine
 62
7
  6
BYLAYER
 10
20.5388039432
 20
36.0125288338
 11
20.5388039432
 21
39.2530228018
  0
LINE
  5
21C
100
AcDbEntity
  8
0
100
AcDbLine
 62
7
  6
BYLAYER
 10
22.1507515529
 20
41.3149847469
 11
22.1507515529
 21
41.7686539024
  0
LINE
  5
21D
100
AcDbEntity
  8
0
100
AcDbLine
 62
7
  6
BYLAYER
 10
26.9132515529
 20
37.7504413821
 11
26.9132515529
 21
32.5656510333
  0
LINE
  5
21E
100
AcDbEntity
  8
0
100
AcDbLine
 62
7
  6
BYLAYER
 10
43.2847972331
 20
64.0406228319
 11
39.5306554496
 21
61.5835846795
  0
LINE
  5
21F
100
AcDbEntity
  8
0
100
AcDbLine
 62
7
  6
BYLAYER
 10
38.2153662404
 20
59.1024976008
 11
15.5206837576
 21
44.2491159408
  0
LINE
  5
220
100
AcDbEntity
  8
0
100
AcDbLine
 62
7
  6
BYLAYER
 10
28.2066006287
 20
48.6950775047
 11
29.3291279702
 21
50.6393626862
  0
LINE
  5
221
100
AcDbEntity
  8
0
100
AcDbLine
 62
7
  6
BYLAYER
 10
43.3466881482
 20
58.7323565197
 11
29.3291279702
 21
50.6393626862
  0
LINE
  5
222
100
AcDbEntity
  8
0
100
AcDbLine
 62
7
  6
BYLAYER
 10
31.2935671754
 20
49.5052188401
 11
30.1710398338
 21
47.5609336586
  0
LINE
  5
223
100
AcDbEntity
  8
0
100
AcDbLine
 62
7
  6
BYLAYER
 10
45.3111273533
 20
57.5982126735
 11
31.2935671754
 21
49.5052188401
  0
LINE
  5
224
100
AcDbEntity
  8
0
100
AcDbLine
 62
7
  6
BYLAYER
 10
28.2066006287
 20
48.6950775047
 11
30.1710398338
 21
47.5609336586
  0
LINE
  5
225
100
AcDbEntity
  8
0
100
AcDbLine
 62
7
  6
BYLAYER
 10
39.5306554496
 20
61.5835846795
 11
38.2153662404
 21
59.1024976008
  0
LINE
  5
226
100
AcDbEntity
  8
0
100
AcDbLine
 62
7
  6
BYLAYER
 10
30.1710398338
 20
47.5609336586
 11
44.1886000118
 21
55.653927492
  0
LINE
  5
227
100
AcDbEntity
  8
0
100
AcDbLine
 62
7
  6
BYLAYER
 10
49.6884237227
 20
55.7191271044
 11
58.5600471338
 21
60.2374315057
  0
LINE
  5
228
100
AcDbEntity
  8
0
100
AcDbLine
 62
7
  6
BYLAYER
 10
31.2935671754
 20
49.5052188401
 11
29.3291279702
 21
50.6393626862
  0
LINE
  5
229
100
AcDbEntity
  8
0
100
AcDbLine
 62
7
  6
BYLAYER
 10
20.5388039432
 20
39.2530228018
 11
48.197394578
 21
53.3395012295
  0
LINE
  5
22A
100
AcDbEntity
  8
0
100
AcDbLine
 62
7
  6
BYLAYER
 10
44.1886000118
 20
55.653927492
 11
45.3111273533
 21
57.5982126735
  0
LINE
  5
22B
100
AcDbEntity
  8
0
100
AcDbLine
 62
7
  6
BYLAYER
 10
48.197394578
 20
50.0990072615
 11
20.5388039432
 21
36.0125288338
  0
LINE
  5
22C
100
AcDbEntity
  8
0
100
AcDbLine
 62
7
  6
BYLAYER
 10
40.212239973
 20
62.0296730998
 11
40.2122184366
 21
65.0161424661
  0
LINE
  5
22D
100
AcDbEntity
  8
0
100
AcDbLine
 62
7
  6
BYLAYER
 10
58.5600471338
 20
53.7564435698
 11
49.6884237227
 21
49.2381391685
  0
LINE
  5
22E
100
AcDbEntity
  8
0
100
AcDbLine
 62
7
  6
BYLAYER
 10
48.197394578
 20
53.3395012295
 11
49.6884237227
 21
55.7191271044
  0
LINE
  5
22F
100
AcDbEntity
  8
0
100
AcDbLine
 62
7
  6
BYLAYER
 10
49.6884237227
 20
49.2381391685
 11
48.197394578
 21
50.0990072615
  0
LINE
  5
230
100
AcDbEntity
  8
0
100
AcDbLine
 62
7
  6
BYLAYER
 10
44.1809684365
 20
68.256665054
 11
44.1809935522
 21
64.7738493457
  0
LINE
  5
231
100
AcDbEntity
  8
0
100
AcDbLine
 62
7
  6
BYLAYER
 10
47.7530936395
 20
63.674034672
 11
47.7892788181
 21
64.0406336593
  0
LINE
  5
232
100
AcDbEntity
  8
0
100
AcDbLine
 62
7
  6
BYLAYER
 10
48.197394578
 20
53.3395012295
 11
44.1886000118
 21
55.653927492
  0
LINE
  5
233
100
AcDbEntity
  8
0
100
AcDbLine
 62
7
  6
BYLAYER
 10
41.1016047199
 20
57.4361647352
 11
38.2153662404
 21
59.1024976008
  0
LINE
  5
234
100
AcDbEntity
  8
0
100
AcDbLine
 62
7
  6
BYLAYER
 10
47.7892788181
 20
63.5180357043
 11
47.7892788181
 21
64.0406336593
  0
LINE
  5
235
100
AcDbEntity
  8
0
100
AcDbLine
 62
7
  6
BYLAYER
 10
48.0896464464
 20
64.7738587409
 11
48.0896464464
 21
62.6637953151
  0
LINE
  5
236
100
AcDbEntity
  8
0
100
AcDbLine
 62
7
  6
BYLAYER
 10
45.3111273533
 20
57.5982126735
 11
43.3466881482
 21
58.7323565197
  0
LINE
  5
237
100
AcDbEntity
  8
0
100
AcDbLine
 62
7
  6
BYLAYER
 10
47.7892788181
 20
64.0406336593
 11
43.2847972331
 21
64.0406228319
  0
LINE
  5
238
100
AcDbEntity
  8
0
100
AcDbLine
 62
7
  6
BYLAYER
 10
49.6884237227
 20
55.7191271044
 11
39.5306554496
 21
61.5835846795
  0
LINE
  5
239
100
AcDbEntity
  8
0
100
AcDbLine
 62
7
  6
BYLAYER
 10
44.1809935522
 20
64.7738493457
 11
48.0896464464
 21
64.7738587409
  0
LINE
  5
23A
100
AcDbEntity
  8
0
100
AcDbLine
 62
7
  6
BYLAYER
 10
53.3090934364
 20
68.2566869953
 11
44.1809684365
 21
68.256665054
  0
LINE
  5
23B
100
AcDbEntity
  8
0
100
AcDbLine
 62
7
  6
BYLAYER
 10
58.5600471338
 20
60.2374315057
 11
58.5600471338
 21
53.7564435698
  0
LINE
  5
23C
100
AcDbEntity
  8
0
100
AcDbLine
 62
7
  6
BYLAYER
 10
61.2466264834
 20
57.1930468116
 11
61.2466264834
 21
63.6740347476
  0
SPLINE
  5
23D
100
AcDbEntity
  8
0
100
AcDbSpline
 62
7
  6
BYLAYER
 70
0
 71
3
 72
25
 73
21
 74
0
 42
0.0000001
 43
0.0000001
 44
0.0000000001
 40
0.0
 40
0.0
 40
0.0
 40
0.0
 40
0.0623789057
 40
0.1287246851
 40
0.1983143127
 40
0.2702916401
 40
0.343668205
 40
0.4174014002
 40
0.4904270423
 40
0.5617142852
 40
0.6303117148
 40
0.6953991666
 40
0.7563466121
 40
0.8127838162
 40
0.8646841473
 40
0.9124584761
 40
0.9351027523
 40
0.9571078056
 40
0.9786681085
 40
1.0
 40
1.0
 40
1.0
 40
1.0
 10
24.1234716849
 20
28.6771578465
 30
0.0
 10
23.7812803026
 20
28.4795947391
 30
0.0
 10
23.0478881153
 20
28.1180175656
 30
0.0
 10
21.8648840248
 20
27.6893298951
 30
0.0
 10
20.586416992
 20
27.364822715
 30
0.0
 10
19.239952027
 20
27.1512873036
 30
0.0
 10
17.8539502455
 20
27.0533147135
 30
0.0
 10
16.4580173117
 20
27.0729431899
 30
0.0
 10
15.0819187852
 20
27.2097924676
 30
0.0
 10
13.7549974168
 20
27.4609395501
 30
0.0
 10
12.5054420678
 20
27.8210664603
 30
0.0
 10
11.3596606826
 20
28.282669187
 30
0.0
 10
10.3417304236
 20
28.8362933551
 30
0.0
 10
9.47293164
 20
29.4711732064
 30
0.0
 10
8.7718859273
 20
30.1750200515
 30
0.0
 10
8.3330488392
 20
30.8207920964
 30
0.0
 10
8.0884990104
 20
31.3539624326
 30
0.0
 10
7.9588730841
 20
31.7539088283
 30
0.0
 10
7.8806856383
 20
32.1585182528
 30
0.0
 10
7.8632841342
 20
32.4305279713
 30
0.0
 10
7.8632838386
 20
32.5656510098
 30
0.0
  0
SPLINE
  5
23E
100
AcDbEntity
  8
0
100
AcDbSpline
 62
7
  6
BYLAYER
 70
0
 71
3
 72
20
 73
16
 74
0
 42
0.0000001
 43
0.0000001
 44
0.0000000001
 40
0.0
 40
0.0
 40
0.0
 40
0.0
 40
0.0428295179
 40
0.0874286277
 40
0.1352287766
 40
0.1871603246
 40
0.2436290154
 40
0.3046100286
 40
0.3697354659
 40
0.4383703314
 40
0.5826212798
 40
0.7296880022
 40
0.8711874545
 40
0.9376080431
 40
1.0
 40
1.0
 40
1.0
 40
1.0
 10
19.5313643759
 20
42.287132938
 30
0.0
 10
19.5313541801
 20
42.3481384462
 30
0.0
 10
19.5150714368
 20
42.4732041648
 30
0.0
 10
19.4433073097
 20
42.6537667376
 30
0.0
 10
19.3269609615
 20
42.8249788411
 30
0.0
 10
19.1691955446
 20
42.9833743831
 30
0.0
 10
18.9737317683
 20
43.126210429
 30
0.0
 10
18.744714466
 20
43.2507952652
 30
0.0
 10
18.4869025683
 20
43.3546420426
 30
0.0
 10
18.105864769
 20
43.4644470704
 30
0.0
 10
17.5951663244
 20
43.5360656561
 30
0.0
 10
16.9763475221
 20
43.5189888018
 30
0.0
 10
16.4773652754
 20
43.4192155795
 30
0.0
 10
16.1148436024
 20
43.2878125943
 30
0.0
 10
15.949790691
 20
43.2064786334
 30
0.0
 10
15.8728270232
 20
43.1620439043
 30
0.0
  0
SPLINE
  5
23F
100
AcDbEntity
  8
0
100
AcDbSpline
 62
7
  6
BYLAYER
 70
0
 71
3
 72
15
 73
11
 74
0
 42
0.0000001
 43
0.0000001
 44
0.0000000001
 40
0.0
 40
0.0
 40
0.0
 40
0.0
 40
0.1485547899
 40
0.2895088903
 40
0.4227325909
 40
0.5486406353
 40
0.6680016167
 40
0.781939551
 40
0.8919872806
 40
1.0
 40
1.0
 40
1.0
 40
1.0
 10
10.6530314209
 20
41.6389345689
 30
0.0
 10
10.4382547843
 20
41.5149339601
 30
0.0
 10
10.0294272427
 20
41.255752847
 30
0.0
 10
9.4704228406
 20
40.8231698683
 30
0.0
 10
8.9869330021
 20
40.3603567937
 30
0.0
 10
8.5838060895
 20
39.8716874573
 30
0.0
 10
8.2650605634
 20
39.3614868788
 30
0.0
 10
8.0343662153
 20
38.8343049667
 30
0.0
 10
7.8945571207
 20
38.2955353354
 30
0.0
 10
7.8632838993
 20
37.9307613707
 30
0.0
 10
7.8632840052
 20
37.7504413295
 30
0.0
  0
SPLINE
  5
240
100
AcDbEntity
  8
0
100
AcDbSpline
 62
7
  6
BYLAYER
 70
0
 71
3
 72
23
 73
19
 74
0
 42
0.0000001
 43
0.0000001
 44
0.0000000001
 40
0.0
 40
0.0
 40
0.0
 40
0.0
 40
0.0427777521
 40
0.0872332828
 40
0.1347409789
 40
0.1862127891
 40
0.2420788664
 40
0.3023575593
 40
0.3667426049
 40
0.4346731615
 40
0.505402451
 40
0.5780538892
 40
0.6516630026
 40
0.7252318265
 40
0.7977580249
 40
0.8682768861
 40
0.9359604816
 40
1.0
 40
1.0
 40
1.0
 40
1.0
 10
22.1507429975
 20
41.7686538768
 30
0.0
 10
22.1507326446
 20
41.9006017225
 30
0.0
 10
22.1164698657
 20
42.1707642909
 30
0.0
 10
21.965570371
 20
42.5617317281
 30
0.0
 10
21.7203410608
 20
42.9335336312
 30
0.0
 10
21.387327351
 20
43.2790426575
 30
0.0
 10
20.973924956
 20
43.592438626
 30
0.0
 10
20.4885344588
 20
43.8681603911
 30
0.0
 10
19.9407777802
 20
44.1010302254
 30
0.0
 10
19.3415741547
 20
44.2865544915
 30
0.0
 10
18.7029412757
 20
44.4211165165
 30
0.0
 10
18.0377327249
 20
44.5019886499
 30
0.0
 10
17.3593795506
 20
44.5275276713
 30
0.0
 10
16.6816056395
 20
44.4972412669
 30
0.0
 10
16.0181464395
 20
44.4117595516
 30
0.0
 10
15.3822716431
 20
44.2727610232
 30
0.0
 10
14.787061474
 20
44.0829967938
 30
0.0
 10
14.4137155701
 20
43.9202607379
 30
0.0
 10
14.2376991626
 20
43.8306158475
 30
0.0
  0
SPLINE
  5
241
100
AcDbEntity
  8
0
100
AcDbSpline
 62
7
  6
BYLAYER
 70
0
 71
3
 72
11
 73
7
 74
0
 42
0.0000001
 43
0.0000001
 44
0.0000000001
 40
0.0
 40
0.0
 40
0.0
 40
0.0
 40
0.2434712206
 40
0.4897588221
 40
0.7413249825
 40
1.0
 40
1.0
 40
1.0
 40
1.0
 10
40.2122481094
 20
65.0161424607
 30
0.0
 10
40.212246426
 20
65.1828533537
 30
0.0
 10
40.244213888
 20
65.5190414964
 30
0.0
 10
40.3865227267
 20
66.0091875969
 30
0.0
 10
40.6193585403
 20
66.4748721229
 30
0.0
 10
40.8279498995
 20
66.7575066419
 30
0.0
 10
40.9441253689
 20
66.8912048884
 30
0.0
  0
SPLINE
  5
242
100
AcDbEntity
  8
0
100
AcDbSpline
 62
7
  6
BYLAYER
 70
0
 71
3
 72
11
 73
7
 74
0
 42
0.0000001
 43
0.0000001
 44
0.0000000001
 40
0.0
 40
0.0
 40
0.0
 40
0.0
 40
0.2361831069
 40
0.4833889274
 40
0.7392927826
 40
1.0
 40
1.0
 40
1.0
 40
1.0
 10
40.9441253689
 20
66.8912048884
 30
0.0
 10
41.1306827577
 20
67.1059007781
 30
0.0
 10
41.570215902
 20
67.4975352642
 30
0.0
 10
42.3568646409
 20
67.9283479074
 30
0.0
 10
43.2431445889
 20
68.1963352315
 30
0.0
 10
43.8670093378
 20
68.2566642993
 30
0.0
 10
44.1809684365
 20
68.256665054
 30
0.0
  0
SPLINE
  5
243
100
AcDbEntity
  8
0
100
AcDbSpline
 62
7
  6
BYLAYER
 70
0
 71
3
 72
15
 73
11
 74
0
 42
0.0000001
 43
0.0000001
 44
0.0000000001
 40
0.0
 40
0.0
 40
0.0
 40
0.0
 40
0.1080093
 40
0.2180557109
 40
0.3319994698
 40
0.4513505497
 40
0.5772553873
 40
0.7104980347
 40
0.8514743326
 40
1.0
 40
1.0
 40
1.0
 40
1.0
 10
58.8653698428
 20
63.674034747
 30
0.0
 10
58.8653705278
 20
63.5688515764
 30
0.0
 10
58.847069143
 20
63.3560797367
 30
0.0
 10
58.7655934608
 20
63.0417763496
 30
0.0
 10
58.630945691
 20
62.7342915398
 30
0.0
 10
58.445090209
 20
62.4366384508
 30
0.0
 10
58.2098964066
 20
62.151599653
 30
0.0
 10
57.9278458975
 20
61.8815905769
 30
0.0
 10
57.6017296155
 20
61.6292708769
 30
0.0
 10
57.3632664776
 20
61.4780664327
 30
0.0
 10
57.2380048937
 20
61.4057470552
 30
0.0
  0
SPLINE
  5
244
100
AcDbEntity
  8
0
100
AcDbSpline
 62
7
  6
BYLAYER
 70
0
 71
3
 72
11
 73
7
 74
0
 42
0.0000001
 43
0.0000001
 44
0.0000000001
 40
0.0
 40
0.0
 40
0.0
 40
0.0
 40
0.236725344
 40
0.4827131867
 40
0.7375826798
 40
1.0
 40
1.0
 40
1.0
 40
1.0
 10
40.7031409013
 20
62.3612050052
 30
0.0
 10
40.825694604
 20
62.543248681
 30
0.0
 10
41.1156250277
 20
62.888773459
 30
0.0
 10
41.6501026108
 20
63.3211304566
 30
0.0
 10
42.273151211
 20
63.6636463588
 30
0.0
 10
42.7282675343
 20
63.8224169032
 30
0.0
 10
42.9635219493
 20
63.8843480405
 30
0.0
  0
SPLINE
  5
245
100
AcDbEntity
  8
0
100
AcDbSpline
 62
7
  6
BYLAYER
 70
0
 71
3
 72
19
 73
15
 74
0
 42
0.0000001
 43
0.0000001
 44
0.0000000001
 40
0.0
 40
0.0
 40
0.0
 40
0.0
 40
0.0450645598
 40
0.0909784053
 40
0.1385151772
 40
0.1883133168
 40
0.2408488669
 40
0.2964322688
 40
0.3552150949
 40
0.4172169415
 40
0.5502698365
 40
0.6938360827
 40
0.844945583
 40
1.0
 40
1.0
 40
1.0
 40
1.0
 10
61.2466162711
 20
63.6740347414
 30
0.0
 10
61.2466067134
 20
63.8243025116
 30
0.0
 10
61.2204969313
 20
64.1282771562
 30
0.0
 10
61.1040387195
 20
64.5772671061
 30
0.0
 10
60.9117704605
 20
65.0165800346
 30
0.0
 10
60.6461466028
 20
65.4417610279
 30
0.0
 10
60.3101886807
 20
65.8490012995
 30
0.0
 10
59.9072974744
 20
66.2345807327
 30
0.0
 10
59.4415041013
 20
66.595201193
 30
0.0
 10
58.7256433235
 20
67.0487632731
 30
0.0
 10
57.6974269587
 20
67.5274714133
 30
0.0
 10
56.3291003707
 20
67.9433872105
 30
0.0
 10
54.8479937426
 20
68.1993637811
 30
0.0
 10
53.826122375
 20
68.2566882381
 30
0.0
 10
53.3090934364
 20
68.2566869953
 30
0.0
  0
SPLINE
  5
246
100
AcDbEntity
  8
0
100
AcDbSpline
 62
7
  6
BYLAYER
 70
0
 71
3
 72
15
 73
11
 74
0
 42
0.0000001
 43
0.0000001
 44
0.0000000001
 40
0.0
 40
0.0
 40
0.0
 40
0.0
 40
0.1098665683
 40
0.221494158
 40
0.3365116994
 40
0.4562886217
 40
0.5819043444
 40
0.7141544701
 40
0.8535206528
 40
1.0
 40
1.0
 40
1.0
 40
1.0
 10
61.246616279
 20
57.1930468059
 30
0.0
 10
61.2466250906
 20
57.054789881
 30
0.0
 10
61.2245565723
 20
56.7755864262
 30
0.0
 10
61.1261475877
 20
56.3621208067
 30
0.0
 10
60.9632626985
 20
55.9561359939
 30
0.0
 10
60.7378600619
 20
55.5610793546
 30
0.0
 10
60.4519138188
 20
55.1800993586
 30
0.0
 10
60.1079882162
 20
54.8160078312
 30
0.0
 10
59.708997593
 20
54.4718359157
 30
0.0
 10
59.4158606285
 20
54.2624424504
 30
0.0
 10
59.2616267223
 20
54.1614983162
 30
0.0
  0
SPLINE
  5
247
100
AcDbEntity
  8
0
100
AcDbSpline
 62
7
  6
BYLAYER
 70
0
 71
3
 72
9
 73
5
 74
0
 42
0.0000001
 43
0.0000001
 44
0.0000000001
 40
0.0
 40
0.0
 40
0.0
 40
0.0
 40
0.2441542994
 40
1.0
 40
1.0
 40
1.0
 40
1.0
 10
59.2616267223
 20
54.1614983162
 30
0.0
 10
59.2064453736
 20
54.1253828238
 30
0.0
 10
58.9782875047
 20
53.9807574846
 30
0.0
 10
58.7419752008
 20
53.8490992595
 30
0.0
 10
58.5600471338
 20
53.7564435698
 30
0.0
  0
SPLINE
  5
248
100
AcDbEntity
  8
0
100
AcDbSpline
 62
7
  6
BYLAYER
 70
0
 71
3
 72
15
 73
11
 74
0
 42
0.0000001
 43
0.0000001
 44
0.0000000001
 40
0.0
 40
0.0
 40
0.0
 40
0.0
 40
0.1080112215
 40
0.2180578088
 40
0.3319951091
 40
0.4513554692
 40
0.577263273
 40
0.7104880525
 40
0.8514445597
 40
1.0
 40
1.0
 40
1.0
 40
1.0
 10
26.9132192672
 20
32.5656510569
 30
0.0
 10
26.9132196617
 20
32.3853335339
 30
0.0
 10
26.8819451656
 20
32.0205642917
 30
0.0
 10
26.7421417329
 20
31.4817989284
 30
0.0
 10
26.5114475938
 20
30.9546213779
 30
0.0
 10
26.1927090064
 20
30.4444196412
 30
0.0
 10
25.7895820633
 20
29.9557497356
 30
0.0
 10
25.3060908193
 20
29.4929303897
 30
0.0
 10
24.7470798189
 20
29.0603446484
 30
0.0
 10
24.3382492408
 20
28.801158986
 30
0.0
 10
24.1234716849
 20
28.6771578465
 30
0.0
  0
SPLINE
  5
249
100
AcDbEntity
  8
0
100
AcDbSpline
 62
7
  6
BYLAYER
 70
0
 71
3
 72
10
 73
6
 74
0
 42
0.0000001
 43
0.0000001
 44
0.0000000001
 40
0.0
 40
0.0
 40
0.0
 40
0.0
 40
0.2455635894
 40
0.4930072635
 40
1.0
 40
1.0
 40
1.0
 40
1.0
 10
26.9132191006
 20
37.7504414347
 30
0.0
 10
26.9132190337
 20
37.8644823789
 30
0.0
 10
26.9008443969
 20
38.0936609402
 30
0.0
 10
26.8262658212
 20
38.5526594633
 30
0.0
 10
26.7150740338
 20
38.8882508229
 30
0.0
 10
26.6202964644
 20
39.103782451
 30
0.0
  0
SPLINE
  5
24A
100
AcDbEntity
  8
0
100
AcDbSpline
 62
7
  6
BYLAYER
 70
0
 71
3
 72
9
 73
5
 74
0
 42
0.0000001
 43
0.0000001
 44
0.0000000001
 40
0.0
 40
0.0
 40
0.0
 40
0.0
 40
0.5150868303
 40
1.0
 40
1.0
 40
1.0
 40
1.0
 10
12.8310559773
 20
42.5793666365
 30
0.0
 10
12.4419237269
 20
42.4569572312
 30
0.0
 10
11.6971423975
 20
42.1833627728
 30
0.0
 10
10.9856158215
 20
41.830951116
 30
0.0
 10
10.6530314209
 20
41.6389345689
 30
0.0
  0
SPLINE
  5
24B
100
AcDbEntity
  8
0
100
AcDbSpline
 62
7
  6
BYLAYER
 70
0
 71
3
 72
25
 73
21
 74
0
 42
0.0000001
 43
0.0000001
 44
0.0000000001
 40
0.0
 40
0.0
 40
0.0
 40
0.0
 40
0.0623745512
 40
0.1287259547
 40
0.198311316
 40
0.2702879155
 40
0.3436638707
 40
0.4173940876
 40
0.490417275
 40
0.561703085
 40
0.630300128
 40
0.6953871367
 40
0.7563341785
 40
0.812771411
 40
0.8646726504
 40
0.9124478887
 40
0.93509018
 40
0.9570935237
 40
0.9786576955
 40
1.0
 40
1.0
 40
1.0
 40
1.0
 10
57.2380048937
 20
61.4057470552
 30
0.0
 10
57.0384072451
 20
61.290509987
 30
0.0
 10
56.6105842043
 20
61.0796031126
 30
0.0
 10
55.920518021
 20
60.8295153231
 30
0.0
 10
55.1747403321
 20
60.6402296973
 30
0.0
 10
54.3893262418
 20
60.5156550662
 30
0.0
 10
53.5808406254
 20
60.4585039387
 30
0.0
 10
52.7665694114
 20
60.4699658989
 30
0.0
 10
51.9638704691
 20
60.5497828072
 30
0.0
 10
51.1898450103
 20
60.6962609533
 30
0.0
 10
50.4609391618
 20
60.9063101293
 30
0.0
 10
49.7925684114
 20
61.1755711568
 30
0.0
 10
49.1987770426
 20
61.4985136849
 30
0.0
 10
48.6919647069
 20
61.8688425677
 30
0.0
 10
48.2829902655
 20
62.2794008264
 30
0.0
 10
48.0269992546
 20
62.6560961775
 30
0.0
 10
47.8843102314
 20
62.9670840434
 30
0.0
 10
47.8086728686
 20
63.200379821
 30
0.0
 10
47.7630452052
 20
63.4364473947
 30
0.0
 10
47.7529141151
 20
63.5951744498
 30
0.0
 10
47.7529193581
 20
63.6740346758
 30
0.0
  0
SPLINE
  5
24C
100
AcDbEntity
  8
0
100
AcDbSpline
 62
7
  6
BYLAYER
 70
0
 71
3
 72
13
 73
9
 74
0
 42
0.0000001
 43
0.0000001
 44
0.0000000001
 40
0.0
 40
0.0
 40
0.0
 40
0.0
 40
0.2893506519
 40
0.5483281515
 40
0.6677530324
 40
0.7817662615
 40
0.8919065661
 40
1.0
 40
1.0
 40
1.0
 40
1.0
 10
15.8728270232
 20
43.1620439043
 30
0.0
 10
15.778774837
 20
43.1077431734
 30
0.0
 10
15.6082024984
 20
42.9903434806
 30
0.0
 10
15.4337538956
 20
42.8068356627
 30
0.0
 10
15.335522597
 20
42.649614701
 30
0.0
 10
15.2836633611
 20
42.530988883
 30
0.0
 10
15.2521822202
 20
42.4097805269
 30
0.0
 10
15.2451319494
 20
42.3277036325
 30
0.0
 10
15.2451387299
 20
42.2871329365
 30
0.0
  0
SPLINE
  5
24D
100
AcDbEntity
  8
0
100
AcDbSpline
 62
7
  6
BYLAYER
 70
0
 71
3
 72
14
 73
10
 74
0
 42
0.0000001
 43
0.0000001
 44
0.0000000001
 40
0.0
 40
0.0
 40
0.0
 40
0.0
 40
0.1504595509
 40
0.29302655
 40
0.5531399065
 40
0.6721957106
 40
0.7851855661
 40
0.8937558186
 40
1.0
 40
1.0
 40
1.0
 40
1.0
 10
14.2376991626
 20
43.8306158475
 30
0.0
 10
14.1148262456
 20
43.7680368565
 30
0.0
 10
13.8804261623
 20
43.6359170995
 30
0.0
 10
13.4641537606
 20
43.346079465
 30
0.0
 10
13.1145741326
 20
43.0114850829
 30
0.0
 10
12.8602257806
 20
42.6372494678
 30
0.0
 10
12.7256807984
 20
42.3540089855
 30
0.0
 10
12.6441186054
 20
42.0633462176
 30
0.0
 10
12.6257524685
 20
41.8660229506
 30
0.0
 10
12.6257601083
 20
41.768653928
 30
0.0
  0
SPLINE
  5
24E
100
AcDbEntity
  8
0
100
AcDbSpline
 62
7
  6
BYLAYER
 70
0
 71
3
 72
21
 73
17
 74
0
 42
0.0000001
 43
0.0000001
 44
0.0000000001
 40
0.0
 40
0.0
 40
0.0
 40
0.0
 40
0.0551405758
 40
0.1110289614
 40
0.1681892991
 40
0.2270695674
 40
0.2878731748
 40
0.350611854
 40
0.4807352463
 40
0.5476487568
 40
0.6150169903
 40
0.7485937126
 40
0.8140354113
 40
0.8779070526
 40
0.9399297607
 40
1.0
 40
1.0
 40
1.0
 40
1.0
 10
41.0062024494
 20
66.8814528258
 30
0.0
 10
41.0083090624
 20
67.0188102872
 30
0.0
 10
41.0397450277
 20
67.2956961491
 30
0.0
 10
41.1665318384
 20
67.6975781709
 30
0.0
 10
41.3696673402
 20
68.0773667972
 30
0.0
 10
41.6433055553
 20
68.4253365224
 30
0.0
 10
41.9804622746
 20
68.7330537785
 30
0.0
 10
42.5086164709
 20
69.0836415362
 30
0.0
 10
43.1219787504
 20
69.3193180785
 30
0.0
 10
43.7725696125
 20
69.4309606994
 30
0.0
 10
44.4408365519
 20
69.4581090927
 30
0.0
 10
45.1058373182
 20
69.356100131
 30
0.0
 10
45.7216412896
 20
69.1283463226
 30
0.0
 10
46.1428003379
 20
68.9013478002
 30
0.0
 10
46.5150388159
 20
68.6226975739
 30
0.0
 10
46.7279753618
 20
68.4032309162
 30
0.0
 10
46.822621703
 20
68.2873054848
 30
0.0
  0
SPLINE
  5
24F
100
AcDbEntity
  8
0
100
AcDbSpline
 62
7
  6
BYLAYER
 70
0
 71
3
 72
23
 73
19
 74
0
 42
0.0000001
 43
0.0000001
 44
0.0000000001
 40
0.0
 40
0.0
 40
0.0
 40
0.0
 40
0.0640408039
 40
0.1317205835
 40
0.2022382201
 40
0.2747640607
 40
0.3483320792
 40
0.4219413321
 40
0.4945939463
 40
0.5653246315
 40
0.6332561117
 40
0.6976427299
 40
0.7579223579
 40
0.8137878888
 40
0.8652598452
 40
0.9127680021
 40
0.9572228812
 40
1.0
 40
1.0
 40
1.0
 40
1.0
 10
20.5388039432
 20
35.688479437
 30
0.0
 10
20.3627839682
 20
35.5988327297
 30
0.0
 10
19.9894478213
 20
35.4360934165
 30
0.0
 10
19.3942458238
 20
35.2463400441
 30
0.0
 10
18.7583876564
 20
35.107346147
 30
0.0
 10
18.0949377641
 20
35.0218479569
 30
0.0
 10
17.4171660416
 20
34.9915672378
 30
0.0
 10
16.7388119869
 20
35.0171102356
 30
0.0
 10
16.0735926124
 20
35.0979633697
 30
0.0
 10
15.4349489076
 20
35.2325314554
 30
0.0
 10
14.8357380143
 20
35.4180709922
 30
0.0
 10
14.2879647596
 20
35.6509278903
 30
0.0
 10
13.802566537
 20
35.9266513536
 30
0.0
 10
13.3891767508
 20
36.2400674044
 30
0.0
 10
13.0561595569
 20
36.5855681301
 30
0.0
 10
12.8109045644
 20
36.9573602433
 30
0.0
 10
12.6600597944
 20
37.3483403307
 30
0.0
 10
12.6257520608
 20
37.618495464
 30
0.0
 10
12.625764827
 20
37.7504413817
 30
0.0
  0
SPLINE
  5
250
100
AcDbEntity
  8
0
100
AcDbSpline
 62
7
  6
BYLAYER
 70
0
 71
3
 72
14
 73
10
 74
0
 42
0.0000001
 43
0.0000001
 44
0.0000000001
 40
0.0
 40
0.0
 40
0.0
 40
0.0
 40
0.1062428847
 40
0.2148124598
 40
0.3278022709
 40
0.4468575994
 40
0.7069731685
 40
0.8495415996
 40
1.0
 40
1.0
 40
1.0
 40
1.0
 10
22.1507425739
 20
41.3149847397
 30
0.0
 10
22.1507485696
 20
41.2176169367
 30
0.0
 10
22.132383623
 20
41.0202957649
 30
0.0
 10
22.0508232461
 20
40.7296342747
 30
0.0
 10
21.9162781964
 20
40.4463952794
 30
0.0
 10
21.6619331444
 20
40.0721557947
 30
0.0
 10
21.3123500627
 20
39.7375601343
 30
0.0
 10
20.8960756424
 20
39.4477220006
 30
0.0
 10
20.6616758811
 20
39.3156012941
 30
0.0
 10
20.5388039432
 20
39.2530228018
 30
0.0
  0
SPLINE
  5
251
100
AcDbEntity
  8
0
100
AcDbSpline
 62
7
  6
BYLAYER
 70
0
 71
3
 72
23
 73
19
 74
0
 42
0.0000001
 43
0.0000001
 44
0.0000000001
 40
0.0
 40
0.0
 40
0.0
 40
0.0
 40
0.0427777521
 40
0.0872332828
 40
0.1347409789
 40
0.1862127891
 40
0.2420788664
 40
0.3023575593
 40
0.3667426049
 40
0.4346731615
 40
0.505402451
 40
0.5780538892
 40
0.6516630026
 40
0.7252318265
 40
0.7977580249
 40
0.8682768861
 40
0.9359604816
 40
1.0
 40
1.0
 40
1.0
 40
1.0
 10
12.6257601083
 20
41.768653928
 30
0.0
 10
12.6257704612
 20
41.6367060823
 30
0.0
 10
12.6600332401
 20
41.3665435139
 30
0.0
 10
12.8109327348
 20
40.9755760767
 30
0.0
 10
13.056162045
 20
40.6037741736
 30
0.0
 10
13.3891757548
 20
40.2582651473
 30
0.0
 10
13.8025781498
 20
39.9448691788
 30
0.0
 10
14.287968647
 20
39.6691474137
 30
0.0
 10
14.8357253256
 20
39.4362775794
 30
0.0
 10
15.4349289512
 20
39.2507533133
 30
0.0
 10
16.0735618302
 20
39.1161912883
 30
0.0
 10
16.738770381
 20
39.0353191549
 30
0.0
 10
17.4171235553
 20
39.0097801336
 30
0.0
 10
18.0948974663
 20
39.040066538
 30
0.0
 10
18.7583566663
 20
39.1255482532
 30
0.0
 10
19.3942314627
 20
39.2645467816
 30
0.0
 10
19.9894416318
 20
39.4543110111
 30
0.0
 10
20.3627875357
 20
39.6170470669
 30
0.0
 10
20.5388039432
 20
39.7066919573
 30
0.0
  0
SPLINE
  5
252
100
AcDbEntity
  8
0
100
AcDbSpline
 62
7
  6
BYLAYER
 70
0
 71
3
 72
23
 73
19
 74
0
 42
0.0000001
 43
0.0000001
 44
0.0000000001
 40
0.0
 40
0.0
 40
0.0
 40
0.0
 40
0.062383221
 40
0.1287488189
 40
0.1983462931
 40
0.2703361131
 40
0.3437246072
 40
0.4174677379
 40
0.4905050312
 40
0.5618043479
 40
0.6304129995
 40
0.6955106374
 40
0.7564679552
 40
0.8129145792
 40
0.8648228613
 40
0.912604651
 40
0.9571861133
 40
1.0
 40
1.0
 40
1.0
 40
1.0
 10
49.380248073
 20
65.9423224399
 30
0.0
 10
49.5798412166
 20
66.0575569072
 30
0.0
 10
50.0076738544
 20
66.268461179
 30
0.0
 10
50.6977470442
 20
66.5185610369
 30
0.0
 10
51.4435472324
 20
66.7078485984
 30
0.0
 10
52.2289732899
 20
66.8324221652
 30
0.0
 10
53.0374718711
 20
66.8895639865
 30
0.0
 10
53.8517574514
 20
66.878094372
 30
0.0
 10
54.6544760559
 20
66.7982786106
 30
0.0
 10
55.4285187991
 20
66.6517920664
 30
0.0
 10
56.157425607
 20
66.4417084416
 30
0.0
 10
56.8257931663
 20
66.172436903
 30
0.0
 10
57.4195906447
 20
65.8494824846
 30
0.0
 10
57.9263845606
 20
65.4791819099
 30
0.0
 10
58.3353564726
 20
65.0684717727
 30
0.0
 10
58.6370952673
 20
64.6246361413
 30
0.0
 10
58.823062176
 20
64.1564561979
 30
0.0
 10
58.8653688128
 20
63.8322073274
 30
0.0
 10
58.8653698428
 20
63.674034747
 30
0.0
  0
SPLINE
  5
253
100
AcDbEntity
  8
0
100
AcDbSpline
 62
7
  6
BYLAYER
 70
0
 71
3
 72
10
 73
6
 74
0
 42
0.0000001
 43
0.0000001
 44
0.0000000001
 40
0.0
 40
0.0
 40
0.0
 40
0.0
 40
0.4687024933
 40
0.7264785578
 40
1.0
 40
1.0
 40
1.0
 40
1.0
 10
48.0896464464
 20
64.7738587409
 30
0.0
 10
48.2361423093
 20
65.0055959323
 30
0.0
 10
48.5220829657
 20
65.3290699024
 30
0.0
 10
48.979319186
 20
65.6943779994
 30
0.0
 10
49.2416912491
 20
65.8623270978
 30
0.0
 10
49.380248073
 20
65.9423224399
 30
0.0
  0
SPLINE
  5
254
100
AcDbEntity
  8
0
100
AcDbSpline
 62
7
  6
BYLAYER
 70
0
 71
3
 72
15
 73
11
 74
0
 42
0.0000001
 43
0.0000001
 44
0.0000000001
 40
0.0
 40
0.0
 40
0.0
 40
0.0
 40
0.1464792447
 40
0.2858452972
 40
0.4180953624
 40
0.543711095
 40
0.6634880527
 40
0.7785056564
 40
0.8901333272
 40
1.0
 40
1.0
 40
1.0
 40
1.0
 10
59.2616267223
 20
60.6424862522
 30
0.0
 10
59.41586052
 20
60.7434303153
 30
0.0
 10
59.7089972804
 20
60.9528235579
 30
0.0
 10
60.1079876369
 20
61.2969952159
 30
0.0
 10
60.4519131307
 20
61.6610865223
 30
0.0
 10
60.7378594981
 20
62.042066402
 30
0.0
 10
60.9632622542
 20
62.4371231227
 30
0.0
 10
61.1261474141
 20
62.8431080744
 30
0.0
 10
61.2245564145
 20
63.2565740107
 30
0.0
 10
61.2466250649
 20
63.5357776857
 30
0.0
 10
61.2466162711
 20
63.6740347414
 30
0.0
  0
SPLINE
  5
255
100
AcDbEntity
  8
0
100
AcDbSpline
 62
7
  6
BYLAYER
 70
0
 71
3
 72
9
 73
5
 74
0
 42
0.0000001
 43
0.0000001
 44
0.0000000001
 40
0.0
 40
0.0
 40
0.0
 40
0.0
 40
0.2558729148
 40
1.0
 40
1.0
 40
1.0
 40
1.0
 10
58.5600471338
 20
60.2374315057
 30
0.0
 10
58.6216338626
 20
60.2687975337
 30
0.0
 10
58.8607594047
 20
60.3944191669
 30
0.0
 10
59.0934478989
 20
60.5324153467
 30
0.0
 10
59.2616267223
 20
60.6424862522
 30
0.0
  0
SPLINE
  5
256
100
AcDbEntity
  8
0
100
AcDbSpline
 62
7
  6
BYLAYER
 70
0
 71
3
 72
9
 73
5
 74
0
 42
0.0000001
 43
0.0000001
 44
0.0000000001
 40
0.0
 40
0.0
 40
0.0
 40
0.0
 40
0.4744190644
 40
1.0
 40
1.0
 40
1.0
 40
1.0
 10
21.6241204391
 20
36.4936367939
 30
0.0
 10
21.4814217843
 20
36.3333326703
 30
0.0
 10
21.1399249753
 20
36.0309983769
 30
0.0
 10
20.7506701483
 20
35.7963825752
 30
0.0
 10
20.5388039432
 20
35.688479437
 30
0.0
  0
SPLINE
  5
257
100
AcDbEntity
  8
0
100
AcDbSpline
 62
7
  6
BYLAYER
 70
0
 71
3
 72
13
 73
9
 74
0
 42
0.0000001
 43
0.0000001
 44
0.0000000001
 40
0.0
 40
0.0
 40
0.0
 40
0.0
 40
0.2893506519
 40
0.5483281515
 40
0.6677530324
 40
0.7817662615
 40
0.8919065661
 40
1.0
 40
1.0
 40
1.0
 40
1.0
 10
18.9036760826
 20
41.4122219703
 30
0.0
 10
18.9977282688
 20
41.4665227011
 30
0.0
 10
19.1683006074
 20
41.583922394
 30
0.0
 10
19.3427492102
 20
41.7674302119
 30
0.0
 10
19.4409805088
 20
41.9246511736
 30
0.0
 10
19.4928397447
 20
42.0432769916
 30
0.0
 10
19.5243208857
 20
42.1644853477
 30
0.0
 10
19.5313711564
 20
42.2465622421
 30
0.0
 10
19.5313643759
 20
42.287132938
 30
0.0
  0
SPLINE
  5
258
100
AcDbEntity
  8
0
100
AcDbSpline
 62
7
  6
BYLAYER
 70
0
 71
3
 72
15
 73
11
 74
0
 42
0.0000001
 43
0.0000001
 44
0.0000000001
 40
0.0
 40
0.0
 40
0.0
 40
0.0
 40
0.1485547899
 40
0.2895088903
 40
0.4227325909
 40
0.5486406353
 40
0.6680016167
 40
0.781939551
 40
0.8919872806
 40
1.0
 40
1.0
 40
1.0
 40
1.0
 10
24.1234716849
 20
33.8619481953
 30
0.0
 10
24.3382483215
 20
33.9859488041
 30
0.0
 10
24.7470758631
 20
34.2451299173
 30
0.0
 10
25.3060802652
 20
34.677712896
 30
0.0
 10
25.7895701037
 20
35.1405259705
 30
0.0
 10
26.1926970164
 20
35.6291953069
 30
0.0
 10
26.5114425424
 20
36.1393958854
 30
0.0
 10
26.7421368905
 20
36.6665777975
 30
0.0
 10
26.8819459851
 20
37.2053474289
 30
0.0
 10
26.9132192065
 20
37.5701213935
 30
0.0
 10
26.9132191006
 20
37.7504414347
 30
0.0
  0
SPLINE
  5
259
100
AcDbEntity
  8
0
100
AcDbSpline
 62
7
  6
BYLAYER
 70
0
 71
3
 72
13
 73
9
 74
0
 42
0.0000001
 43
0.0000001
 44
0.0000000001
 40
0.0
 40
0.0
 40
0.0
 40
0.0
 40
0.2690411241
 40
0.5279773672
 40
0.6519211662
 40
0.7715703008
 40
0.8872950292
 40
1.0
 40
1.0
 40
1.0
 40
1.0
 10
44.1809935522
 20
64.7738493457
 30
0.0
 10
43.7253724465
 20
64.7738482505
 30
0.0
 10
42.8262448923
 20
64.6481994288
 30
0.0
 10
41.8061548676
 20
64.1788522651
 30
0.0
 10
41.1410548816
 20
63.6419453261
 30
0.0
 10
40.7395517053
 20
63.1800519297
 30
0.0
 10
40.4415965621
 20
62.6673044551
 30
0.0
 10
40.3172545078
 20
62.2975420985
 30
0.0
 10
40.2758842063
 20
62.1112137011
 30
0.0
  0
SPLINE
  5
25A
100
AcDbEntity
  8
0
100
AcDbSpline
 62
7
  6
BYLAYER
 70
0
 71
3
 72
20
 73
16
 74
0
 42
0.0000001
 43
0.0000001
 44
0.0000000001
 40
0.0
 40
0.0
 40
0.0
 40
0.0
 40
0.0623923591
 40
0.1288115002
 40
0.2703057805
 40
0.4173673287
 40
0.5616183621
 40
0.6302548008
 40
0.6953817817
 40
0.7563644928
 40
0.8128338391
 40
0.8647663575
 40
0.9125676372
 40
0.9571681261
 40
1.0
 40
1.0
 40
1.0
 40
1.0
 10
18.9036760826
 20
40.8937429354
 30
0.0
 10
18.8267119233
 20
40.8493079225
 30
0.0
 10
18.6616605182
 20
40.7679742863
 30
0.0
 10
18.2991471754
 20
40.6365744591
 30
0.0
 10
17.8001824575
 20
40.5368012857
 30
0.0
 10
17.1813787609
 20
40.5197179087
 30
0.0
 10
16.6706841699
 20
40.591327774
 30
0.0
 10
16.2896408063
 20
40.7011305316
 30
0.0
 10
16.0318220627
 20
40.8049778415
 30
0.0
 10
15.8027953867
 20
40.9295576196
 30
0.0
 10
15.6073291353
 20
41.072398177
 30
0.0
 10
15.44955521
 20
41.2307903693
 30
0.0
 10
15.3332035555
 20
41.4020056327
 30
0.0
 10
15.2614378149
 20
41.5825745783
 30
0.0
 10
15.2451497489
 20
41.7076450375
 30
0.0
 10
15.2451391415
 20
41.7686538978
 30
0.0
  0
SPLINE
  5
25B
100
AcDbEntity
  8
0
100
AcDbSpline
 62
7
  6
BYLAYER
 70
0
 71
3
 72
14
 73
10
 74
0
 42
0.0000001
 43
0.0000001
 44
0.0000000001
 40
0.0
 40
0.0
 40
0.0
 40
0.0
 40
0.1504595509
 40
0.29302655
 40
0.5531399065
 40
0.6721957106
 40
0.7851855661
 40
0.8937558186
 40
1.0
 40
1.0
 40
1.0
 40
1.0
 10
20.5388039432
 20
39.7066919573
 30
0.0
 10
20.6616768602
 20
39.7692709483
 30
0.0
 10
20.8960769435
 20
39.9013907053
 30
0.0
 10
21.3123493453
 20
40.1912283398
 30
0.0
 10
21.6619289732
 20
40.5258227219
 30
0.0
 10
21.9162773252
 20
40.900058337
 30
0.0
 10
22.0508223074
 20
41.1832988193
 30
0.0
 10
22.1323845004
 20
41.4739615872
 30
0.0
 10
22.1507506373
 20
41.6712848542
 30
0.0
 10
22.1507429975
 20
41.7686538768
 30
0.0
  0
SPLINE
  5
25C
100
AcDbEntity
  8
0
100
AcDbSpline
 62
7
  6
BYLAYER
 70
0
 71
3
 72
20
 73
16
 74
0
 42
0.0000001
 43
0.0000001
 44
0.0000000001
 40
0.0
 40
0.0
 40
0.0
 40
0.0
 40
0.0428295179
 40
0.0874286277
 40
0.1352287766
 40
0.1871603246
 40
0.2436290154
 40
0.3046100286
 40
0.3697354659
 40
0.4383703314
 40
0.5826212798
 40
0.7296880022
 40
0.8711874545
 40
0.9376080431
 40
1.0
 40
1.0
 40
1.0
 40
1.0
 10
15.2451387299
 20
42.2871329365
 30
0.0
 10
15.2451489257
 20
42.2261274283
 30
0.0
 10
15.261431669
 20
42.1010617098
 30
0.0
 10
15.3331957962
 20
41.9204991369
 30
0.0
 10
15.4495421443
 20
41.7492870334
 30
0.0
 10
15.6073075613
 20
41.5908914915
 30
0.0
 10
15.8027713375
 20
41.4480554456
 30
0.0
 10
16.0317886398
 20
41.3234706094
 30
0.0
 10
16.2896005375
 20
41.219623832
 30
0.0
 10
16.6706383369
 20
41.1098188042
 30
0.0
 10
17.1813367815
 20
41.0382002184
 30
0.0
 10
17.8001555837
 20
41.0552770727
 30
0.0
 10
18.2991378305
 20
41.1550502951
 30
0.0
 10
18.6616595034
 20
41.2864532803
 30
0.0
 10
18.8267124148
 20
41.3677872412
 30
0.0
 10
18.9036760826
 20
41.4122219703
 30
0.0
  0
SPLINE
  5
25D
100
AcDbEntity
  8
0
100
AcDbSpline
 62
7
  6
BYLAYER
 70
0
 71
3
 72
13
 73
9
 74
0
 42
0.0000001
 43
0.0000001
 44
0.0000000001
 40
0.0
 40
0.0
 40
0.0
 40
0.0
 40
0.1080949341
 40
0.21823649
 40
0.3322502744
 40
0.4516769078
 40
0.7106570619
 40
1.0
 40
1.0
 40
1.0
 40
1.0
 10
19.5313639644
 20
41.768653907
 30
0.0
 10
19.5313710183
 20
41.7280826853
 30
0.0
 10
19.524315617
 20
41.6460052711
 30
0.0
 10
19.4928378935
 20
41.5247953114
 30
0.0
 10
19.4409787549
 20
41.4061677376
 30
0.0
 10
19.3427438265
 20
41.2489470884
 30
0.0
 10
19.1682965272
 20
41.0654404307
 30
0.0
 10
18.9977256752
 20
40.9480421688
 30
0.0
 10
18.9036760826
 20
40.8937429354
 30
0.0
  0
SPLINE
  5
25E
100
AcDbEntity
  8
0
100
AcDbSpline
 62
7
  6
BYLAYER
 70
0
 71
3
 72
25
 73
21
 74
0
 42
0.0000001
 43
0.0000001
 44
0.0000000001
 40
0.0
 40
0.0
 40
0.0
 40
0.0
 40
0.0213321585
 40
0.0428927774
 40
0.0648981834
 40
0.0875428265
 40
0.1353179403
 40
0.1872189775
 40
0.2436566253
 40
0.3046041659
 40
0.369691305
 40
0.4382879934
 40
0.5095741513
 40
0.5825985874
 40
0.6563307479
 40
0.7297066716
 40
0.8016838521
 40
0.8712735994
 40
0.9376203847
 40
1.0
 40
1.0
 40
1.0
 40
1.0
 10
7.8632840052
 20
37.7504413295
 30
0.0
 10
7.8632840845
 20
37.6153166031
 30
0.0
 10
7.8806854738
 20
37.3433031011
 30
0.0
 10
7.9588763812
 20
36.9386882461
 30
0.0
 10
8.0885060267
 20
36.5387362015
 30
0.0
 10
8.3330619119
 20
36.0055581086
 30
0.0
 10
8.7719108525
 20
35.3597795212
 30
0.0
 10
9.472971725
 20
34.6559305088
 30
0.0
 10
10.3417815369
 20
34.0210525571
 30
0.0
 10
11.3597162465
 20
33.4674337625
 30
0.0
 10
12.505494029
 20
33.0058385988
 30
0.0
 10
13.7550375929
 20
32.645720037
 30
0.0
 10
15.0819406554
 20
32.3945801534
 30
0.0
 10
16.4580182012
 20
32.2577342191
 30
0.0
 10
17.8539327488
 20
32.2381047741
 30
0.0
 10
19.2399231326
 20
32.3360744457
 30
0.0
 10
20.5863840849
 20
32.5496073876
 30
0.0
 10
21.8648582646
 20
32.874111724
 30
0.0
 10
23.0478733749
 20
33.3028030661
 30
0.0
 10
23.7812764186
 20
33.6643828455
 30
0.0
 10
24.1234716849
 20
33.8619481953
 30
0.0
  0
ENDSEC
  0
SECTION
  2
OBJECTS
  0
DICTIONARY
  5
C
100
AcDbDictionary
280
0
281
1
  3
ACAD_GROUP
350
D
  3
ACAD_MLINESTYLE
350
17
  3
ACAD_LAYOUT
350
1A
  3
ACAD_PLOTSETTINGS
350
19
  3
ACAD_PLOTSTYLENAME
350
E
  0
DICTIONARY
  5
D
102
{ACAD_REACTORS
330
C
102
}
100
AcDbDictionary
280
0
281
1
  0
ACDBDICTIONARYWDFLT
  5
E
102
{ACAD_REACTORS
330
C
102
}
100
AcDbDictionary
281
1
  3
Normal
350
F
100
AcDbDictionaryWithDefault
340
F
  0
DICTIONARY
  5
17
102
{ACAD_REACTORS
330
C
102
}
100
AcDbDictionary
280
0
281
1
  3
Standard
350
18
  0
DICTIONARY
  5
19
102
{ACAD_REACTORS
330
C
102
}
100
AcDbDictionary
281
1
  0
DICTIONARY
  5
1A
102
{ACAD_REACTORS
330
C
102
}
100
AcDbDictionary
281
1
  3
Model
350
25F
  3
Layout1
350
260
  0
ACDBPLACEHOLDER
  5
F
102
{ACAD_REACTORS
330
E
102
}
  0
MLINESTYLE
  5
18
102
{ACAD_REACTORS
330
17
102
}
100
AcDbMlineStyle
  2
STANDARD
 70
0
  3

 62
256
 51
90.0
 52
90.0
 71
2
 49
0.5
 62
256
  6
BYLAYER
 49
-0.5
 62
256
  6
BYLAYER
  0
LAYOUT
  5
25F
102
{ACAD_REACTORS
330
1A
102
}
100
AcDbPlotSettings
  1

  2
none_device
  4

  6

 40
0.0
 41
0.0
 42
0.0
 43
0.0
 44
210.0
 45
297.0
 46
0.0
 47
0.0
 48
0.0
 49
0.0
140
0.0
141
0.0
142
1.0
143
1.0
 70
1024
 72
1
 73
0
 74
0
  7

 75
0
147
1.0
148
0.0
149
0.0
100
AcDbLayout
  1
Model
 70
0
 71
0
 10
0.0
 20
0.0
 11
210.0
 21
297.0
 12
0.0
 22
0.0
 32
0.0
 14
0.0
 24
0.0
 34
0.0
 15
0.0
 25
0.0
 35
0.0
146
0.0
 13
0.0
 23
0.0
 33
0.0
 16
1.0
 26
0.0
 36
0.0
 17
0.0
 27
1.0
 37
0.0
 76
0
330
210
345
0
346
0
  0
LAYOUT
  5
260
102
{ACAD_REACTORS
330
1A
102
}
100
AcDbPlotSettings
  1

  2
none_device
  4

  6

 40
0.0
 41
0.0
 42
0.0
 43
0.0
 44
210.0
 45
297.0
 46
0.0
 47
0.0
 48
0.0
 49
0.0
140
0.0
141
0.0
142
1.0
143
1.0
 70
0
 72
1
 73
0
 74
0
  7

 75
0
147
1.0
148
0.0
149
0.0
100
AcDbLayout
  1
Layout1
 70
0
 71
1
 10
0.0
 20
0.0
 11
210.0
 21
297.0
 12
0.0
 22
0.0
 32
0.0
 14
0.0
 24
0.0
 34
0.0
 15
0.0
 25
0.0
 35
0.0
146
0.0
 13
0.0
 23
0.0
 33
0.0
 16
1.0
 26
0.0
 36
0.0
 17
0.0
 27
1.0
 37
0.0
 76
0
330
211
345
0
346
0
  0
ENDSEC
  0
EOF
